  0
SECTION
  2
HEADER
  9
$ACADVER
  1
AC1009
  9
$INSBASE
 10
0.0
 20
0.0
 30
0.0
  9
$EXTMIN
 10
-109.421884
 20
-19.688847
 30
0.0
  9
$EXTMAX
 10
1342.604585
 20
709.342824
 30
0.0
  9
$LIMMIN
 10
0.0
 20
0.0
  9
$LIMMAX
 10
12.0
 20
9.0
  9
$ORTHOMODE
 70
     1
  9
$REGENMODE
 70
     1
  9
$FILLMODE
 70
     1
  9
$QTEXTMODE
 70
     0
  9
$MIRRTEXT
 70
     1
  9
$DRAGMODE
 70
     2
  9
$LTSCALE
 40
5.0
  9
$OSMODE
 70
     0
  9
$ATTMODE
 70
     1
  9
$TEXTSIZE
 40
2.664
  9
$TRACEWID
 40
0.05
  9
$TEXTSTYLE
  7
STANDARD
  9
$CLAYER
  8
0
  9
$CELTYPE
  6
BYLAYER
  9
$CECOLOR
 62
   256
  9
$DIMSCALE
 40
1.0
  9
$DIMASZ
 40
2.5
  9
$DIMEXO
 40
0.0
  9
$DIMDLI
 40
5.0
  9
$DIMRND
 40
0.0
  9
$DIMDLE
 40
0.0
  9
$DIMEXE
 40
1.0
  9
$DIMTP
 40
0.0
  9
$DIMTM
 40
0.0
  9
$DIMTXT
 40
2.5
  9
$DIMCEN
 40
0.09
  9
$DIMTSZ
 40
0.0
  9
$DIMTOL
 70
     0
  9
$DIMLIM
 70
     0
  9
$DIMTIH
 70
     0
  9
$DIMTOH
 70
     0
  9
$DIMSE1
 70
     0
  9
$DIMSE2
 70
     0
  9
$DIMTAD
 70
     1
  9
$DIMZIN
 70
     0
  9
$DIMBLK
  1

  9
$DIMASO
 70
     0
  9
$DIMSHO
 70
     0
  9
$DIMPOST
  1

  9
$DIMAPOST
  1

  9
$DIMALT
 70
     0
  9
$DIMALTD
 70
     2
  9
$DIMALTF
 40
25.4
  9
$DIMLFAC
 40
1.0
  9
$DIMTOFL
 70
     1
  9
$DIMTVP
 40
0.0
  9
$DIMTIX
 70
     0
  9
$DIMSOXD
 70
     0
  9
$DIMSAH
 70
     0
  9
$DIMBLK1
  1

  9
$DIMBLK2
  1

  9
$DIMSTYLE
  2
*UNNAMED
  9
$DIMCLRD
 70
     0
  9
$DIMCLRE
 70
     0
  9
$DIMCLRT
 70
     0
  9
$DIMTFAC
 40
1.0
  9
$DIMGAP
 40
0.09
  9
$LUNITS
 70
     2
  9
$LUPREC
 70
     4
  9
$SKETCHINC
 40
0.1
  9
$FILLETRAD
 40
2.5
  9
$AUNITS
 70
     0
  9
$AUPREC
 70
     0
  9
$MENU
  1
wiberger
  9
$ELEVATION
 40
0.0
  9
$PELEVATION
 40
0.0
  9
$THICKNESS
 40
0.0
  9
$LIMCHECK
 70
     0
  9
$BLIPMODE
 70
     1
  9
$CHAMFERA
 40
1.5
  9
$CHAMFERB
 40
1.5
  9
$SKPOLY
 70
     0
  9
$TDCREATE
 40
2450191.441219444
  9
$TDUPDATE
 40
2450218.553462037
  9
$TDINDWG
 40
0.0097034722
  9
$TDUSRTIMER
 40
0.0097034722
  9
$USRTIMER
 70
     1
  9
$ANGBASE
 50
0.0
  9
$ANGDIR
 70
     0
  9
$PDMODE
 70
     0
  9
$PDSIZE
 40
0.0
  9
$PLINEWID
 40
0.0
  9
$COORDS
 70
     2
  9
$SPLFRAME
 70
     0
  9
$SPLINETYPE
 70
     6
  9
$SPLINESEGS
 70
     8
  9
$ATTDIA
 70
     0
  9
$ATTREQ
 70
     1
  9
$HANDLING
 70
     0
  9
$HANDSEED
  5
0
  9
$SURFTAB1
 70
     6
  9
$SURFTAB2
 70
     6
  9
$SURFTYPE
 70
     6
  9
$SURFU
 70
     6
  9
$SURFV
 70
     6
  9
$UCSNAME
  2

  9
$UCSORG
 10
0.0
 20
0.0
 30
0.0
  9
$UCSXDIR
 10
1.0
 20
0.0
 30
0.0
  9
$UCSYDIR
 10
0.0
 20
1.0
 30
0.0
  9
$PUCSNAME
  2

  9
$PUCSORG
 10
0.0
 20
0.0
 30
0.0
  9
$PUCSXDIR
 10
1.0
 20
0.0
 30
0.0
  9
$PUCSYDIR
 10
0.0
 20
1.0
 30
0.0
  9
$USERI1
 70
     0
  9
$USERI2
 70
     0
  9
$USERI3
 70
     0
  9
$USERI4
 70
     0
  9
$USERI5
 70
     0
  9
$USERR1
 40
0.0
  9
$USERR2
 40
0.0
  9
$USERR3
 40
0.0
  9
$USERR4
 40
0.0
  9
$USERR5
 40
0.0
  9
$WORLDVIEW
 70
     1
  9
$SHADEDGE
 70
     3
  9
$SHADEDIF
 70
    70
  9
$TILEMODE
 70
     1
  9
$MAXACTVP
 70
    16
  9
$PINSBASE
 10
0.0
 20
0.0
 30
0.0
  9
$PLIMCHECK
 70
     0
  9
$PEXTMIN
 10
1.000000E+20
 20
1.000000E+20
 30
1.000000E+20
  9
$PEXTMAX
 10
-1.000000E+20
 20
-1.000000E+20
 30
-1.000000E+20
  9
$PLIMMIN
 10
0.0
 20
0.0
  9
$PLIMMAX
 10
12.0
 20
9.0
  9
$UNITMODE
 70
     0
  9
$VISRETAIN
 70
     0
  9
$PLINEGEN
 70
     0
  9
$PSLTSCALE
 70
     0
  9
$TREEDEPTH
 70
  3020
  9
$DWGCODEPAGE
  3
undefined
  0
ENDSEC
  0
SECTION
  2
TABLES
  0
TABLE
  2
VPORT
 70
     4
  0
VPORT
  2
*ACTIVE
 70
     0
 10
0.0
 20
0.0
 11
1.0
 21
1.0
 12
840.031355
 22
331.994197
 13
0.0
 23
0.0
 14
1.0
 24
1.0
 15
0.0
 25
0.0
 16
0.0
 26
0.0
 36
1.0
 17
0.0
 27
0.0
 37
0.0
 40
1111.0
 41
1.767507
 42
50.0
 43
0.0
 44
0.0
 50
0.0
 51
0.0
 71
     0
 72
   100
 73
     1
 74
     0
 75
     0
 76
     0
 77
     0
 78
     0
  0
VPORT
  2
V2
 70
     0
 10
0.0
 20
0.0
 11
0.5
 21
1.0
 12
-80.429683
 22
227.411565
 13
0.0
 23
0.0
 14
1.0
 24
1.0
 15
0.0
 25
0.0
 16
0.0
 26
0.0
 36
1.0
 17
0.0
 27
0.0
 37
0.0
 40
111.42466
 41
0.679625
 42
50.0
 43
0.0
 44
0.0
 50
0.0
 51
0.0
 71
     0
 72
   100
 73
     1
 74
     0
 75
     0
 76
     0
 77
     0
 78
     0
  0
VPORT
  2
V2
 70
     0
 10
0.5
 20
0.0
 11
1.0
 21
1.0
 12
-72.40892
 22
91.502613
 13
0.0
 23
0.0
 14
1.0
 24
1.0
 15
0.0
 25
0.0
 16
0.0
 26
0.0
 36
1.0
 17
0.0
 27
0.0
 37
0.0
 40
127.496787
 41
0.680965
 42
50.0
 43
0.0
 44
0.0
 50
0.0
 51
0.0
 71
     0
 72
   100
 73
     1
 74
     0
 75
     0
 76
     0
 77
     0
 78
     0
  0
ENDTAB
  0
TABLE
  2
LTYPE
 70
     4
  0
LTYPE
  2
CONTINUOUS
 70
    64
  3
Solid line
 72
    65
 73
     0
 40
0.0
  0
LTYPE
  2
CENTER
 70
    64
  3
____ _ ____ _ ____ _ ____ _ ____ _ ____ _ ____
 72
    65
 73
     4
 40
2.0
 49
1.25
 49
-0.25
 49
0.25
 49
-0.25
  0
LTYPE
  2
HIDDEN
 70
     0
  3
_ _ _ _ _ _ _ _ _ _ _ _ _ _ _ _ _ _ _ _ _ _ _
 72
    65
 73
     2
 40
0.375
 49
0.25
 49
-0.125
  0
LTYPE
  2
DASHED
 70
     0
  3
__ __ __ __ __ __ __ __ __ __ __ __ __ __ __
 72
    65
 73
     2
 40
0.75
 49
0.5
 49
-0.25
  0
ENDTAB
  0
TABLE
  2
LAYER
 70
     1
  0
LAYER
  2
0
 70
    64
 62
     7
  6
CONTINUOUS
  0
ENDTAB
  0
TABLE
  2
STYLE
 70
     1
  0
STYLE
  2
STANDARD
 70
     0
 40
0.0
 41
1.0
 50
0.0
 71
     0
 42
2.664
  3
txt
  4

  0
ENDTAB
  0
TABLE
  2
VIEW
 70
     0
  0
ENDTAB
  0
TABLE
  2
UCS
 70
     0
  0
ENDTAB
  0
TABLE
  2
APPID
 70
     1
  0
APPID
  2
ACAD
 70
    64
  0
ENDTAB
  0
TABLE
  2
DIMSTYLE
 70
     0
  0
ENDTAB
  0
ENDSEC
  0
SECTION
  2
BLOCKS
  0
BLOCK
  8
0
  2
*X0
 70
    65
 10
0.0
 20
0.0
 30
0.0
  3
*X
  0
LINE
  8
0
 62
     0
 10
-116.438112
 20
106.300524
 30
0.0
 11
-114.055099
 21
108.683537
 31
0.0
  0
LINE
  8
0
 62
     0
 10
-116.962025
 20
107.897931
 30
0.0
 11
-114.055099
 21
110.804858
 31
0.0
  0
LINE
  8
0
 62
     0
 10
-116.958541
 20
110.022736
 30
0.0
 11
-114.055099
 21
112.926178
 31
0.0
  0
LINE
  8
0
 62
     0
 10
-115.592489
 20
105.024827
 30
0.0
 11
-114.055099
 21
106.562217
 31
0.0
  0
ENDBLK
  8
0
  0
BLOCK
  8
0
  2
*X1
 70
    65
 10
0.0
 20
0.0
 30
0.0
  3
*X
  0
LINE
  8
0
 62
     0
 10
-42.077689
 20
59.745688
 30
0.0
 11
-38.947475
 21
62.875902
 31
0.0
  0
LINE
  8
0
 62
     0
 10
-42.667871
 20
61.276826
 30
0.0
 11
-38.947475
 21
64.997222
 31
0.0
  0
LINE
  8
0
 62
     0
 10
-42.94354
 20
63.122477
 30
0.0
 11
-38.947475
 21
67.118542
 31
0.0
  0
LINE
  8
0
 62
     0
 10
-42.648946
 20
65.538391
 30
0.0
 11
-38.947475
 21
69.239863
 31
0.0
  0
LINE
  8
0
 62
     0
 10
-41.252623
 20
58.449433
 30
0.0
 11
-38.947475
 21
60.754581
 31
0.0
  0
LINE
  8
0
 62
     0
 10
-39.70737
 20
57.873366
 30
0.0
 11
-38.947475
 21
58.633261
 31
0.0
  0
ENDBLK
  8
0
  0
BLOCK
  8
0
  2
*X2
 70
    65
 10
0.0
 20
0.0
 30
0.0
  3
*X
  0
LINE
  8
0
 62
     0
 10
46.378216
 20
66.177206
 30
0.0
 11
50.755286
 21
70.554276
 31
0.0
  0
LINE
  8
0
 62
     0
 10
45.827172
 20
68.454589
 30
0.0
 11
50.755286
 21
73.382703
 31
0.0
  0
LINE
  8
0
 62
     0
 10
45.901935
 20
71.357779
 30
0.0
 11
50.755286
 21
76.21113
 31
0.0
  0
LINE
  8
0
 62
     0
 10
47.31614
 20
64.286702
 30
0.0
 11
50.755286
 21
67.725849
 31
0.0
  0
LINE
  8
0
 62
     0
 10
48.709341
 20
62.851477
 30
0.0
 11
50.755286
 21
64.897422
 31
0.0
  0
ENDBLK
  8
0
  0
BLOCK
  8
0
  2
*X3
 70
    65
 10
0.0
 20
0.0
 30
0.0
  3
*X
  0
LINE
  8
0
 62
     0
 10
154.670763
 20
75.474803
 30
0.0
 11
161.068381
 21
81.872422
 31
0.0
  0
LINE
  8
0
 62
     0
 10
154.624758
 20
78.257225
 30
0.0
 11
161.068381
 21
84.700849
 31
0.0
  0
LINE
  8
0
 62
     0
 10
155.613071
 20
82.073966
 30
0.0
 11
161.068381
 21
87.529276
 31
0.0
  0
LINE
  8
0
 62
     0
 10
155.193198
 20
73.168812
 30
0.0
 11
161.068381
 21
79.043995
 31
0.0
  0
LINE
  8
0
 62
     0
 10
156.039968
 20
71.187154
 30
0.0
 11
161.068381
 21
76.215567
 31
0.0
  0
LINE
  8
0
 62
     0
 10
157.147835
 20
69.466594
 30
0.0
 11
161.068381
 21
73.38714
 31
0.0
  0
LINE
  8
0
 62
     0
 10
159.585206
 20
69.075538
 30
0.0
 11
161.068381
 21
70.558713
 31
0.0
  0
ENDBLK
  8
0
  0
BLOCK
  8
0
  2
*X4
 70
    65
 10
0.0
 20
0.0
 30
0.0
  3
*X
  0
LINE
  8
0
 62
     0
 10
286.143902
 20
88.154003
 30
0.0
 11
293.954158
 21
95.964259
 31
0.0
  0
LINE
  8
0
 62
     0
 10
285.980354
 20
91.52599
 30
0.0
 11
293.954158
 21
99.499793
 31
0.0
  0
LINE
  8
0
 62
     0
 10
286.872643
 20
95.953812
 30
0.0
 11
293.954158
 21
103.035327
 31
0.0
  0
LINE
  8
0
 62
     0
 10
286.851955
 20
85.326523
 30
0.0
 11
293.954158
 21
92.428726
 31
0.0
  0
LINE
  8
0
 62
     0
 10
287.944063
 20
82.883096
 30
0.0
 11
293.954158
 21
88.893192
 31
0.0
  0
LINE
  8
0
 62
     0
 10
289.350689
 20
80.754189
 30
0.0
 11
293.954158
 21
85.357658
 31
0.0
  0
LINE
  8
0
 62
     0
 10
292.246421
 20
80.114386
 30
0.0
 11
293.954158
 21
81.822124
 31
0.0
  0
ENDBLK
  8
0
  0
BLOCK
  8
0
  2
*X5
 70
    65
 10
0.0
 20
0.0
 30
0.0
  3
*X
  0
LINE
  8
0
 62
     0
 10
705.186428
 20
146.572071
 30
0.0
 11
714.80078
 21
156.186423
 31
0.0
  0
LINE
  8
0
 62
     0
 10
704.814655
 20
149.735831
 30
0.0
 11
714.80078
 21
159.721957
 31
0.0
  0
LINE
  8
0
 62
     0
 10
705.027613
 20
153.484324
 30
0.0
 11
714.80078
 21
163.25749
 31
0.0
  0
LINE
  8
0
 62
     0
 10
706.456628
 20
158.448872
 30
0.0
 11
714.80078
 21
166.793024
 31
0.0
  0
LINE
  8
0
 62
     0
 10
705.949646
 20
143.799755
 30
0.0
 11
714.80078
 21
152.650889
 31
0.0
  0
LINE
  8
0
 62
     0
 10
707.016424
 20
141.330999
 30
0.0
 11
714.80078
 21
149.115355
 31
0.0
  0
LINE
  8
0
 62
     0
 10
708.340793
 20
139.119834
 30
0.0
 11
714.80078
 21
145.579821
 31
0.0
  0
LINE
  8
0
 62
     0
 10
709.898467
 20
137.141974
 30
0.0
 11
714.80078
 21
142.044287
 31
0.0
  0
LINE
  8
0
 62
     0
 10
713.272707
 20
136.98068
 30
0.0
 11
714.80078
 21
138.508753
 31
0.0
  0
ENDBLK
  8
0
  0
BLOCK
  8
0
  2
*X6
 70
    65
 10
0.0
 20
0.0
 30
0.0
  3
*X
  0
LINE
  8
0
 62
     0
 10
1011.062315
 20
192.232663
 30
0.0
 11
1022.968702
 21
204.139049
 31
0.0
  0
LINE
  8
0
 62
     0
 10
1010.269101
 20
195.682089
 30
0.0
 11
1022.968702
 21
208.38169
 31
0.0
  0
LINE
  8
0
 62
     0
 10
1009.968825
 20
199.624454
 30
0.0
 11
1022.968702
 21
212.624331
 31
0.0
  0
LINE
  8
0
 62
     0
 10
1010.430459
 20
204.328729
 30
0.0
 11
1022.968702
 21
216.866971
 31
0.0
  0
LINE
  8
0
 62
     0
 10
1012.630746
 20
210.771656
 30
0.0
 11
1022.805074
 21
220.945984
 31
0.0
  0
LINE
  8
0
 62
     0
 10
1012.22947
 20
189.157176
 30
0.0
 11
1022.968702
 21
199.896409
 31
0.0
  0
LINE
  8
0
 62
     0
 10
1013.708243
 20
186.393309
 30
0.0
 11
1022.968702
 21
195.653768
 31
0.0
  0
LINE
  8
0
 62
     0
 10
1015.464415
 20
183.906841
 30
0.0
 11
1022.968702
 21
191.411127
 31
0.0
  0
LINE
  8
0
 62
     0
 10
1017.480789
 20
181.680573
 30
0.0
 11
1022.968702
 21
187.168487
 31
0.0
  0
LINE
  8
0
 62
     0
 10
1020.98884
 20
180.945984
 30
0.0
 11
1022.968702
 21
182.925846
 31
0.0
  0
ENDBLK
  8
0
  0
BLOCK
  8
0
  2
*X7
 70
    65
 10
0.0
 20
0.0
 30
0.0
  3
*X
  0
LINE
  8
0
 62
     0
 10
-108.150814
 20
105.748987
 30
0.0
 11
-105.576432
 21
108.323369
 31
0.0
  0
LINE
  8
0
 62
     0
 10
-108.729
 20
106.938568
 30
0.0
 11
-105.576432
 21
110.091136
 31
0.0
  0
LINE
  8
0
 62
     0
 10
-109.049763
 20
108.385572
 30
0.0
 11
-105.576432
 21
111.858903
 31
0.0
  0
LINE
  8
0
 62
     0
 10
-108.92855
 20
110.274552
 30
0.0
 11
-105.65051
 21
113.552593
 31
0.0
  0
LINE
  8
0
 62
     0
 10
-107.371224
 20
104.76081
 30
0.0
 11
-105.576432
 21
106.555602
 31
0.0
  0
ENDBLK
  8
0
  0
BLOCK
  8
0
  2
*X8
 70
    65
 10
0.0
 20
0.0
 30
0.0
  3
*X
  0
LINE
  8
0
 62
     0
 10
-108.38141
 20
199.21004
 30
0.0
 11
-105.576432
 21
202.015018
 31
0.0
  0
LINE
  8
0
 62
     0
 10
-108.877666
 20
200.48155
 30
0.0
 11
-105.576432
 21
203.782785
 31
0.0
  0
LINE
  8
0
 62
     0
 10
-109.076314
 20
202.050669
 30
0.0
 11
-105.576432
 21
205.550552
 31
0.0
  0
LINE
  8
0
 62
     0
 10
-108.643273
 20
204.251478
 30
0.0
 11
-105.965103
 21
206.929647
 31
0.0
  0
LINE
  8
0
 62
     0
 10
-107.670233
 20
198.15345
 30
0.0
 11
-105.576432
 21
200.247251
 31
0.0
  0
LINE
  8
0
 62
     0
 10
-106.51494
 20
197.540976
 30
0.0
 11
-105.576432
 21
198.479484
 31
0.0
  0
ENDBLK
  8
0
  0
BLOCK
  8
0
  2
*X9
 70
    65
 10
0.0
 20
0.0
 30
0.0
  3
*X
  0
LINE
  8
0
 62
     0
 10
-11.841649
 20
111.902037
 30
0.0
 11
-7.656698
 21
116.086988
 31
0.0
  0
LINE
  8
0
 62
     0
 10
-12.17892
 20
113.332533
 30
0.0
 11
-7.656698
 21
117.854755
 31
0.0
  0
LINE
  8
0
 62
     0
 10
-12.234192
 20
115.045029
 30
0.0
 11
-7.656698
 21
119.622522
 31
0.0
  0
LINE
  8
0
 62
     0
 10
-11.719496
 20
117.327492
 30
0.0
 11
-8.17916
 21
120.867827
 31
0.0
  0
LINE
  8
0
 62
     0
 10
-11.308464
 20
110.667456
 30
0.0
 11
-7.656698
 21
114.319222
 31
0.0
  0
LINE
  8
0
 62
     0
 10
-10.61625
 20
109.591903
 30
0.0
 11
-7.656698
 21
112.551455
 31
0.0
  0
LINE
  8
0
 62
     0
 10
-9.49502
 20
108.945366
 30
0.0
 11
-7.656698
 21
110.783688
 31
0.0
  0
ENDBLK
  8
0
  0
BLOCK
  8
0
  2
*X10
 70
    65
 10
0.0
 20
0.0
 30
0.0
  3
*X
  0
LINE
  8
0
 62
     0
 10
-11.620038
 20
230.564034
 30
0.0
 11
-7.656698
 21
234.527374
 31
0.0
  0
LINE
  8
0
 62
     0
 10
-12.053206
 20
231.898634
 30
0.0
 11
-7.656698
 21
236.295141
 31
0.0
  0
LINE
  8
0
 62
     0
 10
-12.253521
 20
233.466085
 30
0.0
 11
-7.656698
 21
238.062908
 31
0.0
  0
LINE
  8
0
 62
     0
 10
-12.067845
 20
235.419528
 30
0.0
 11
-7.776272
 21
239.711102
 31
0.0
  0
LINE
  8
0
 62
     0
 10
-10.10618
 20
239.148961
 30
0.0
 11
-9.714131
 21
239.54101
 31
0.0
  0
LINE
  8
0
 62
     0
 10
-11.011349
 20
229.404957
 30
0.0
 11
-7.656698
 21
232.759607
 31
0.0
  0
LINE
  8
0
 62
     0
 10
-10.252861
 20
228.395678
 30
0.0
 11
-7.656698
 21
230.99184
 31
0.0
  0
LINE
  8
0
 62
     0
 10
-8.689243
 20
228.191528
 30
0.0
 11
-7.656698
 21
229.224073
 31
0.0
  0
ENDBLK
  8
0
  0
BLOCK
  8
0
  2
*X11
 70
    65
 10
0.0
 20
0.0
 30
0.0
  3
*X
  0
LINE
  8
0
 62
     0
 10
109.836613
 20
131.049816
 30
0.0
 11
114.625507
 21
135.838711
 31
0.0
  0
LINE
  8
0
 62
     0
 10
109.147248
 20
133.012102
 30
0.0
 11
114.625507
 21
138.490361
 31
0.0
  0
LINE
  8
0
 62
     0
 10
108.875717
 20
135.392221
 30
0.0
 11
114.625507
 21
141.142012
 31
0.0
  0
LINE
  8
0
 62
     0
 10
109.42312
 20
138.591275
 30
0.0
 11
114.117415
 21
143.28557
 31
0.0
  0
LINE
  8
0
 62
     0
 10
110.828762
 20
129.390315
 30
0.0
 11
114.625507
 21
133.18706
 31
0.0
  0
LINE
  8
0
 62
     0
 10
112.617574
 20
128.527477
 30
0.0
 11
114.625507
 21
130.53541
 31
0.0
  0
ENDBLK
  8
0
  0
BLOCK
  8
0
  2
*X12
 70
    65
 10
0.0
 20
0.0
 30
0.0
  3
*X
  0
LINE
  8
0
 62
     0
 10
109.45563
 20
265.903005
 30
0.0
 11
114.625507
 21
271.072883
 31
0.0
  0
LINE
  8
0
 62
     0
 10
108.949142
 20
268.048168
 30
0.0
 11
114.625507
 21
273.724533
 31
0.0
  0
LINE
  8
0
 62
     0
 10
108.985077
 20
270.735754
 30
0.0
 11
114.625507
 21
276.376184
 31
0.0
  0
LINE
  8
0
 62
     0
 10
110.932832
 20
275.335159
 30
0.0
 11
112.799825
 21
277.202152
 31
0.0
  0
LINE
  8
0
 62
     0
 10
110.307416
 20
264.103141
 30
0.0
 11
114.625507
 21
268.421232
 31
0.0
  0
LINE
  8
0
 62
     0
 10
111.434608
 20
262.578682
 30
0.0
 11
114.625507
 21
265.769582
 31
0.0
  0
ENDBLK
  8
0
  0
BLOCK
  8
0
  2
*X13
 70
    65
 10
0.0
 20
0.0
 30
0.0
  3
*X
  0
LINE
  8
0
 62
     0
 10
262.449441
 20
143.125171
 30
0.0
 11
269.581507
 21
150.257238
 31
0.0
  0
LINE
  8
0
 62
     0
 10
262.182937
 20
145.510318
 30
0.0
 11
269.581507
 21
152.908889
 31
0.0
  0
LINE
  8
0
 62
     0
 10
262.492857
 20
148.471889
 30
0.0
 11
269.453007
 21
155.432039
 31
0.0
  0
LINE
  8
0
 62
     0
 10
265.118645
 20
153.749327
 30
0.0
 11
266.63156
 21
155.262241
 31
0.0
  0
LINE
  8
0
 62
     0
 10
263.063401
 20
141.087481
 30
0.0
 11
269.581507
 21
147.605588
 31
0.0
  0
LINE
  8
0
 62
     0
 10
263.937756
 20
139.310185
 30
0.0
 11
269.581507
 21
144.953937
 31
0.0
  0
LINE
  8
0
 62
     0
 10
265.032325
 20
137.753104
 30
0.0
 11
269.581507
 21
142.302287
 31
0.0
  0
LINE
  8
0
 62
     0
 10
267.634409
 20
137.703538
 30
0.0
 11
269.581507
 21
139.650636
 31
0.0
  0
ENDBLK
  8
0
  0
BLOCK
  8
0
  2
*X14
 70
    65
 10
0.0
 20
0.0
 30
0.0
  3
*X
  0
LINE
  8
0
 62
     0
 10
263.186859
 20
308.264916
 30
0.0
 11
269.581507
 21
314.659565
 31
0.0
  0
LINE
  8
0
 62
     0
 10
262.527228
 20
310.256936
 30
0.0
 11
269.581507
 21
317.311215
 31
0.0
  0
LINE
  8
0
 62
     0
 10
262.195877
 20
312.577236
 30
0.0
 11
269.581507
 21
319.962866
 31
0.0
  0
LINE
  8
0
 62
     0
 10
262.383942
 20
315.416951
 30
0.0
 11
269.581507
 21
322.614516
 31
0.0
  0
LINE
  8
0
 62
     0
 10
264.024287
 20
319.708946
 30
0.0
 11
267.995939
 21
323.680598
 31
0.0
  0
LINE
  8
0
 62
     0
 10
264.098295
 20
306.524702
 30
0.0
 11
269.581507
 21
312.007914
 31
0.0
  0
LINE
  8
0
 62
     0
 10
265.405842
 20
305.180598
 30
0.0
 11
269.581507
 21
309.356264
 31
0.0
  0
LINE
  8
0
 62
     0
 10
268.057492
 20
305.180598
 30
0.0
 11
269.581507
 21
306.704613
 31
0.0
  0
ENDBLK
  8
0
  0
BLOCK
  8
0
  2
*X15
 70
    65
 10
0.0
 20
0.0
 30
0.0
  3
*X
  0
LINE
  8
0
 62
     0
 10
468.060942
 20
171.076093
 30
0.0
 11
476.605507
 21
179.620659
 31
0.0
  0
LINE
  8
0
 62
     0
 10
467.620614
 20
174.1713
 30
0.0
 11
476.605507
 21
183.156193
 31
0.0
  0
LINE
  8
0
 62
     0
 10
467.91576
 20
178.001979
 30
0.0
 11
476.605507
 21
186.691727
 31
0.0
  0
LINE
  8
0
 62
     0
 10
470.693593
 20
184.315347
 30
0.0
 11
474.156567
 21
187.778321
 31
0.0
  0
LINE
  8
0
 62
     0
 10
468.955125
 20
168.434743
 30
0.0
 11
476.605507
 21
176.085125
 31
0.0
  0
LINE
  8
0
 62
     0
 10
470.195178
 20
166.139262
 30
0.0
 11
476.605507
 21
172.549592
 31
0.0
  0
LINE
  8
0
 62
     0
 10
471.961454
 20
164.370004
 30
0.0
 11
476.605507
 21
169.014058
 31
0.0
  0
LINE
  8
0
 62
     0
 10
475.496988
 20
164.370004
 30
0.0
 11
476.605507
 21
165.478524
 31
0.0
  0
ENDBLK
  8
0
  0
BLOCK
  8
0
  2
*X16
 70
    65
 10
0.0
 20
0.0
 30
0.0
  3
*X
  0
LINE
  8
0
 62
     0
 10
467.869423
 20
368.874474
 30
0.0
 11
476.605507
 21
377.610558
 31
0.0
  0
LINE
  8
0
 62
     0
 10
467.610071
 20
372.150655
 30
0.0
 11
476.605507
 21
381.146092
 31
0.0
  0
LINE
  8
0
 62
     0
 10
468.276137
 20
376.352256
 30
0.0
 11
476.400765
 21
384.476884
 31
0.0
  0
LINE
  8
0
 62
     0
 10
468.639782
 20
366.109299
 30
0.0
 11
476.605507
 21
374.075024
 31
0.0
  0
LINE
  8
0
 62
     0
 10
469.780471
 20
363.714454
 30
0.0
 11
476.605507
 21
370.53949
 31
0.0
  0
LINE
  8
0
 62
     0
 10
471.229439
 20
361.627888
 30
0.0
 11
476.605507
 21
367.003956
 31
0.0
  0
LINE
  8
0
 62
     0
 10
474.409227
 20
361.272142
 30
0.0
 11
476.605507
 21
363.468422
 31
0.0
  0
ENDBLK
  8
0
  0
BLOCK
  8
0
  2
*X17
 70
    65
 10
0.0
 20
0.0
 30
0.0
  3
*X
  0
LINE
  8
0
 62
     0
 10
704.99593
 20
488.444479
 30
0.0
 11
716.00078
 21
499.449328
 31
0.0
  0
LINE
  8
0
 62
     0
 10
704.856581
 20
492.724547
 30
0.0
 11
716.00078
 21
503.868745
 31
0.0
  0
LINE
  8
0
 62
     0
 10
706.140185
 20
498.427568
 30
0.0
 11
715.12249
 21
507.409873
 31
0.0
  0
LINE
  8
0
 62
     0
 10
705.839841
 20
484.868972
 30
0.0
 11
716.00078
 21
495.029911
 31
0.0
  0
LINE
  8
0
 62
     0
 10
707.173365
 20
481.783078
 30
0.0
 11
716.00078
 21
490.610493
 31
0.0
  0
LINE
  8
0
 62
     0
 10
708.90438
 20
479.094676
 30
0.0
 11
716.00078
 21
486.191076
 31
0.0
  0
LINE
  8
0
 62
     0
 10
711.960704
 20
477.731582
 30
0.0
 11
716.00078
 21
481.771658
 31
0.0
  0
ENDBLK
  8
0
  0
BLOCK
  8
0
  2
*X18
 70
    65
 10
0.0
 20
0.0
 30
0.0
  3
*X
  0
LINE
  8
0
 62
     0
 10
705.10268
 20
227.805603
 30
0.0
 11
716.00078
 21
238.703702
 31
0.0
  0
LINE
  8
0
 62
     0
 10
704.811896
 20
231.934236
 30
0.0
 11
716.00078
 21
243.12312
 31
0.0
  0
LINE
  8
0
 62
     0
 10
705.720268
 20
237.262026
 30
0.0
 11
715.513272
 21
247.055029
 31
0.0
  0
LINE
  8
0
 62
     0
 10
706.043623
 20
224.327128
 30
0.0
 11
716.00078
 21
234.284285
 31
0.0
  0
LINE
  8
0
 62
     0
 10
707.452205
 20
221.316293
 30
0.0
 11
716.00078
 21
229.864868
 31
0.0
  0
LINE
  8
0
 62
     0
 10
709.248282
 20
218.692952
 30
0.0
 11
716.00078
 21
225.44545
 31
0.0
  0
LINE
  8
0
 62
     0
 10
712.742269
 20
217.767522
 30
0.0
 11
716.00078
 21
221.026033
 31
0.0
  0
ENDBLK
  8
0
  0
BLOCK
  8
0
  2
*X19
 70
    65
 10
0.0
 20
0.0
 30
0.0
  3
*X
  0
LINE
  8
0
 62
     0
 10
1010.97275
 20
290.607716
 30
0.0
 11
1024.468702
 21
304.103669
 31
0.0
  0
LINE
  8
0
 62
     0
 10
1010.196919
 20
294.251303
 30
0.0
 11
1024.468702
 21
308.523086
 31
0.0
  0
LINE
  8
0
 62
     0
 10
1009.982646
 20
298.456447
 30
0.0
 11
1024.468702
 21
312.942503
 31
0.0
  0
LINE
  8
0
 62
     0
 10
1010.689905
 20
303.583124
 30
0.0
 11
1024.468702
 21
317.361921
 31
0.0
  0
LINE
  8
0
 62
     0
 10
1014.149514
 20
311.462151
 30
0.0
 11
1021.12813
 21
318.440766
 31
0.0
  0
LINE
  8
0
 62
     0
 10
1012.163298
 20
287.378847
 30
0.0
 11
1024.468702
 21
299.684251
 31
0.0
  0
LINE
  8
0
 62
     0
 10
1013.694695
 20
284.490827
 30
0.0
 11
1024.468702
 21
295.264834
 31
0.0
  0
LINE
  8
0
 62
     0
 10
1015.527441
 20
281.904156
 30
0.0
 11
1024.468702
 21
290.845417
 31
0.0
  0
LINE
  8
0
 62
     0
 10
1017.642244
 20
279.599541
 30
0.0
 11
1024.468702
 21
286.425999
 31
0.0
  0
LINE
  8
0
 62
     0
 10
1021.483699
 20
279.021579
 30
0.0
 11
1024.468702
 21
282.006582
 31
0.0
  0
ENDBLK
  8
0
  0
BLOCK
  8
0
  2
*X20
 70
    65
 10
0.0
 20
0.0
 30
0.0
  3
*X
  0
LINE
  8
0
 62
     0
 10
1011.292513
 20
622.383784
 30
0.0
 11
1024.468702
 21
635.559972
 31
0.0
  0
LINE
  8
0
 62
     0
 10
1010.380662
 20
625.89135
 30
0.0
 11
1024.468702
 21
639.97939
 31
0.0
  0
LINE
  8
0
 62
     0
 10
1009.973847
 20
629.903952
 30
0.0
 11
1024.468702
 21
644.398807
 31
0.0
  0
LINE
  8
0
 62
     0
 10
1010.336996
 20
634.686518
 30
0.0
 11
1024.468702
 21
648.818224
 31
0.0
  0
LINE
  8
0
 62
     0
 10
1012.403262
 20
641.172202
 30
0.0
 11
1023.00544
 21
651.77438
 31
0.0
  0
LINE
  8
0
 62
     0
 10
1012.591677
 20
619.263529
 30
0.0
 11
1024.468702
 21
631.140555
 31
0.0
  0
LINE
  8
0
 62
     0
 10
1014.217053
 20
616.469488
 30
0.0
 11
1024.468702
 21
626.721138
 31
0.0
  0
LINE
  8
0
 62
     0
 10
1016.136189
 20
613.969207
 30
0.0
 11
1024.468702
 21
622.30172
 31
0.0
  0
LINE
  8
0
 62
     0
 10
1018.397517
 20
611.811118
 30
0.0
 11
1024.468702
 21
617.882303
 31
0.0
  0
LINE
  8
0
 62
     0
 10
1022.816935
 20
611.811118
 30
0.0
 11
1024.468702
 21
613.462885
 31
0.0
  0
ENDBLK
  8
0
  0
ENDSEC
  0
SECTION
  2
ENTITIES
  0
ARC
  8
0
 10
-103.076432
 20
15.861039
 30
0.0
 40
6.0
 50
30.215026
 51
329.784978
  0
ARC
  8
0
 10
-57.076432
 20
15.861039
 30
0.0
 40
4.0
 50
267.877406
 51
92.122586
  0
LINE
  8
0
 10
-96.990394
 20
18.384451
 30
0.0
 11
-57.224583
 21
19.858294
 31
0.0
  0
LINE
  8
0
 10
-96.990394
 20
13.337627
 30
0.0
 11
-57.224583
 21
11.863783
 31
0.0
  0
ARC
  8
0
 10
-97.027432
 20
19.383765
 30
0.0
 40
1.0
 50
210.215024
 51
272.122586
  0
ARC
  8
0
 10
-97.027432
 20
12.338313
 30
0.0
 40
1.0
 50
87.877414
 51
149.784976
  0
ARC
  8
0
 10
-97.027432
 20
58.955925
 30
0.0
 40
1.0
 50
87.877414
 51
149.784976
  0
ARC
  8
0
 10
-97.027432
 20
66.001377
 30
0.0
 40
1.0
 50
210.215024
 51
272.122586
  0
LINE
  8
0
 10
-96.990394
 20
59.955239
 30
0.0
 11
-57.224583
 21
58.481395
 31
0.0
  0
LINE
  8
0
 10
-96.990394
 20
65.002063
 30
0.0
 11
-57.224583
 21
66.475906
 31
0.0
  0
ARC
  8
0
 10
-57.076432
 20
62.478651
 30
0.0
 40
4.0
 50
267.877406
 51
92.122586
  0
ARC
  8
0
 10
-103.076432
 20
62.478651
 30
0.0
 40
6.0
 50
30.215026
 51
56.927144
  0
ARC
  8
0
 10
-103.076432
 20
148.944297
 30
0.0
 40
6.0
 50
50.215026
 51
56.927144
  0
ARC
  8
0
 10
-59.850571
 20
164.677223
 30
0.0
 40
4.0
 50
287.877406
 51
112.122586
  0
LINE
  8
0
 10
-98.220485
 20
153.397076
 30
0.0
 11
-61.356929
 21
168.382744
 31
0.0
  0
LINE
  8
0
 10
-96.494369
 20
148.654613
 30
0.0
 11
-58.622646
 21
160.870361
 31
0.0
  0
ARC
  8
0
 10
-98.597074
 20
154.323456
 30
0.0
 40
1.0
 50
230.215024
 51
292.122586
  0
ARC
  8
0
 10
-96.187388
 20
147.702897
 30
0.0
 40
1.0
 50
107.877414
 51
169.784976
  0
ARC
  8
0
 10
-103.076432
 20
148.944297
 30
0.0
 40
6.0
 50
311.810315
 51
349.784978
  0
ARC
  8
0
 10
-103.076432
 20
62.478651
 30
0.0
 40
6.0
 50
311.810315
 51
329.784978
  0
ARC
  8
0
 10
-103.076432
 20
202.013112
 30
0.0
 40
6.0
 50
311.810315
 51
349.784978
  0
ARC
  8
0
 10
-96.187388
 20
200.771712
 30
0.0
 40
1.0
 50
107.877414
 51
169.784976
  0
ARC
  8
0
 10
-98.597074
 20
207.392271
 30
0.0
 40
1.0
 50
230.215024
 51
292.122586
  0
LINE
  8
0
 10
-96.494369
 20
201.723428
 30
0.0
 11
-58.622646
 21
213.939176
 31
0.0
  0
LINE
  8
0
 10
-98.220485
 20
206.465891
 30
0.0
 11
-61.356929
 21
221.451559
 31
0.0
  0
ARC
  8
0
 10
-59.850571
 20
217.746038
 30
0.0
 40
4.0
 50
287.877406
 51
112.122586
  0
ARC
  8
0
 10
-103.076432
 20
202.013112
 30
0.0
 40
6.0
 50
50.215026
 51
56.927144
  0
ARC
  8
0
 10
-103.076432
 20
108.950651
 30
0.0
 40
6.0
 50
311.810315
 51
329.784978
  0
ARC
  8
0
 10
-103.076432
 20
108.950651
 30
0.0
 40
6.0
 50
30.215026
 51
56.927144
  0
ARC
  8
0
 10
-57.076432
 20
108.950651
 30
0.0
 40
4.0
 50
267.877406
 51
92.122586
  0
LINE
  8
0
 10
-96.990394
 20
111.474063
 30
0.0
 11
-57.224583
 21
112.947906
 31
0.0
  0
LINE
  8
0
 10
-96.990394
 20
106.427239
 30
0.0
 11
-57.224583
 21
104.953395
 31
0.0
  0
ARC
  8
0
 10
-97.027432
 20
112.473377
 30
0.0
 40
1.0
 50
210.215024
 51
272.122586
  0
ARC
  8
0
 10
-97.027432
 20
105.427925
 30
0.0
 40
1.0
 50
87.877414
 51
149.784976
  0
ARC
  8
0
 10
-97.027432
 20
41.938313
 30
0.0
 40
1.0
 50
87.877414
 51
149.784976
  0
ARC
  8
0
 10
-97.027432
 20
48.983765
 30
0.0
 40
1.0
 50
210.215024
 51
272.122586
  0
LINE
  8
0
 10
-96.990394
 20
42.937627
 30
0.0
 11
-57.224583
 21
41.463783
 31
0.0
  0
LINE
  8
0
 10
-96.990394
 20
47.984451
 30
0.0
 11
-57.224583
 21
49.458294
 31
0.0
  0
ARC
  8
0
 10
-57.076432
 20
45.461039
 30
0.0
 40
4.0
 50
267.877406
 51
92.122586
  0
ARC
  8
0
 10
-103.076432
 20
45.461039
 30
0.0
 40
6.0
 50
30.215026
 51
329.784978
  0
ARC
  8
0
 10
-103.076432
 20
90.989039
 30
0.0
 40
6.0
 50
30.215026
 51
329.784978
  0
ARC
  8
0
 10
-57.076432
 20
90.989039
 30
0.0
 40
4.0
 50
267.877406
 51
92.122586
  0
LINE
  8
0
 10
-96.990394
 20
93.512451
 30
0.0
 11
-57.224583
 21
94.986294
 31
0.0
  0
LINE
  8
0
 10
-96.990394
 20
88.465627
 30
0.0
 11
-57.224583
 21
86.991783
 31
0.0
  0
ARC
  8
0
 10
-97.027432
 20
94.511765
 30
0.0
 40
1.0
 50
210.215024
 51
272.122586
  0
ARC
  8
0
 10
-97.027432
 20
87.466313
 30
0.0
 40
1.0
 50
87.877414
 51
149.784976
  0
ARC
  8
0
 10
-97.027432
 20
128.722313
 30
0.0
 40
1.0
 50
87.877414
 51
149.784976
  0
ARC
  8
0
 10
-97.027432
 20
135.767765
 30
0.0
 40
1.0
 50
210.215024
 51
272.122586
  0
LINE
  8
0
 10
-96.990394
 20
129.721627
 30
0.0
 11
-59.998722
 21
128.247783
 31
0.0
  0
LINE
  8
0
 10
-96.990394
 20
134.768451
 30
0.0
 11
-59.998722
 21
136.242294
 31
0.0
  0
ARC
  8
0
 10
-59.850571
 20
132.245039
 30
0.0
 40
4.0
 50
267.877406
 51
92.122586
  0
ARC
  8
0
 10
-103.076432
 20
132.245039
 30
0.0
 40
6.0
 50
30.215026
 51
329.784978
  0
ARC
  8
0
 10
-103.076432
 20
186.459594
 30
0.0
 40
6.0
 50
30.215026
 51
329.784978
  0
ARC
  8
0
 10
-59.850571
 20
186.459594
 30
0.0
 40
4.0
 50
267.877406
 51
92.122586
  0
LINE
  8
0
 10
-96.990394
 20
188.983007
 30
0.0
 11
-59.998722
 21
190.45685
 31
0.0
  0
LINE
  8
0
 10
-96.990394
 20
183.936182
 30
0.0
 11
-59.998722
 21
182.462339
 31
0.0
  0
ARC
  8
0
 10
-97.027432
 20
189.98232
 30
0.0
 40
1.0
 50
210.215024
 51
272.122586
  0
ARC
  8
0
 10
-97.027432
 20
182.936869
 30
0.0
 40
1.0
 50
87.877414
 51
149.784976
  0
CIRCLE
  8
0
 10
-103.076432
 20
45.461039
 30
0.0
 40
3.0
  0
LINE
  8
0
 10
-106.076432
 20
58.006515
 30
0.0
 11
-106.076432
 21
67.506515
 31
0.0
  0
ARC
  8
0
 10
-103.076432
 20
62.478651
 30
0.0
 40
6.0
 50
123.072856
 51
228.189685
  0
LINE
  8
0
 10
-107.076432
 20
58.006515
 30
0.0
 11
-99.076432
 21
58.006515
 31
0.0
  0
LINE
  8
0
 10
-106.350662
 20
67.506515
 30
0.0
 11
-99.802202
 21
67.506515
 31
0.0
  0
LINE
  8
0
 10
-106.350662
 20
113.978515
 30
0.0
 11
-99.802202
 21
113.978515
 31
0.0
  0
LINE
  8
0
 10
-106.076432
 20
104.478515
 30
0.0
 11
-106.076432
 21
113.978515
 31
0.0
  0
LINE
  8
0
 10
-107.076432
 20
104.478515
 30
0.0
 11
-99.076432
 21
104.478515
 31
0.0
  0
LINE
  8
0
 10
-106.350662
 20
153.972161
 30
0.0
 11
-99.802202
 21
153.972161
 31
0.0
  0
LINE
  8
0
 10
-106.076432
 20
144.472161
 30
0.0
 11
-106.076432
 21
153.972161
 31
0.0
  0
LINE
  8
0
 10
-107.076432
 20
144.472161
 30
0.0
 11
-99.076432
 21
144.472161
 31
0.0
  0
ARC
  8
0
 10
-103.076432
 20
202.013112
 30
0.0
 40
6.0
 50
123.072856
 51
228.189685
  0
ARC
  8
0
 10
-103.076432
 20
148.944297
 30
0.0
 40
6.0
 50
123.072856
 51
228.189685
  0
CIRCLE
  8
0
 10
-103.076432
 20
132.245039
 30
0.0
 40
3.0
  0
LINE
  8
0
  6
CENTER
 10
-103.076432
 20
56.618695
 30
0.0
 11
-103.076432
 21
69.017672
 31
0.0
  0
CIRCLE
  8
0
 10
-103.076432
 20
90.989039
 30
0.0
 40
3.0
  0
CIRCLE
  8
0
 10
-103.076432
 20
90.989039
 30
0.0
 40
2.5
  0
LINE
  8
0
  6
CENTER
 10
-103.076432
 20
115.881246
 30
0.0
 11
-103.076432
 21
102.725595
 31
0.0
  0
ARC
  8
0
 10
-103.076432
 20
108.950651
 30
0.0
 40
6.0
 50
123.072856
 51
228.189685
  0
LINE
  8
0
 10
-105.576432
 20
113.478515
 30
0.0
 11
-105.576432
 21
104.978515
 31
0.0
  0
LINE
  8
0
 10
-106.076432
 20
113.978515
 30
0.0
 11
-105.576432
 21
113.478515
 31
0.0
  0
LINE
  8
0
 10
-106.076432
 20
104.478515
 30
0.0
 11
-105.576432
 21
104.978515
 31
0.0
  0
LINE
  8
0
 10
-105.576432
 20
104.978515
 30
0.0
 11
-103.076432
 21
104.978515
 31
0.0
  0
LINE
  8
0
 10
-105.576432
 20
113.478515
 30
0.0
 11
-103.076432
 21
113.478515
 31
0.0
  0
CIRCLE
  8
0
 10
-103.076432
 20
186.459594
 30
0.0
 40
2.5
  0
CIRCLE
  8
0
 10
-103.076432
 20
186.459594
 30
0.0
 40
3.0
  0
LINE
  8
0
 10
-105.576432
 20
206.540976
 30
0.0
 11
-103.076432
 21
206.540976
 31
0.0
  0
LINE
  8
0
 10
-105.576432
 20
198.040976
 30
0.0
 11
-103.076432
 21
198.040976
 31
0.0
  0
LINE
  8
0
 10
-106.076432
 20
197.540976
 30
0.0
 11
-105.576432
 21
198.040976
 31
0.0
  0
LINE
  8
0
 10
-106.076432
 20
207.040976
 30
0.0
 11
-105.576432
 21
206.540976
 31
0.0
  0
LINE
  8
0
 10
-105.576432
 20
206.540976
 30
0.0
 11
-105.576432
 21
198.040976
 31
0.0
  0
LINE
  8
0
  6
CENTER
 10
-103.076432
 20
208.943707
 30
0.0
 11
-103.076432
 21
195.788056
 31
0.0
  0
LINE
  8
0
 10
-106.076432
 20
197.540976
 30
0.0
 11
-106.076432
 21
207.040976
 31
0.0
  0
LINE
  8
0
 10
-106.350662
 20
207.040976
 30
0.0
 11
-99.802202
 21
207.040976
 31
0.0
  0
LINE
  8
0
 10
-107.076432
 20
197.540976
 30
0.0
 11
-99.076432
 21
197.540976
 31
0.0
  0
LINE
  8
0
  6
CENTER
 10
-103.076432
 20
143.318695
 30
0.0
 11
-103.076432
 21
155.717672
 31
0.0
  0
INSERT
  8
0
  2
*X0
 10
7.978667
 20
39.993646
 30
0.0
  0
INSERT
  8
0
  2
*X0
 10
7.978667
 20
-46.472
 30
0.0
  0
ARC
  8
0
 10
-4.256698
 20
14.018697
 30
0.0
 40
8.0
 50
33.345685
 51
326.654315
  0
ARC
  8
0
 10
53.743302
 20
14.018697
 30
0.0
 40
5.0
 50
268.535332
 51
91.464668
  0
LINE
  8
0
 10
3.717651
 20
17.741233
 30
0.0
 11
53.615499
 21
19.017063
 31
0.0
  0
LINE
  8
0
 10
3.717651
 20
10.296161
 30
0.0
 11
53.615499
 21
9.020331
 31
0.0
  0
ARC
  8
0
 10
3.67931
 20
19.240743
 30
0.0
 40
1.5
 50
213.345685
 51
271.464668
  0
ARC
  8
0
 10
3.67931
 20
8.796651
 30
0.0
 40
1.5
 50
88.535332
 51
146.654315
  0
ARC
  8
0
 10
3.67931
 20
58.151319
 30
0.0
 40
1.5
 50
88.535332
 51
146.654315
  0
ARC
  8
0
 10
3.67931
 20
68.595412
 30
0.0
 40
1.5
 50
213.345685
 51
271.464668
  0
LINE
  8
0
 10
3.717651
 20
59.650829
 30
0.0
 11
53.615499
 21
58.374999
 31
0.0
  0
LINE
  8
0
 10
3.717651
 20
67.095902
 30
0.0
 11
53.615499
 21
68.371732
 31
0.0
  0
ARC
  8
0
 10
53.743302
 20
63.373366
 30
0.0
 40
5.0
 50
268.535332
 51
91.464668
  0
ARC
  8
0
 10
-4.256698
 20
63.373366
 30
0.0
 40
8.0
 50
33.345685
 51
54.340912
  0
LINE
  8
0
 10
-10.066173
 20
57.873366
 30
0.0
 11
1.552777
 21
57.873366
 31
0.0
  0
LINE
  8
0
 10
-8.920388
 20
69.873366
 30
0.0
 11
0.406991
 21
69.873366
 31
0.0
  0
LINE
  8
0
  6
CENTER
 10
-4.256698
 20
56.245256
 30
0.0
 11
-4.256698
 21
71.303446
 31
0.0
  0
LINE
  8
0
 10
-8.256698
 20
57.873366
 30
0.0
 11
-8.256698
 21
69.873366
 31
0.0
  0
ARC
  8
0
 10
-4.256698
 20
63.373366
 30
0.0
 40
8.0
 50
125.659088
 51
223.432537
  0
ARC
  8
0
 10
-4.256698
 20
63.373366
 30
0.0
 40
8.0
 50
316.567463
 51
326.654315
  0
ARC
  8
0
 10
4.986756
 20
231.498685
 30
0.0
 40
1.5
 50
108.535332
 51
166.654315
  0
ARC
  8
0
 10
1.414666
 20
241.312922
 30
0.0
 40
1.5
 50
233.345685
 51
291.464668
  0
LINE
  8
0
 10
4.509921
 20
232.920877
 30
0.0
 11
51.834921
 21
248.788058
 31
0.0
  0
LINE
  8
0
 10
1.963557
 20
239.916956
 30
0.0
 11
48.415837
 21
258.181914
 31
0.0
  0
ARC
  8
0
 10
50.245474
 20
253.528697
 30
0.0
 40
5.0
 50
288.535332
 51
111.464668
  0
ARC
  8
0
 10
-4.256698
 20
233.691528
 30
0.0
 40
8.0
 50
53.345685
 51
54.340912
  0
LINE
  8
0
 10
-8.920388
 20
240.191528
 30
0.0
 11
0.406991
 21
240.191528
 31
0.0
  0
LINE
  8
0
 10
-10.066173
 20
228.191528
 30
0.0
 11
1.552777
 21
228.191528
 31
0.0
  0
ARC
  8
0
 10
-4.256698
 20
233.691528
 30
0.0
 40
8.0
 50
316.567463
 51
346.654315
  0
ARC
  8
0
 10
-4.256698
 20
233.691528
 30
0.0
 40
8.0
 50
125.659088
 51
223.432537
  0
LINE
  8
0
  6
CENTER
 10
-4.256698
 20
226.233195
 30
0.0
 11
-4.256698
 21
241.630722
 31
0.0
  0
ARC
  8
0
 10
3.67931
 20
36.828651
 30
0.0
 40
1.5
 50
88.535332
 51
146.654315
  0
ARC
  8
0
 10
3.67931
 20
47.272743
 30
0.0
 40
1.5
 50
213.345685
 51
271.464668
  0
LINE
  8
0
 10
3.717651
 20
38.328161
 30
0.0
 11
53.615499
 21
37.052331
 31
0.0
  0
LINE
  8
0
 10
3.717651
 20
45.773233
 30
0.0
 11
53.615499
 21
47.049063
 31
0.0
  0
ARC
  8
0
 10
53.743302
 20
42.050697
 30
0.0
 40
5.0
 50
268.535332
 51
91.464668
  0
ARC
  8
0
 10
-4.256698
 20
42.050697
 30
0.0
 40
8.0
 50
33.345685
 51
326.654315
  0
LINE
  8
0
  6
CENTER
 10
-4.256698
 20
161.337195
 30
0.0
 11
-4.256698
 21
176.734722
 31
0.0
  0
ARC
  8
0
 10
-4.256698
 20
168.795528
 30
0.0
 40
8.0
 50
125.659088
 51
223.432537
  0
ARC
  8
0
 10
-4.256698
 20
168.795528
 30
0.0
 40
8.0
 50
316.567463
 51
346.654315
  0
LINE
  8
0
 10
-10.066173
 20
163.295528
 30
0.0
 11
1.552777
 21
163.295528
 31
0.0
  0
LINE
  8
0
 10
-8.920388
 20
175.295528
 30
0.0
 11
0.406991
 21
175.295528
 31
0.0
  0
LINE
  8
0
 10
-8.256698
 20
163.295528
 30
0.0
 11
-8.256698
 21
175.295528
 31
0.0
  0
ARC
  8
0
 10
-4.256698
 20
168.795528
 30
0.0
 40
8.0
 50
53.345685
 51
54.340912
  0
ARC
  8
0
 10
50.245474
 20
188.632697
 30
0.0
 40
5.0
 50
288.535332
 51
111.464668
  0
LINE
  8
0
 10
1.963557
 20
175.020956
 30
0.0
 11
48.415837
 21
193.285914
 31
0.0
  0
LINE
  8
0
 10
4.509921
 20
168.024877
 30
0.0
 11
51.834921
 21
183.892058
 31
0.0
  0
ARC
  8
0
 10
1.414666
 20
176.416922
 30
0.0
 40
1.5
 50
233.345685
 51
291.464668
  0
ARC
  8
0
 10
4.986756
 20
166.602685
 30
0.0
 40
1.5
 50
108.535332
 51
166.654315
  0
ARC
  8
0
 10
-4.256698
 20
93.122697
 30
0.0
 40
8.0
 50
33.345685
 51
326.654315
  0
ARC
  8
0
 10
53.743302
 20
93.122697
 30
0.0
 40
5.0
 50
268.535332
 51
91.464668
  0
LINE
  8
0
 10
3.717651
 20
96.845233
 30
0.0
 11
53.615499
 21
98.121063
 31
0.0
  0
LINE
  8
0
 10
3.717651
 20
89.400161
 30
0.0
 11
53.615499
 21
88.124331
 31
0.0
  0
ARC
  8
0
 10
3.67931
 20
98.344743
 30
0.0
 40
1.5
 50
213.345685
 51
271.464668
  0
ARC
  8
0
 10
3.67931
 20
87.900651
 30
0.0
 40
1.5
 50
88.535332
 51
146.654315
  0
ARC
  8
0
 10
-4.256698
 20
114.445366
 30
0.0
 40
8.0
 50
316.567463
 51
326.654315
  0
ARC
  8
0
 10
-4.256698
 20
114.445366
 30
0.0
 40
8.0
 50
125.659088
 51
223.432537
  0
LINE
  8
0
 10
-8.256698
 20
108.945366
 30
0.0
 11
-8.256698
 21
120.945366
 31
0.0
  0
LINE
  8
0
  6
CENTER
 10
-4.256698
 20
107.317256
 30
0.0
 11
-4.256698
 21
122.375446
 31
0.0
  0
LINE
  8
0
 10
-8.920388
 20
120.945366
 30
0.0
 11
0.406991
 21
120.945366
 31
0.0
  0
LINE
  8
0
 10
-10.066173
 20
108.945366
 30
0.0
 11
1.552777
 21
108.945366
 31
0.0
  0
ARC
  8
0
 10
-4.256698
 20
114.445366
 30
0.0
 40
8.0
 50
33.345685
 51
54.340912
  0
ARC
  8
0
 10
53.743302
 20
114.445366
 30
0.0
 40
5.0
 50
268.535332
 51
91.464668
  0
LINE
  8
0
 10
3.717651
 20
118.167902
 30
0.0
 11
53.615499
 21
119.443732
 31
0.0
  0
LINE
  8
0
 10
3.717651
 20
110.722829
 30
0.0
 11
53.615499
 21
109.446999
 31
0.0
  0
ARC
  8
0
 10
3.67931
 20
119.667412
 30
0.0
 40
1.5
 50
213.345685
 51
271.464668
  0
ARC
  8
0
 10
3.67931
 20
109.223319
 30
0.0
 40
1.5
 50
88.535332
 51
146.654315
  0
ARC
  8
0
 10
3.67931
 20
142.428651
 30
0.0
 40
1.5
 50
88.535332
 51
146.654315
  0
ARC
  8
0
 10
3.67931
 20
152.872743
 30
0.0
 40
1.5
 50
213.345685
 51
271.464668
  0
LINE
  8
0
 10
3.717651
 20
143.928161
 30
0.0
 11
50.117671
 21
142.652331
 31
0.0
  0
LINE
  8
0
 10
3.717651
 20
151.373233
 30
0.0
 11
50.117671
 21
152.649063
 31
0.0
  0
ARC
  8
0
 10
50.245474
 20
147.650697
 30
0.0
 40
5.0
 50
268.535332
 51
91.464668
  0
ARC
  8
0
 10
-4.256698
 20
147.650697
 30
0.0
 40
8.0
 50
33.345685
 51
326.654315
  0
ARC
  8
0
 10
-4.256698
 20
212.930697
 30
0.0
 40
8.0
 50
33.345685
 51
326.654315
  0
ARC
  8
0
 10
50.245474
 20
212.930697
 30
0.0
 40
5.0
 50
268.535332
 51
91.464668
  0
LINE
  8
0
 10
3.717651
 20
216.653233
 30
0.0
 11
50.117671
 21
217.929063
 31
0.0
  0
LINE
  8
0
 10
3.717651
 20
209.208161
 30
0.0
 11
50.117671
 21
207.932331
 31
0.0
  0
ARC
  8
0
 10
3.67931
 20
218.152743
 30
0.0
 40
1.5
 50
213.345685
 51
271.464668
  0
ARC
  8
0
 10
3.67931
 20
207.708651
 30
0.0
 40
1.5
 50
88.535332
 51
146.654315
  0
CIRCLE
  8
0
 10
-4.256698
 20
42.050697
 30
0.0
 40
4.0
  0
CIRCLE
  8
0
 10
-103.076432
 20
45.461039
 30
0.0
 40
3.27423
  0
CIRCLE
  8
0
 10
-103.076432
 20
90.989039
 30
0.0
 40
3.27423
  0
CIRCLE
  8
0
 10
-103.076432
 20
132.245039
 30
0.0
 40
3.27423
  0
CIRCLE
  8
0
 10
-103.076432
 20
186.459594
 30
0.0
 40
3.27423
  0
CIRCLE
  8
0
 10
-4.256698
 20
42.050697
 30
0.0
 40
4.66369
  0
CIRCLE
  8
0
 10
-4.256698
 20
147.650697
 30
0.0
 40
4.66369
  0
CIRCLE
  8
0
 10
-4.256698
 20
147.650697
 30
0.0
 40
4.0
  0
LINE
  8
0
 10
-7.656698
 20
109.545366
 30
0.0
 11
-7.656698
 21
120.345366
 31
0.0
  0
CIRCLE
  8
0
 10
-4.256698
 20
93.122697
 30
0.0
 40
4.66369
  0
CIRCLE
  8
0
 10
-4.256698
 20
93.122697
 30
0.0
 40
4.0
  0
CIRCLE
  8
0
 10
-4.256698
 20
93.122697
 30
0.0
 40
3.4
  0
LINE
  8
0
 10
-8.256698
 20
120.945366
 30
0.0
 11
-7.656698
 21
120.345366
 31
0.0
  0
LINE
  8
0
 10
-7.656698
 20
120.345366
 30
0.0
 11
-4.256698
 21
120.345366
 31
0.0
  0
LINE
  8
0
 10
-8.256698
 20
108.945366
 30
0.0
 11
-7.656698
 21
109.545366
 31
0.0
  0
LINE
  8
0
 10
-7.656698
 20
109.545366
 30
0.0
 11
-4.256698
 21
109.545366
 31
0.0
  0
LINE
  8
0
 10
-7.656698
 20
228.791528
 30
0.0
 11
-4.256698
 21
228.791528
 31
0.0
  0
LINE
  8
0
 10
-8.256698
 20
228.191528
 30
0.0
 11
-7.656698
 21
228.791528
 31
0.0
  0
LINE
  8
0
 10
-7.656698
 20
239.591528
 30
0.0
 11
-4.256698
 21
239.591528
 31
0.0
  0
LINE
  8
0
 10
-8.256698
 20
240.191528
 30
0.0
 11
-7.656698
 21
239.591528
 31
0.0
  0
LINE
  8
0
 10
-7.656698
 20
228.791528
 30
0.0
 11
-7.656698
 21
239.591528
 31
0.0
  0
LINE
  8
0
 10
-8.256698
 20
228.191528
 30
0.0
 11
-8.256698
 21
240.191528
 31
0.0
  0
CIRCLE
  8
0
 10
-4.256698
 20
212.930697
 30
0.0
 40
3.4
  0
CIRCLE
  8
0
 10
-4.256698
 20
212.930697
 30
0.0
 40
4.0
  0
CIRCLE
  8
0
 10
-4.256698
 20
212.930697
 30
0.0
 40
4.66369
  0
INSERT
  8
0
  2
*X1
 10
30.690777
 20
0.0
 30
0.0
  0
INSERT
  8
0
  2
*X1
 10
30.690777
 20
105.422163
 30
0.0
  0
ARC
  8
0
 10
118.875507
 20
10.995477
 30
0.0
 40
10.0
 50
34.689066
 51
325.310934
  0
ARC
  8
0
 10
192.375507
 20
10.995477
 30
0.0
 40
6.5
 50
268.49354
 51
91.50646
  0
LINE
  8
0
 10
128.795119
 20
15.82564
 30
0.0
 11
192.204625
 21
17.49323
 31
0.0
  0
LINE
  8
0
 10
128.795119
 20
6.165314
 30
0.0
 11
192.204625
 21
4.497723
 31
0.0
  0
ARC
  8
0
 10
128.742539
 20
17.824948
 30
0.0
 40
2.0
 50
214.689066
 51
271.50646
  0
ARC
  8
0
 10
128.742539
 20
4.166005
 30
0.0
 40
2.0
 50
88.49354
 51
145.310934
  0
ARC
  8
0
 10
128.742539
 20
65.042005
 30
0.0
 40
2.0
 50
88.49354
 51
145.310934
  0
ARC
  8
0
 10
128.742539
 20
78.700948
 30
0.0
 40
2.0
 50
214.689066
 51
271.50646
  0
LINE
  8
0
 10
128.795119
 20
67.041314
 30
0.0
 11
192.204625
 21
65.373723
 31
0.0
  0
LINE
  8
0
 10
128.795119
 20
76.70164
 30
0.0
 11
192.204625
 21
78.36923
 31
0.0
  0
ARC
  8
0
 10
192.375507
 20
71.871477
 30
0.0
 40
6.5
 50
268.49354
 51
91.50646
  0
ARC
  8
0
 10
118.875507
 20
71.871477
 30
0.0
 40
10.0
 50
34.689066
 51
55.084794
  0
LINE
  8
0
  6
CENTER
 10
118.875507
 20
63.283213
 30
0.0
 11
118.875507
 21
82.169283
 31
0.0
  0
LINE
  8
0
 10
111.543386
 20
65.071477
 30
0.0
 11
126.207629
 21
65.071477
 31
0.0
  0
LINE
  8
0
 10
113.875507
 20
65.071477
 30
0.0
 11
113.875507
 21
80.071477
 31
0.0
  0
ARC
  8
0
 10
118.875507
 20
71.871477
 30
0.0
 40
10.0
 50
317.156357
 51
325.310934
  0
ARC
  8
0
 10
118.875507
 20
71.871477
 30
0.0
 40
10.0
 50
124.915206
 51
222.843643
  0
ARC
  8
0
 10
130.483301
 20
190.940597
 30
0.0
 40
2.0
 50
108.49354
 51
165.310934
  0
ARC
  8
0
 10
125.811668
 20
203.775804
 30
0.0
 40
2.0
 50
234.689066
 51
291.50646
  0
LINE
  8
0
 10
129.848906
 20
192.837315
 30
0.0
 11
190.0047
 21
212.957621
 31
0.0
  0
LINE
  8
0
 10
126.54488
 20
201.915052
 30
0.0
 11
185.559975
 21
225.169403
 31
0.0
  0
ARC
  8
0
 10
187.942915
 20
219.121957
 30
0.0
 40
6.5
 50
288.49354
 51
111.50646
  0
ARC
  8
0
 10
118.875507
 20
193.983477
 30
0.0
 40
10.0
 50
54.689066
 51
55.084794
  0
ARC
  8
0
 10
118.875507
 20
193.983477
 30
0.0
 40
10.0
 50
317.156357
 51
345.310934
  0
ARC
  8
0
 10
118.875507
 20
193.983477
 30
0.0
 40
10.0
 50
124.915206
 51
222.843643
  0
LINE
  8
0
 10
113.151872
 20
80.071477
 30
0.0
 11
124.599143
 21
80.071477
 31
0.0
  0
LINE
  8
0
 10
113.151872
 20
202.183477
 30
0.0
 11
124.599143
 21
202.183477
 31
0.0
  0
LINE
  8
0
 10
111.543386
 20
187.183477
 30
0.0
 11
126.207629
 21
187.183477
 31
0.0
  0
LINE
  8
0
 10
111.543386
 20
262.459477
 30
0.0
 11
126.207629
 21
262.459477
 31
0.0
  0
LINE
  8
0
 10
113.151872
 20
277.459477
 30
0.0
 11
124.599143
 21
277.459477
 31
0.0
  0
LINE
  8
0
 10
113.151872
 20
143.527477
 30
0.0
 11
124.599143
 21
143.527477
 31
0.0
  0
ARC
  8
0
 10
118.875507
 20
269.259477
 30
0.0
 40
10.0
 50
124.915206
 51
222.843643
  0
ARC
  8
0
 10
118.875507
 20
269.259477
 30
0.0
 40
10.0
 50
317.156357
 51
345.310934
  0
ARC
  8
0
 10
118.875507
 20
269.259477
 30
0.0
 40
10.0
 50
54.689066
 51
55.084794
  0
ARC
  8
0
 10
187.942915
 20
294.397957
 30
0.0
 40
6.5
 50
288.49354
 51
111.50646
  0
LINE
  8
0
 10
126.54488
 20
277.191052
 30
0.0
 11
185.559975
 21
300.445403
 31
0.0
  0
LINE
  8
0
 10
129.851751
 20
268.114267
 30
0.0
 11
129.855544
 21
268.115536
 31
0.0
  0
ARC
  8
0
 10
125.811668
 20
279.051804
 30
0.0
 40
2.0
 50
234.689066
 51
291.50646
  0
ARC
  8
0
 10
130.483301
 20
266.216597
 30
0.0
 40
2.0
 50
108.49354
 51
165.310934
  0
ARC
  8
0
 10
118.875507
 20
135.327477
 30
0.0
 40
10.0
 50
124.915206
 51
222.843643
  0
ARC
  8
0
 10
118.875507
 20
135.327477
 30
0.0
 40
10.0
 50
317.156357
 51
325.310934
  0
LINE
  8
0
 10
111.543386
 20
128.527477
 30
0.0
 11
126.207629
 21
128.527477
 31
0.0
  0
LINE
  8
0
  6
CENTER
 10
118.875507
 20
126.739213
 30
0.0
 11
118.875507
 21
145.625283
 31
0.0
  0
ARC
  8
0
 10
118.875507
 20
135.327477
 30
0.0
 40
10.0
 50
34.689066
 51
55.084794
  0
ARC
  8
0
 10
192.375507
 20
135.327477
 30
0.0
 40
6.5
 50
268.49354
 51
91.50646
  0
LINE
  8
0
 10
128.795119
 20
140.15764
 30
0.0
 11
192.204625
 21
141.82523
 31
0.0
  0
LINE
  8
0
 10
128.795119
 20
130.497314
 30
0.0
 11
192.204625
 21
128.829723
 31
0.0
  0
ARC
  8
0
 10
128.742539
 20
142.156948
 30
0.0
 40
2.0
 50
214.689066
 51
271.50646
  0
ARC
  8
0
 10
128.742539
 20
128.498005
 30
0.0
 40
2.0
 50
88.49354
 51
145.310934
  0
LINE
  8
0
 10
113.875507
 20
187.183477
 30
0.0
 11
113.875507
 21
202.183477
 31
0.0
  0
ARC
  8
0
 10
128.742539
 20
37.910005
 30
0.0
 40
2.0
 50
88.49354
 51
145.310934
  0
ARC
  8
0
 10
128.742539
 20
51.568948
 30
0.0
 40
2.0
 50
214.689066
 51
271.50646
  0
LINE
  8
0
 10
128.795119
 20
39.909314
 30
0.0
 11
192.204625
 21
38.241723
 31
0.0
  0
LINE
  8
0
 10
128.795119
 20
49.56964
 30
0.0
 11
192.204625
 21
51.23723
 31
0.0
  0
ARC
  8
0
 10
192.375507
 20
44.739477
 30
0.0
 40
6.5
 50
268.49354
 51
91.50646
  0
ARC
  8
0
 10
118.875507
 20
44.739477
 30
0.0
 40
10.0
 50
34.689066
 51
325.310934
  0
ARC
  8
0
 10
118.875507
 20
106.899477
 30
0.0
 40
10.0
 50
34.689066
 51
325.310934
  0
ARC
  8
0
 10
192.375507
 20
106.899477
 30
0.0
 40
6.5
 50
268.49354
 51
91.50646
  0
LINE
  8
0
 10
128.795119
 20
111.72964
 30
0.0
 11
192.204625
 21
113.39723
 31
0.0
  0
LINE
  8
0
 10
128.795119
 20
102.069314
 30
0.0
 11
192.204625
 21
100.401723
 31
0.0
  0
ARC
  8
0
 10
128.742539
 20
113.728948
 30
0.0
 40
2.0
 50
214.689066
 51
271.50646
  0
ARC
  8
0
 10
128.742539
 20
100.070005
 30
0.0
 40
2.0
 50
88.49354
 51
145.310934
  0
ARC
  8
0
 10
128.742539
 20
160.898005
 30
0.0
 40
2.0
 50
88.49354
 51
145.310934
  0
ARC
  8
0
 10
128.742539
 20
174.556948
 30
0.0
 40
2.0
 50
214.689066
 51
271.50646
  0
LINE
  8
0
 10
128.795119
 20
162.897314
 30
0.0
 11
187.772032
 21
161.229723
 31
0.0
  0
LINE
  8
0
 10
128.795119
 20
172.55764
 30
0.0
 11
187.772032
 21
174.22523
 31
0.0
  0
ARC
  8
0
 10
187.942915
 20
167.727477
 30
0.0
 40
6.5
 50
268.49354
 51
91.50646
  0
ARC
  8
0
 10
118.875507
 20
167.727477
 30
0.0
 40
10.0
 50
34.689066
 51
325.310934
  0
ARC
  8
0
 10
118.875507
 20
244.095477
 30
0.0
 40
10.0
 50
34.689066
 51
325.310934
  0
ARC
  8
0
 10
187.942915
 20
244.095477
 30
0.0
 40
6.5
 50
268.49354
 51
91.50646
  0
LINE
  8
0
 10
128.795119
 20
248.92564
 30
0.0
 11
187.772032
 21
250.59323
 31
0.0
  0
LINE
  8
0
 10
128.795119
 20
239.265314
 30
0.0
 11
187.772032
 21
237.597723
 31
0.0
  0
ARC
  8
0
 10
128.742539
 20
250.924948
 30
0.0
 40
2.0
 50
214.689066
 51
271.50646
  0
ARC
  8
0
 10
128.742539
 20
237.266005
 30
0.0
 40
2.0
 50
88.49354
 51
145.310934
  0
CIRCLE
  8
0
 10
118.875507
 20
44.739477
 30
0.0
 40
5.0
  0
CIRCLE
  8
0
 10
118.875507
 20
44.739477
 30
0.0
 40
5.723635
  0
CIRCLE
  8
0
 10
118.875507
 20
106.899477
 30
0.0
 40
5.723635
  0
CIRCLE
  8
0
 10
118.875507
 20
106.899477
 30
0.0
 40
5.0
  0
CIRCLE
  8
0
 10
118.875507
 20
167.727477
 30
0.0
 40
5.0
  0
CIRCLE
  8
0
 10
118.875507
 20
167.727477
 30
0.0
 40
5.723635
  0
LINE
  8
0
 10
113.875507
 20
128.527477
 30
0.0
 11
113.875507
 21
143.527477
 31
0.0
  0
LINE
  8
0
 10
114.625507
 20
129.277477
 30
0.0
 11
114.625507
 21
142.777477
 31
0.0
  0
LINE
  8
0
 10
113.875507
 20
128.527477
 30
0.0
 11
114.625507
 21
129.277477
 31
0.0
  0
LINE
  8
0
 10
114.625507
 20
129.277477
 30
0.0
 11
118.875507
 21
129.277477
 31
0.0
  0
LINE
  8
0
 10
114.625507
 20
142.777477
 30
0.0
 11
118.875507
 21
142.777477
 31
0.0
  0
LINE
  8
0
 10
113.875507
 20
143.527477
 30
0.0
 11
114.625507
 21
142.777477
 31
0.0
  0
CIRCLE
  8
0
 10
118.875507
 20
106.899477
 30
0.0
 40
4.25
  0
CIRCLE
  8
0
 10
118.875507
 20
244.095477
 30
0.0
 40
4.25
  0
CIRCLE
  8
0
 10
118.875507
 20
244.095477
 30
0.0
 40
5.0
  0
CIRCLE
  8
0
 10
118.875507
 20
244.095477
 30
0.0
 40
5.723635
  0
LINE
  8
0
  6
CENTER
 10
118.875507
 20
184.816594
 30
0.0
 11
118.875507
 21
203.702664
 31
0.0
  0
LINE
  8
0
 10
113.875507
 20
277.459477
 30
0.0
 11
114.625507
 21
276.709477
 31
0.0
  0
LINE
  8
0
 10
114.625507
 20
276.709477
 30
0.0
 11
118.875507
 21
276.709477
 31
0.0
  0
LINE
  8
0
 10
114.625507
 20
263.209477
 30
0.0
 11
118.875507
 21
263.209477
 31
0.0
  0
LINE
  8
0
 10
113.875507
 20
262.459477
 30
0.0
 11
114.625507
 21
263.209477
 31
0.0
  0
LINE
  8
0
 10
114.625507
 20
263.209477
 30
0.0
 11
114.625507
 21
276.709477
 31
0.0
  0
LINE
  8
0
 10
113.875507
 20
262.459477
 30
0.0
 11
113.875507
 21
277.459477
 31
0.0
  0
LINE
  8
0
  6
CENTER
 10
118.875507
 20
260.671213
 30
0.0
 11
118.875507
 21
279.557283
 31
0.0
  0
INSERT
  8
0
  2
*X2
 10
63.120221
 20
2.22
 30
0.0
  0
INSERT
  8
0
  2
*X2
 10
63.120221
 20
124.332
 30
0.0
  0
ARC
  8
0
 10
274.681507
 20
9.327477
 30
0.0
 40
12.5
 50
30.865614
 51
329.134386
  0
ARC
  8
0
 10
366.681507
 20
9.327477
 30
0.0
 40
8.0
 50
268.152334
 51
91.847666
  0
LINE
  8
0
 10
287.1924
 20
14.767397
 30
0.0
 11
366.423569
 21
17.323318
 31
0.0
  0
LINE
  8
0
 10
287.1924
 20
3.887557
 30
0.0
 11
366.423569
 21
1.331636
 31
0.0
  0
ARC
  8
0
 10
287.127915
 20
16.766357
 30
0.0
 40
2.0
 50
210.865614
 51
271.847666
  0
ARC
  8
0
 10
287.127915
 20
1.888597
 30
0.0
 40
2.0
 50
88.152334
 51
149.134386
  0
LINE
  8
0
  6
CENTER
 10
274.681507
 20
66.665482
 30
0.0
 11
274.681507
 21
89.7557
 31
0.0
  0
ARC
  8
0
 10
287.127915
 20
69.632499
 30
0.0
 40
2.0
 50
88.152334
 51
149.134386
  0
ARC
  8
0
 10
287.127915
 20
84.510259
 30
0.0
 40
2.0
 50
210.865614
 51
271.847666
  0
LINE
  8
0
 10
287.1924
 20
71.631459
 30
0.0
 11
366.423569
 21
69.075538
 31
0.0
  0
LINE
  8
0
 10
287.1924
 20
82.511299
 30
0.0
 11
366.423569
 21
85.06722
 31
0.0
  0
ARC
  8
0
 10
366.681507
 20
77.071379
 30
0.0
 40
8.0
 50
268.152334
 51
91.847666
  0
ARC
  8
0
 10
274.681507
 20
77.071379
 30
0.0
 40
12.5
 50
30.865614
 51
57.175274
  0
ARC
  8
0
 10
274.681507
 20
219.012439
 30
0.0
 40
12.5
 50
50.865614
 51
57.175274
  0
ARC
  8
0
 10
361.133229
 20
250.478292
 30
0.0
 40
8.0
 50
288.152334
 51
111.847666
  0
LINE
  8
0
 10
284.577338
 20
228.403268
 30
0.0
 11
358.156107
 21
257.903704
 31
0.0
  0
LINE
  8
0
 10
288.298463
 20
218.179563
 30
0.0
 11
363.625585
 21
242.876439
 31
0.0
  0
ARC
  8
0
 10
283.833058
 20
230.259621
 30
0.0
 40
2.0
 50
230.865614
 51
291.847666
  0
ARC
  8
0
 10
288.921552
 20
216.2791
 30
0.0
 40
2.0
 50
108.152334
 51
169.134386
  0
LINE
  8
0
 10
268.681507
 20
69.075538
 30
0.0
 11
268.681507
 21
87.575538
 31
0.0
  0
LINE
  8
0
 10
284.289657
 20
69.075538
 30
0.0
 11
265.073358
 21
69.075538
 31
0.0
  0
LINE
  8
0
 10
281.457394
 20
87.575538
 30
0.0
 11
267.905621
 21
87.575538
 31
0.0
  0
ARC
  8
0
 10
274.681507
 20
77.071379
 30
0.0
 40
12.5
 50
320.232988
 51
329.134386
  0
ARC
  8
0
 10
274.681507
 20
77.071379
 30
0.0
 40
12.5
 50
122.824726
 51
219.767012
  0
LINE
  8
0
 10
281.457394
 20
229.516598
 30
0.0
 11
267.905621
 21
229.516598
 31
0.0
  0
LINE
  8
0
 10
284.289657
 20
211.016598
 30
0.0
 11
265.073358
 21
211.016598
 31
0.0
  0
LINE
  8
0
 10
268.681507
 20
211.016598
 30
0.0
 11
268.681507
 21
229.516598
 31
0.0
  0
LINE
  8
0
  6
CENTER
 10
274.681507
 20
207.450331
 30
0.0
 11
274.681507
 21
231.539967
 31
0.0
  0
ARC
  8
0
 10
274.681507
 20
219.012439
 30
0.0
 40
12.5
 50
122.824726
 51
219.767012
  0
ARC
  8
0
 10
274.681507
 20
219.012439
 30
0.0
 40
12.5
 50
320.232988
 51
349.134386
  0
ARC
  8
0
 10
287.127915
 20
107.756597
 30
0.0
 40
2.0
 50
88.152334
 51
149.134386
  0
ARC
  8
0
 10
287.127915
 20
122.634357
 30
0.0
 40
2.0
 50
210.865614
 51
271.847666
  0
LINE
  8
0
 10
287.1924
 20
109.755557
 30
0.0
 11
366.423569
 21
107.199636
 31
0.0
  0
LINE
  8
0
 10
287.1924
 20
120.635397
 30
0.0
 11
366.423569
 21
123.191318
 31
0.0
  0
ARC
  8
0
 10
366.681507
 20
115.195477
 30
0.0
 40
8.0
 50
268.152334
 51
91.847666
  0
ARC
  8
0
 10
274.681507
 20
115.195477
 30
0.0
 40
12.5
 50
30.865614
 51
329.134386
  0
ARC
  8
0
 10
274.681507
 20
185.419477
 30
0.0
 40
12.5
 50
30.865614
 51
329.134386
  0
ARC
  8
0
 10
361.133229
 20
185.419477
 30
0.0
 40
8.0
 50
268.152334
 51
91.847666
  0
LINE
  8
0
 10
287.1924
 20
190.859397
 30
0.0
 11
360.87529
 21
193.415318
 31
0.0
  0
LINE
  8
0
 10
287.1924
 20
179.979557
 30
0.0
 11
360.87529
 21
177.423636
 31
0.0
  0
ARC
  8
0
 10
287.127915
 20
192.858357
 30
0.0
 40
2.0
 50
210.865614
 51
271.847666
  0
ARC
  8
0
 10
287.127915
 20
177.980597
 30
0.0
 40
2.0
 50
88.152334
 51
149.134386
  0
ARC
  8
0
 10
274.681507
 20
313.176439
 30
0.0
 40
12.5
 50
320.232988
 51
349.134386
  0
ARC
  8
0
 10
274.681507
 20
313.176439
 30
0.0
 40
12.5
 50
122.824726
 51
219.767012
  0
ARC
  8
0
 10
288.921552
 20
310.4431
 30
0.0
 40
2.0
 50
108.152334
 51
169.134386
  0
ARC
  8
0
 10
283.833058
 20
324.423621
 30
0.0
 40
2.0
 50
230.865614
 51
291.847666
  0
LINE
  8
0
 10
288.298463
 20
312.343563
 30
0.0
 11
363.625585
 21
337.040439
 31
0.0
  0
LINE
  8
0
 10
284.577338
 20
322.567268
 30
0.0
 11
358.156107
 21
352.067704
 31
0.0
  0
ARC
  8
0
 10
361.133229
 20
344.642292
 30
0.0
 40
8.0
 50
288.152334
 51
111.847666
  0
ARC
  8
0
 10
274.681507
 20
313.176439
 30
0.0
 40
12.5
 50
50.865614
 51
57.175274
  0
ARC
  8
0
 10
287.127915
 20
275.336597
 30
0.0
 40
2.0
 50
88.152334
 51
149.134386
  0
ARC
  8
0
 10
287.127915
 20
290.214357
 30
0.0
 40
2.0
 50
210.865614
 51
271.847666
  0
LINE
  8
0
 10
287.1924
 20
277.335557
 30
0.0
 11
360.87529
 21
274.779636
 31
0.0
  0
LINE
  8
0
 10
287.1924
 20
288.215397
 30
0.0
 11
360.87529
 21
290.771318
 31
0.0
  0
ARC
  8
0
 10
361.133229
 20
282.775477
 30
0.0
 40
8.0
 50
268.152334
 51
91.847666
  0
ARC
  8
0
 10
274.681507
 20
282.775477
 30
0.0
 40
12.5
 50
30.865614
 51
329.134386
  0
ARC
  8
0
 10
274.681507
 20
145.699379
 30
0.0
 40
12.5
 50
122.824726
 51
219.767012
  0
ARC
  8
0
 10
274.681507
 20
145.699379
 30
0.0
 40
12.5
 50
320.232988
 51
329.134386
  0
LINE
  8
0
 10
281.457394
 20
156.203538
 30
0.0
 11
267.905621
 21
156.203538
 31
0.0
  0
LINE
  8
0
 10
284.289657
 20
137.703538
 30
0.0
 11
265.073358
 21
137.703538
 31
0.0
  0
LINE
  8
0
 10
268.681507
 20
137.703538
 30
0.0
 11
268.681507
 21
156.203538
 31
0.0
  0
ARC
  8
0
 10
274.681507
 20
145.699379
 30
0.0
 40
12.5
 50
30.865614
 51
57.175274
  0
ARC
  8
0
 10
366.681507
 20
145.699379
 30
0.0
 40
8.0
 50
268.152334
 51
91.847666
  0
LINE
  8
0
 10
287.1924
 20
151.139299
 30
0.0
 11
366.423569
 21
153.69522
 31
0.0
  0
LINE
  8
0
 10
287.1924
 20
140.259459
 30
0.0
 11
366.423569
 21
137.703538
 31
0.0
  0
ARC
  8
0
 10
287.127915
 20
153.138259
 30
0.0
 40
2.0
 50
210.865614
 51
271.847666
  0
ARC
  8
0
 10
287.127915
 20
138.260499
 30
0.0
 40
2.0
 50
88.152334
 51
149.134386
  0
LINE
  8
0
  6
CENTER
 10
274.681507
 20
135.293482
 30
0.0
 11
274.681507
 21
158.3837
 31
0.0
  0
ARC
  8
0
 10
287.127915
 20
38.596597
 30
0.0
 40
2.0
 50
88.152334
 51
149.134386
  0
ARC
  8
0
 10
287.127915
 20
53.474357
 30
0.0
 40
2.0
 50
210.865614
 51
271.847666
  0
LINE
  8
0
 10
287.1924
 20
40.595557
 30
0.0
 11
366.423569
 21
38.039636
 31
0.0
  0
LINE
  8
0
 10
287.1924
 20
51.475397
 30
0.0
 11
366.423569
 21
54.031318
 31
0.0
  0
ARC
  8
0
 10
366.681507
 20
46.035477
 30
0.0
 40
8.0
 50
268.152334
 51
91.847666
  0
ARC
  8
0
 10
274.681507
 20
46.035477
 30
0.0
 40
12.5
 50
30.865614
 51
329.134386
  0
CIRCLE
  8
0
 10
274.681507
 20
46.035477
 30
0.0
 40
6.0
  0
CIRCLE
  8
0
 10
274.681507
 20
46.035477
 30
0.0
 40
6.775886
  0
CIRCLE
  8
0
 10
274.681507
 20
115.195477
 30
0.0
 40
6.775886
  0
CIRCLE
  8
0
 10
274.681507
 20
115.195477
 30
0.0
 40
6.0
  0
CIRCLE
  8
0
 10
274.681507
 20
185.419477
 30
0.0
 40
6.775886
  0
CIRCLE
  8
0
 10
274.681507
 20
185.419477
 30
0.0
 40
6.0
  0
LINE
  8
0
 10
269.581507
 20
138.603538
 30
0.0
 11
269.581507
 21
155.303538
 31
0.0
  0
LINE
  8
0
 10
268.681507
 20
137.703538
 30
0.0
 11
269.581507
 21
138.603538
 31
0.0
  0
LINE
  8
0
 10
269.581507
 20
138.603538
 30
0.0
 11
274.681507
 21
138.603538
 31
0.0
  0
LINE
  8
0
 10
269.581507
 20
155.303538
 30
0.0
 11
274.681507
 21
155.303538
 31
0.0
  0
LINE
  8
0
 10
268.681507
 20
156.203538
 30
0.0
 11
269.581507
 21
155.303538
 31
0.0
  0
CIRCLE
  8
0
 10
274.681507
 20
115.195477
 30
0.0
 40
5.1
  0
CIRCLE
  8
0
 10
274.681507
 20
282.775477
 30
0.0
 40
5.1
  0
CIRCLE
  8
0
 10
274.681507
 20
282.775477
 30
0.0
 40
6.0
  0
CIRCLE
  8
0
 10
274.681507
 20
282.775477
 30
0.0
 40
6.775886
  0
LINE
  8
0
 10
268.681507
 20
323.680598
 30
0.0
 11
269.581507
 21
322.780598
 31
0.0
  0
LINE
  8
0
 10
269.581507
 20
322.780598
 30
0.0
 11
274.681507
 21
322.780598
 31
0.0
  0
LINE
  8
0
 10
269.581507
 20
306.080598
 30
0.0
 11
274.681507
 21
306.080598
 31
0.0
  0
LINE
  8
0
 10
268.681507
 20
305.180598
 30
0.0
 11
269.581507
 21
306.080598
 31
0.0
  0
LINE
  8
0
 10
269.581507
 20
306.080598
 30
0.0
 11
269.581507
 21
322.780598
 31
0.0
  0
LINE
  8
0
  6
CENTER
 10
274.681507
 20
302.770542
 30
0.0
 11
274.681507
 21
325.860759
 31
0.0
  0
LINE
  8
0
 10
268.681507
 20
305.180598
 30
0.0
 11
268.681507
 21
323.680598
 31
0.0
  0
LINE
  8
0
 10
284.289657
 20
305.180598
 30
0.0
 11
265.073358
 21
305.180598
 31
0.0
  0
LINE
  8
0
 10
281.457394
 20
323.680598
 30
0.0
 11
267.905621
 21
323.680598
 31
0.0
  0
INSERT
  8
0
  2
*X3
 10
107.613126
 20
0.0
 30
0.0
  0
INSERT
  8
0
  2
*X3
 10
107.613126
 20
141.94106
 30
0.0
  0
ARC
  8
0
 10
483.605507
 20
9.379477
 30
0.0
 40
16.0
 50
31.226843
 51
328.773157
  0
ARC
  8
0
 10
598.605507
 20
9.379477
 30
0.0
 40
10.0
 50
268.463041
 51
91.536959
  0
LINE
  8
0
 10
499.051338
 20
16.711895
 30
0.0
 11
598.33729
 21
19.375879
 31
0.0
  0
LINE
  8
0
 10
499.051338
 20
2.047059
 30
0.0
 11
598.33729
 21
-0.616925
 31
0.0
  0
ARC
  8
0
 10
498.997694
 20
18.711175
 30
0.0
 40
2.0
 50
211.226843
 51
271.536959
  0
ARC
  8
0
 10
498.997694
 20
0.047779
 30
0.0
 40
2.0
 50
88.463041
 51
148.773157
  0
ARC
  8
0
 10
498.997694
 20
81.27909
 30
0.0
 40
2.0
 50
88.463041
 51
148.773157
  0
ARC
  8
0
 10
498.997694
 20
99.942487
 30
0.0
 40
2.0
 50
211.226843
 51
271.536959
  0
LINE
  8
0
 10
499.051338
 20
83.278371
 30
0.0
 11
598.33729
 21
80.614386
 31
0.0
  0
LINE
  8
0
 10
499.051338
 20
97.943207
 30
0.0
 11
598.33729
 21
100.607191
 31
0.0
  0
ARC
  8
0
 10
598.605507
 20
90.610789
 30
0.0
 40
10.0
 50
268.463041
 51
91.536959
  0
LINE
  8
0
  6
CENTER
 10
483.605507
 20
75.970818
 30
0.0
 11
483.605507
 21
107.325724
 31
0.0
  0
ARC
  8
0
 10
483.605507
 20
90.610789
 30
0.0
 40
16.0
 50
31.226843
 51
57.562266
  0
ARC
  8
0
 10
483.605507
 20
371.768544
 30
0.0
 40
16.0
 50
51.226843
 51
57.562266
  0
ARC
  8
0
 10
591.670159
 20
411.100861
 30
0.0
 40
10.0
 50
288.463041
 51
111.536959
  0
LINE
  8
0
 10
495.612005
 20
383.941548
 30
0.0
 11
587.999146
 21
420.40267
 31
0.0
  0
LINE
  8
0
 10
500.627675
 20
370.16111
 30
0.0
 11
594.837087
 21
401.615579
 31
0.0
  0
ARC
  8
0
 10
494.877803
 20
385.80191
 30
0.0
 40
2.0
 50
231.226843
 51
291.536959
  0
ARC
  8
0
 10
501.26106
 20
368.264054
 30
0.0
 40
2.0
 50
108.463041
 51
168.773157
  0
LINE
  8
0
 10
495.681332
 20
80.114386
 30
0.0
 11
471.529683
 21
80.114386
 31
0.0
  0
LINE
  8
0
 10
475.605507
 20
80.114386
 30
0.0
 11
475.605507
 21
104.114386
 31
0.0
  0
LINE
  8
0
 10
492.187631
 20
104.114386
 30
0.0
 11
475.023384
 21
104.114386
 31
0.0
  0
ARC
  8
0
 10
483.605507
 20
90.610789
 30
0.0
 40
16.0
 50
319.002572
 51
328.773157
  0
ARC
  8
0
 10
483.605507
 20
90.610789
 30
0.0
 40
16.0
 50
122.437734
 51
220.997428
  0
ARC
  8
0
 10
483.605507
 20
371.768544
 30
0.0
 40
16.0
 50
319.002572
 51
348.773157
  0
ARC
  8
0
 10
483.605507
 20
371.768544
 30
0.0
 40
16.0
 50
122.437734
 51
220.997428
  0
ARC
  8
0
 10
483.605507
 20
264.024544
 30
0.0
 40
16.0
 50
122.437734
 51
220.997428
  0
ARC
  8
0
 10
483.605507
 20
264.024544
 30
0.0
 40
16.0
 50
319.002572
 51
348.773157
  0
LINE
  8
0
 10
495.681332
 20
253.528142
 30
0.0
 11
471.529683
 21
253.528142
 31
0.0
  0
LINE
  8
0
 10
475.605507
 20
253.528142
 30
0.0
 11
475.605507
 21
277.528142
 31
0.0
  0
LINE
  8
0
 10
492.187631
 20
277.528142
 30
0.0
 11
475.023384
 21
277.528142
 31
0.0
  0
ARC
  8
0
 10
501.26106
 20
260.520054
 30
0.0
 40
2.0
 50
108.463041
 51
168.773157
  0
ARC
  8
0
 10
494.877803
 20
278.05791
 30
0.0
 40
2.0
 50
231.226843
 51
291.536959
  0
LINE
  8
0
 10
500.627675
 20
262.41711
 30
0.0
 11
594.837087
 21
293.871579
 31
0.0
  0
LINE
  8
0
 10
495.612005
 20
276.197548
 30
0.0
 11
587.999146
 21
312.65867
 31
0.0
  0
ARC
  8
0
 10
591.670159
 20
303.356861
 30
0.0
 40
10.0
 50
288.463041
 51
111.536959
  0
ARC
  8
0
 10
483.605507
 20
264.024544
 30
0.0
 40
16.0
 50
51.226843
 51
57.562266
  0
ARC
  8
0
 10
498.997694
 20
43.855779
 30
0.0
 40
2.0
 50
88.463041
 51
148.773157
  0
ARC
  8
0
 10
498.997694
 20
62.519175
 30
0.0
 40
2.0
 50
211.226843
 51
271.536959
  0
LINE
  8
0
 10
499.051338
 20
45.855059
 30
0.0
 11
598.33729
 21
43.191075
 31
0.0
  0
LINE
  8
0
 10
499.051338
 20
60.519895
 30
0.0
 11
598.33729
 21
63.183879
 31
0.0
  0
ARC
  8
0
 10
598.605507
 20
53.187477
 30
0.0
 40
10.0
 50
268.463041
 51
91.536959
  0
ARC
  8
0
 10
483.605507
 20
53.187477
 30
0.0
 40
16.0
 50
31.226843
 51
328.773157
  0
ARC
  8
0
 10
483.605507
 20
136.659477
 30
0.0
 40
16.0
 50
31.226843
 51
328.773157
  0
ARC
  8
0
 10
598.605507
 20
136.659477
 30
0.0
 40
10.0
 50
268.463041
 51
91.536959
  0
LINE
  8
0
 10
499.051338
 20
143.991895
 30
0.0
 11
598.33729
 21
146.655879
 31
0.0
  0
LINE
  8
0
 10
499.051338
 20
129.327059
 30
0.0
 11
598.33729
 21
126.663075
 31
0.0
  0
ARC
  8
0
 10
498.997694
 20
145.991175
 30
0.0
 40
2.0
 50
211.226843
 51
271.536959
  0
ARC
  8
0
 10
498.997694
 20
127.327779
 30
0.0
 40
2.0
 50
88.463041
 51
148.773157
  0
ARC
  8
0
 10
483.605507
 20
174.866407
 30
0.0
 40
16.0
 50
122.437734
 51
220.997428
  0
ARC
  8
0
 10
483.605507
 20
174.866407
 30
0.0
 40
16.0
 50
319.002572
 51
328.773157
  0
LINE
  8
0
 10
492.187631
 20
188.370004
 30
0.0
 11
475.023384
 21
188.370004
 31
0.0
  0
LINE
  8
0
 10
475.605507
 20
164.370004
 30
0.0
 11
475.605507
 21
188.370004
 31
0.0
  0
LINE
  8
0
 10
495.681332
 20
164.370004
 30
0.0
 11
471.529683
 21
164.370004
 31
0.0
  0
ARC
  8
0
 10
483.605507
 20
174.866407
 30
0.0
 40
16.0
 50
31.226843
 51
57.562266
  0
LINE
  8
0
  6
CENTER
 10
483.605507
 20
160.600433
 30
0.0
 11
483.605507
 21
191.610461
 31
0.0
  0
ARC
  8
0
 10
598.605507
 20
174.866407
 30
0.0
 40
10.0
 50
268.463041
 51
91.536959
  0
LINE
  8
0
 10
499.051338
 20
182.198824
 30
0.0
 11
598.33729
 21
184.862809
 31
0.0
  0
LINE
  8
0
 10
499.051338
 20
167.533989
 30
0.0
 11
598.33729
 21
164.870004
 31
0.0
  0
ARC
  8
0
 10
498.997694
 20
184.198105
 30
0.0
 40
2.0
 50
211.226843
 51
271.536959
  0
ARC
  8
0
 10
498.997694
 20
165.534708
 30
0.0
 40
2.0
 50
88.463041
 51
148.773157
  0
ARC
  8
0
 10
498.997694
 20
215.535779
 30
0.0
 40
2.0
 50
88.463041
 51
148.773157
  0
ARC
  8
0
 10
498.997694
 20
234.199175
 30
0.0
 40
2.0
 50
211.226843
 51
271.536959
  0
LINE
  8
0
 10
499.051338
 20
217.535059
 30
0.0
 11
591.401941
 21
214.871075
 31
0.0
  0
LINE
  8
0
 10
499.051338
 20
232.199895
 30
0.0
 11
591.401941
 21
234.863879
 31
0.0
  0
ARC
  8
0
 10
591.670159
 20
224.867477
 30
0.0
 40
10.0
 50
268.463041
 51
91.536959
  0
ARC
  8
0
 10
483.605507
 20
224.867477
 30
0.0
 40
16.0
 50
31.226843
 51
328.773157
  0
ARC
  8
0
 10
483.605507
 20
332.611477
 30
0.0
 40
16.0
 50
31.226843
 51
328.773157
  0
ARC
  8
0
 10
591.670159
 20
332.611477
 30
0.0
 40
10.0
 50
268.463041
 51
91.536959
  0
LINE
  8
0
 10
499.051338
 20
339.943895
 30
0.0
 11
591.401941
 21
342.607879
 31
0.0
  0
LINE
  8
0
 10
499.051338
 20
325.279059
 30
0.0
 11
591.401941
 21
322.615075
 31
0.0
  0
ARC
  8
0
 10
498.997694
 20
341.943175
 30
0.0
 40
2.0
 50
211.226843
 51
271.536959
  0
ARC
  8
0
 10
498.997694
 20
323.279779
 30
0.0
 40
2.0
 50
88.463041
 51
148.773157
  0
LINE
  8
0
  6
CENTER
 10
483.605507
 20
249.945718
 30
0.0
 11
483.605507
 21
280.903756
 31
0.0
  0
CIRCLE
  8
0
 10
483.605507
 20
53.187477
 30
0.0
 40
8.0
  0
CIRCLE
  8
0
 10
483.605507
 20
53.187477
 30
0.0
 40
8.582124
  0
CIRCLE
  8
0
 10
483.605507
 20
136.659477
 30
0.0
 40
8.582124
  0
CIRCLE
  8
0
 10
483.605507
 20
136.659477
 30
0.0
 40
8.0
  0
CIRCLE
  8
0
 10
483.605507
 20
224.867477
 30
0.0
 40
8.582124
  0
CIRCLE
  8
0
 10
483.605507
 20
224.867477
 30
0.0
 40
8.0
  0
LINE
  8
0
 10
476.605507
 20
165.370004
 30
0.0
 11
476.605507
 21
187.370004
 31
0.0
  0
LINE
  8
0
 10
475.605507
 20
164.370004
 30
0.0
 11
476.605507
 21
165.370004
 31
0.0
  0
LINE
  8
0
 10
476.605507
 20
165.370004
 30
0.0
 11
483.605507
 21
165.370004
 31
0.0
  0
LINE
  8
0
 10
475.605507
 20
188.370004
 30
0.0
 11
476.605507
 21
187.370004
 31
0.0
  0
LINE
  8
0
 10
476.605507
 20
187.370004
 30
0.0
 11
483.605507
 21
187.370004
 31
0.0
  0
CIRCLE
  8
0
 10
483.605507
 20
136.659477
 30
0.0
 40
7.0
  0
CIRCLE
  8
0
 10
483.605507
 20
332.611477
 30
0.0
 40
7.0
  0
CIRCLE
  8
0
 10
483.605507
 20
332.611477
 30
0.0
 40
8.0
  0
CIRCLE
  8
0
 10
483.605507
 20
332.611477
 30
0.0
 40
8.582124
  0
LINE
  8
0
 10
476.605507
 20
384.272142
 30
0.0
 11
483.605507
 21
384.272142
 31
0.0
  0
LINE
  8
0
 10
475.605507
 20
385.272142
 30
0.0
 11
476.605507
 21
384.272142
 31
0.0
  0
LINE
  8
0
 10
476.605507
 20
362.272142
 30
0.0
 11
483.605507
 21
362.272142
 31
0.0
  0
LINE
  8
0
 10
475.605507
 20
361.272142
 30
0.0
 11
476.605507
 21
362.272142
 31
0.0
  0
LINE
  8
0
 10
476.605507
 20
362.272142
 30
0.0
 11
476.605507
 21
384.272142
 31
0.0
  0
LINE
  8
0
  6
CENTER
 10
483.605507
 20
357.502571
 30
0.0
 11
483.605507
 21
388.512599
 31
0.0
  0
LINE
  8
0
 10
495.681332
 20
361.272142
 30
0.0
 11
471.529683
 21
361.272142
 31
0.0
  0
LINE
  8
0
 10
475.605507
 20
361.272142
 30
0.0
 11
475.605507
 21
385.272142
 31
0.0
  0
LINE
  8
0
 10
492.187631
 20
385.272142
 30
0.0
 11
475.023384
 21
385.272142
 31
0.0
  0
INSERT
  8
0
  2
*X4
 10
181.651349
 20
0.0
 30
0.0
  0
INSERT
  8
0
  2
*X4
 10
181.651349
 20
173.413756
 30
0.0
  0
LINE
  8
0
 10
-44.054272
 20
67.506515
 30
0.0
 11
-37.505812
 21
67.506515
 31
0.0
  0
LINE
  8
0
 10
-44.780042
 20
58.006515
 30
0.0
 11
-36.780042
 21
58.006515
 31
0.0
  0
ARC
  8
0
 10
-40.780042
 20
62.478651
 30
0.0
 40
6.0
 50
123.072856
 51
228.189685
  0
ARC
  8
0
 10
-40.780042
 20
62.478651
 30
0.0
 40
6.0
 50
311.810315
 51
56.927144
  0
ARC
  8
0
 10
-40.780042
 20
108.493602
 30
0.0
 40
6.0
 50
311.810315
 51
56.927144
  0
ARC
  8
0
 10
-40.780042
 20
108.493602
 30
0.0
 40
6.0
 50
123.072856
 51
228.189685
  0
LINE
  8
0
 10
-44.780042
 20
104.021466
 30
0.0
 11
-36.780042
 21
104.021466
 31
0.0
  0
LINE
  8
0
 10
-44.054272
 20
113.521466
 30
0.0
 11
-37.505812
 21
113.521466
 31
0.0
  0
LINE
  8
0
 10
-44.054272
 20
153.515112
 30
0.0
 11
-37.505812
 21
153.515112
 31
0.0
  0
LINE
  8
0
 10
-44.780042
 20
144.015112
 30
0.0
 11
-36.780042
 21
144.015112
 31
0.0
  0
ARC
  8
0
 10
-40.780042
 20
148.487248
 30
0.0
 40
6.0
 50
123.072856
 51
228.189685
  0
ARC
  8
0
 10
-40.780042
 20
148.487248
 30
0.0
 40
6.0
 50
311.810315
 51
56.927144
  0
ARC
  8
0
 10
-40.780042
 20
164.677223
 30
0.0
 40
4.0
 50
352.155855
 51
187.844145
  0
LINE
  8
0
 10
-43.280042
 20
153.515112
 30
0.0
 11
-44.742614
 21
164.131308
 31
0.0
  0
LINE
  8
0
 10
-38.280042
 20
153.515112
 30
0.0
 11
-36.81747
 21
164.131308
 31
0.0
  0
LINE
  8
0
 10
-38.280042
 20
207.040976
 30
0.0
 11
-36.81747
 21
217.657172
 31
0.0
  0
LINE
  8
0
 10
-43.280042
 20
207.040976
 30
0.0
 11
-44.742614
 21
217.657172
 31
0.0
  0
ARC
  8
0
 10
-40.780042
 20
218.203088
 30
0.0
 40
4.0
 50
352.155855
 51
187.844145
  0
ARC
  8
0
 10
-40.780042
 20
202.013112
 30
0.0
 40
6.0
 50
311.810315
 51
56.927144
  0
ARC
  8
0
 10
-40.780042
 20
202.013112
 30
0.0
 40
6.0
 50
123.072856
 51
228.189685
  0
LINE
  8
0
 10
-44.780042
 20
197.540976
 30
0.0
 11
-36.780042
 21
197.540976
 31
0.0
  0
LINE
  8
0
 10
-44.054272
 20
207.040976
 30
0.0
 11
-37.505812
 21
207.040976
 31
0.0
  0
ARC
  8
0
 10
76.663492
 20
63.373366
 30
0.0
 40
8.0
 50
125.659088
 51
223.432537
  0
LINE
  8
0
 10
71.999803
 20
69.873366
 30
0.0
 11
81.327182
 21
69.873366
 31
0.0
  0
LINE
  8
0
 10
70.854017
 20
57.873366
 30
0.0
 11
82.472967
 21
57.873366
 31
0.0
  0
ARC
  8
0
 10
76.663492
 20
63.373366
 30
0.0
 40
8.0
 50
316.567463
 51
54.340912
  0
ARC
  8
0
 10
76.663492
 20
113.684967
 30
0.0
 40
8.0
 50
316.567463
 51
54.340912
  0
LINE
  8
0
 10
70.854017
 20
108.184967
 30
0.0
 11
82.472967
 21
108.184967
 31
0.0
  0
LINE
  8
0
 10
71.999803
 20
120.184967
 30
0.0
 11
81.327182
 21
120.184967
 31
0.0
  0
ARC
  8
0
 10
76.663492
 20
113.684967
 30
0.0
 40
8.0
 50
125.659088
 51
223.432537
  0
ARC
  8
0
 10
76.663492
 20
168.03513
 30
0.0
 40
8.0
 50
125.659088
 51
223.432537
  0
LINE
  8
0
 10
71.999803
 20
174.53513
 30
0.0
 11
81.327182
 21
174.53513
 31
0.0
  0
LINE
  8
0
 10
70.854017
 20
162.53513
 30
0.0
 11
82.472967
 21
162.53513
 31
0.0
  0
ARC
  8
0
 10
76.663492
 20
168.03513
 30
0.0
 40
8.0
 50
316.567463
 51
54.340912
  0
ARC
  8
0
 10
76.663492
 20
188.632697
 30
0.0
 40
5.0
 50
354.643018
 51
185.356982
  0
LINE
  8
0
 10
72.963492
 20
174.53513
 30
0.0
 11
71.685331
 21
188.165893
 31
0.0
  0
LINE
  8
0
 10
80.363492
 20
174.53513
 30
0.0
 11
81.641654
 21
188.165893
 31
0.0
  0
LINE
  8
0
 10
80.363492
 20
240.191528
 30
0.0
 11
81.641654
 21
253.822291
 31
0.0
  0
LINE
  8
0
 10
72.963492
 20
240.191528
 30
0.0
 11
71.685331
 21
253.822291
 31
0.0
  0
ARC
  8
0
 10
76.663492
 20
254.289095
 30
0.0
 40
5.0
 50
354.643018
 51
185.356982
  0
ARC
  8
0
 10
76.663492
 20
233.691528
 30
0.0
 40
8.0
 50
316.567463
 51
54.340912
  0
LINE
  8
0
 10
70.854017
 20
228.191528
 30
0.0
 11
82.472967
 21
228.191528
 31
0.0
  0
LINE
  8
0
 10
71.999803
 20
240.191528
 30
0.0
 11
81.327182
 21
240.191528
 31
0.0
  0
ARC
  8
0
 10
76.663492
 20
233.691528
 30
0.0
 40
8.0
 50
125.659088
 51
223.432537
  0
LINE
  8
0
 10
213.136215
 20
80.071477
 30
0.0
 11
224.583485
 21
80.071477
 31
0.0
  0
ARC
  8
0
 10
218.85985
 20
71.871477
 30
0.0
 40
10.0
 50
124.915206
 51
222.843643
  0
LINE
  8
0
 10
211.527729
 20
65.071477
 30
0.0
 11
226.191971
 21
65.071477
 31
0.0
  0
ARC
  8
0
 10
218.85985
 20
71.871477
 30
0.0
 40
10.0
 50
317.156357
 51
55.084794
  0
ARC
  8
0
 10
218.85985
 20
135.327477
 30
0.0
 40
10.0
 50
317.156357
 51
55.084794
  0
LINE
  8
0
 10
211.527729
 20
128.527477
 30
0.0
 11
226.191971
 21
128.527477
 31
0.0
  0
ARC
  8
0
 10
218.85985
 20
135.327477
 30
0.0
 40
10.0
 50
124.915206
 51
222.843643
  0
LINE
  8
0
 10
213.136215
 20
143.527477
 30
0.0
 11
224.583485
 21
143.527477
 31
0.0
  0
LINE
  8
0
 10
213.136215
 20
202.183477
 30
0.0
 11
224.583485
 21
202.183477
 31
0.0
  0
ARC
  8
0
 10
218.85985
 20
193.983477
 30
0.0
 40
10.0
 50
124.915206
 51
222.843643
  0
LINE
  8
0
 10
211.527729
 20
187.183477
 30
0.0
 11
226.191971
 21
187.183477
 31
0.0
  0
ARC
  8
0
 10
218.85985
 20
193.983477
 30
0.0
 40
10.0
 50
317.156357
 51
55.084794
  0
ARC
  8
0
 10
218.85985
 20
219.121957
 30
0.0
 40
6.5
 50
354.503226
 51
185.496774
  0
LINE
  8
0
 10
213.95985
 20
202.183477
 30
0.0
 11
212.389739
 21
218.499324
 31
0.0
  0
LINE
  8
0
 10
223.75985
 20
202.183477
 30
0.0
 11
225.32996
 21
218.499324
 31
0.0
  0
LINE
  8
0
 10
223.75985
 20
277.459477
 30
0.0
 11
225.32996
 21
293.775324
 31
0.0
  0
LINE
  8
0
 10
213.95985
 20
277.459477
 30
0.0
 11
212.389739
 21
293.775324
 31
0.0
  0
ARC
  8
0
 10
218.85985
 20
294.397957
 30
0.0
 40
6.5
 50
354.503226
 51
185.496774
  0
ARC
  8
0
 10
218.85985
 20
269.259477
 30
0.0
 40
10.0
 50
317.156357
 51
55.084794
  0
LINE
  8
0
 10
211.527729
 20
262.459477
 30
0.0
 11
226.191971
 21
262.459477
 31
0.0
  0
ARC
  8
0
 10
218.85985
 20
269.259477
 30
0.0
 40
10.0
 50
124.915206
 51
222.843643
  0
LINE
  8
0
 10
213.136215
 20
277.459477
 30
0.0
 11
224.583485
 21
277.459477
 31
0.0
  0
ARC
  8
0
 10
406.639175
 20
77.071379
 30
0.0
 40
12.5
 50
122.824726
 51
219.767012
  0
LINE
  8
0
 10
413.415061
 20
87.575538
 30
0.0
 11
399.863288
 21
87.575538
 31
0.0
  0
LINE
  8
0
 10
416.247324
 20
69.075538
 30
0.0
 11
397.031025
 21
69.075538
 31
0.0
  0
ARC
  8
0
 10
406.639175
 20
77.071379
 30
0.0
 40
12.5
 50
320.232988
 51
57.175274
  0
ARC
  8
0
 10
406.639175
 20
145.699379
 30
0.0
 40
12.5
 50
320.232988
 51
57.175274
  0
LINE
  8
0
 10
416.247324
 20
137.703538
 30
0.0
 11
397.031025
 21
137.703538
 31
0.0
  0
LINE
  8
0
 10
413.415061
 20
156.203538
 30
0.0
 11
399.863288
 21
156.203538
 31
0.0
  0
ARC
  8
0
 10
406.639175
 20
145.699379
 30
0.0
 40
12.5
 50
122.824726
 51
219.767012
  0
ARC
  8
0
 10
406.639175
 20
219.012439
 30
0.0
 40
12.5
 50
122.824726
 51
219.767012
  0
LINE
  8
0
 10
413.415061
 20
229.516598
 30
0.0
 11
399.863288
 21
229.516598
 31
0.0
  0
LINE
  8
0
 10
416.247324
 20
211.016598
 30
0.0
 11
397.031025
 21
211.016598
 31
0.0
  0
ARC
  8
0
 10
406.639175
 20
219.012439
 30
0.0
 40
12.5
 50
320.232988
 51
57.175274
  0
ARC
  8
0
 10
406.639175
 20
250.478292
 30
0.0
 40
8.0
 50
352.840952
 51
187.159048
  0
LINE
  8
0
 10
401.209175
 20
229.516598
 30
0.0
 11
398.701542
 21
249.481299
 31
0.0
  0
LINE
  8
0
 10
412.069175
 20
229.516598
 30
0.0
 11
414.576807
 21
249.481299
 31
0.0
  0
LINE
  8
0
 10
412.069175
 20
323.680598
 30
0.0
 11
414.576807
 21
343.645299
 31
0.0
  0
LINE
  8
0
 10
401.209175
 20
323.680598
 30
0.0
 11
398.701542
 21
343.645299
 31
0.0
  0
ARC
  8
0
 10
406.639175
 20
344.642292
 30
0.0
 40
8.0
 50
352.840952
 51
187.159048
  0
ARC
  8
0
 10
406.639175
 20
313.176439
 30
0.0
 40
12.5
 50
320.232988
 51
57.175274
  0
LINE
  8
0
 10
416.247324
 20
305.180598
 30
0.0
 11
397.031025
 21
305.180598
 31
0.0
  0
LINE
  8
0
 10
413.415061
 20
323.680598
 30
0.0
 11
399.863288
 21
323.680598
 31
0.0
  0
ARC
  8
0
 10
406.639175
 20
313.176439
 30
0.0
 40
12.5
 50
122.824726
 51
219.767012
  0
ARC
  8
0
 10
652.719676
 20
90.610789
 30
0.0
 40
16.0
 50
122.437734
 51
220.997428
  0
LINE
  8
0
 10
661.3018
 20
104.114386
 30
0.0
 11
644.137552
 21
104.114386
 31
0.0
  0
LINE
  8
0
 10
664.7955
 20
80.114386
 30
0.0
 11
640.643851
 21
80.114386
 31
0.0
  0
ARC
  8
0
 10
652.719676
 20
90.610789
 30
0.0
 40
16.0
 50
319.002572
 51
57.562266
  0
ARC
  8
0
 10
652.719676
 20
174.866407
 30
0.0
 40
16.0
 50
319.002572
 51
57.562266
  0
LINE
  8
0
 10
664.7955
 20
164.370004
 30
0.0
 11
640.643851
 21
164.370004
 31
0.0
  0
LINE
  8
0
 10
661.3018
 20
188.370004
 30
0.0
 11
644.137552
 21
188.370004
 31
0.0
  0
ARC
  8
0
 10
652.719676
 20
174.866407
 30
0.0
 40
16.0
 50
122.437734
 51
220.997428
  0
ARC
  8
0
 10
652.719676
 20
264.024544
 30
0.0
 40
16.0
 50
122.437734
 51
220.997428
  0
LINE
  8
0
 10
661.3018
 20
277.528142
 30
0.0
 11
644.137552
 21
277.528142
 31
0.0
  0
LINE
  8
0
 10
664.7955
 20
253.528142
 30
0.0
 11
640.643851
 21
253.528142
 31
0.0
  0
ARC
  8
0
 10
652.719676
 20
264.024544
 30
0.0
 40
16.0
 50
319.002572
 51
57.562266
  0
ARC
  8
0
 10
652.719676
 20
303.356861
 30
0.0
 40
10.0
 50
354.136307
 51
185.863693
  0
LINE
  8
0
 10
645.319676
 20
277.528142
 30
0.0
 11
642.771998
 21
302.335239
 31
0.0
  0
LINE
  8
0
 10
660.119676
 20
277.528142
 30
0.0
 11
662.667353
 21
302.335239
 31
0.0
  0
LINE
  8
0
 10
660.119676
 20
385.272142
 30
0.0
 11
662.667353
 21
410.079239
 31
0.0
  0
LINE
  8
0
 10
645.319676
 20
385.272142
 30
0.0
 11
642.771998
 21
410.079239
 31
0.0
  0
ARC
  8
0
 10
652.719676
 20
411.100861
 30
0.0
 40
10.0
 50
354.136307
 51
185.863693
  0
ARC
  8
0
 10
652.719676
 20
371.768544
 30
0.0
 40
16.0
 50
319.002572
 51
57.562266
  0
LINE
  8
0
 10
664.7955
 20
361.272142
 30
0.0
 11
640.643851
 21
361.272142
 31
0.0
  0
LINE
  8
0
 10
661.3018
 20
385.272142
 30
0.0
 11
644.137552
 21
385.272142
 31
0.0
  0
ARC
  8
0
 10
652.719676
 20
371.768544
 30
0.0
 40
16.0
 50
122.437734
 51
220.997428
  0
CIRCLE
  8
0
 10
-40.780042
 20
15.861039
 30
0.0
 40
6.0
  0
CIRCLE
  8
0
 10
76.663492
 20
14.018697
 30
0.0
 40
8.0
  0
CIRCLE
  8
0
 10
218.85985
 20
10.995477
 30
0.0
 40
10.0
  0
CIRCLE
  8
0
 10
406.639175
 20
9.327477
 30
0.0
 40
12.0
  0
CIRCLE
  8
0
 10
652.719676
 20
9.379477
 30
0.0
 40
16.0
  0
ARC
  8
0
 10
724.80078
 20
6.539504
 30
0.0
 40
20.0
 50
29.504344
 51
330.495656
  0
ARC
  8
0
 10
872.30078
 20
6.539504
 30
0.0
 40
12.5
 50
268.361669
 51
91.638331
  0
LINE
  8
0
 10
744.004964
 20
15.375091
 30
0.0
 11
871.9434
 21
19.034394
 31
0.0
  0
LINE
  8
0
 10
744.004964
 20
-2.296084
 30
0.0
 11
871.9434
 21
-5.955386
 31
0.0
  0
ARC
  8
0
 10
743.947784
 20
17.374274
 30
0.0
 40
2.0
 50
209.504344
 51
271.638331
  0
ARC
  8
0
 10
743.947784
 20
-4.295266
 30
0.0
 40
2.0
 50
88.361669
 51
150.495656
  0
CIRCLE
  8
0
 10
937.796368
 20
6.539504
 30
0.0
 40
20.0
  0
ARC
  8
0
 10
743.947784
 20
108.693814
 30
0.0
 40
2.0
 50
88.361669
 51
150.495656
  0
ARC
  8
0
 10
743.947784
 20
130.363353
 30
0.0
 40
2.0
 50
209.504344
 51
271.638331
  0
LINE
  8
0
 10
744.004964
 20
110.692996
 30
0.0
 11
871.9434
 21
107.033693
 31
0.0
  0
LINE
  8
0
 10
744.004964
 20
128.364171
 30
0.0
 11
871.9434
 21
132.023474
 31
0.0
  0
ARC
  8
0
 10
872.30078
 20
119.528583
 30
0.0
 40
12.5
 50
268.361669
 51
91.638331
  0
ARC
  8
0
 10
724.80078
 20
119.528583
 30
0.0
 40
20.0
 50
29.504344
 51
55.588491
  0
LINE
  8
0
 10
710.044425
 20
106.028583
 30
0.0
 11
739.557134
 21
106.028583
 31
0.0
  0
LINE
  8
0
 10
713.498125
 20
136.028583
 30
0.0
 11
736.103434
 21
136.028583
 31
0.0
  0
LINE
  8
0
 10
714.80078
 20
106.028583
 30
0.0
 11
714.80078
 21
136.028583
 31
0.0
  0
ARC
  8
0
 10
724.80078
 20
119.528583
 30
0.0
 40
20.0
 50
317.54585
 51
330.495656
  0
ARC
  8
0
 10
724.80078
 20
119.528583
 30
0.0
 40
20.0
 50
124.411509
 51
222.45415
  0
ARC
  8
0
 10
937.796368
 20
119.528583
 30
0.0
 40
20.0
 50
124.411509
 51
222.45415
  0
LINE
  8
0
 10
926.493714
 20
136.028583
 30
0.0
 11
949.099023
 21
136.028583
 31
0.0
  0
LINE
  8
0
 10
923.040014
 20
106.028583
 30
0.0
 11
952.552723
 21
106.028583
 31
0.0
  0
ARC
  8
0
 10
937.796368
 20
119.528583
 30
0.0
 40
20.0
 50
317.54585
 51
55.588491
  0
LINE
  8
0
  6
CENTER
 10
724.80078
 20
101.19672
 30
0.0
 11
724.80078
 21
140.000492
 31
0.0
  0
ARC
  8
0
 10
743.947784
 20
59.047317
 30
0.0
 40
2.0
 50
88.361669
 51
150.495656
  0
ARC
  8
0
 10
743.947784
 20
80.716857
 30
0.0
 40
2.0
 50
209.504344
 51
271.638331
  0
LINE
  8
0
 10
744.004964
 20
61.0465
 30
0.0
 11
871.9434
 21
57.387197
 31
0.0
  0
LINE
  8
0
 10
744.004964
 20
78.717675
 30
0.0
 11
871.9434
 21
82.376977
 31
0.0
  0
ARC
  8
0
 10
872.30078
 20
69.882087
 30
0.0
 40
12.5
 50
268.361669
 51
91.638331
  0
ARC
  8
0
 10
724.80078
 20
69.882087
 30
0.0
 40
20.0
 50
29.504344
 51
330.495656
  0
INSERT
  8
0
  2
*X5
 10
0.0
 20
-30.952097
 30
0.0
  0
CIRCLE
  8
0
 10
724.80078
 20
69.882087
 30
0.0
 40
10.0
  0
CIRCLE
  8
0
 10
724.80078
 20
69.882087
 30
0.0
 40
11.302655
  0
CIRCLE
  8
0
 10
724.80078
 20
181.621026
 30
0.0
 40
11.302655
  0
CIRCLE
  8
0
 10
724.80078
 20
181.621026
 30
0.0
 40
10.0
  0
ARC
  8
0
 10
724.80078
 20
181.621026
 30
0.0
 40
20.0
 50
29.504344
 51
330.495656
  0
ARC
  8
0
 10
872.30078
 20
181.621026
 30
0.0
 40
12.5
 50
268.361669
 51
91.638331
  0
LINE
  8
0
 10
744.004964
 20
190.456613
 30
0.0
 11
871.9434
 21
194.115916
 31
0.0
  0
LINE
  8
0
 10
744.004964
 20
172.785438
 30
0.0
 11
871.9434
 21
169.126135
 31
0.0
  0
ARC
  8
0
 10
743.947784
 20
192.455795
 30
0.0
 40
2.0
 50
209.504344
 51
271.638331
  0
ARC
  8
0
 10
743.947784
 20
170.786256
 30
0.0
 40
2.0
 50
88.361669
 51
150.495656
  0
LINE
  8
0
  6
CENTER
 10
724.80078
 20
212.935658
 30
0.0
 11
724.80078
 21
251.73943
 31
0.0
  0
ARC
  8
0
 10
937.796368
 20
231.267522
 30
0.0
 40
20.0
 50
317.54585
 51
55.588491
  0
LINE
  8
0
 10
923.040014
 20
217.767522
 30
0.0
 11
952.552723
 21
217.767522
 31
0.0
  0
LINE
  8
0
 10
926.493714
 20
247.767522
 30
0.0
 11
949.099023
 21
247.767522
 31
0.0
  0
ARC
  8
0
 10
937.796368
 20
231.267522
 30
0.0
 40
20.0
 50
124.411509
 51
222.45415
  0
ARC
  8
0
 10
724.80078
 20
231.267522
 30
0.0
 40
20.0
 50
124.411509
 51
222.45415
  0
ARC
  8
0
 10
724.80078
 20
231.267522
 30
0.0
 40
20.0
 50
317.54585
 51
330.495656
  0
LINE
  8
0
 10
714.80078
 20
217.767522
 30
0.0
 11
714.80078
 21
247.767522
 31
0.0
  0
LINE
  8
0
 10
713.498125
 20
247.767522
 30
0.0
 11
736.103434
 21
247.767522
 31
0.0
  0
LINE
  8
0
 10
710.044425
 20
217.767522
 30
0.0
 11
739.557134
 21
217.767522
 31
0.0
  0
ARC
  8
0
 10
724.80078
 20
231.267522
 30
0.0
 40
20.0
 50
29.504344
 51
55.588491
  0
ARC
  8
0
 10
872.30078
 20
231.267522
 30
0.0
 40
12.5
 50
268.361669
 51
91.638331
  0
LINE
  8
0
 10
744.004964
 20
240.103109
 30
0.0
 11
871.9434
 21
243.762412
 31
0.0
  0
LINE
  8
0
 10
744.004964
 20
222.431934
 30
0.0
 11
871.9434
 21
218.772632
 31
0.0
  0
ARC
  8
0
 10
743.947784
 20
242.102292
 30
0.0
 40
2.0
 50
209.504344
 51
271.638331
  0
ARC
  8
0
 10
743.947784
 20
220.432752
 30
0.0
 40
2.0
 50
88.361669
 51
150.495656
  0
LINE
  8
0
 10
716.00078
 20
218.967522
 30
0.0
 11
716.00078
 21
246.567522
 31
0.0
  0
LINE
  8
0
 10
714.80078
 20
217.767522
 30
0.0
 11
716.00078
 21
218.967522
 31
0.0
  0
LINE
  8
0
 10
716.00078
 20
218.967522
 30
0.0
 11
724.80078
 21
218.967522
 31
0.0
  0
LINE
  8
0
 10
716.00078
 20
246.567522
 30
0.0
 11
724.80078
 21
246.567522
 31
0.0
  0
LINE
  8
0
 10
714.80078
 20
247.767522
 30
0.0
 11
716.00078
 21
246.567522
 31
0.0
  0
CIRCLE
  8
0
 10
724.80078
 20
296.400479
 30
0.0
 40
11.302655
  0
CIRCLE
  8
0
 10
724.80078
 20
296.400479
 30
0.0
 40
10.0
  0
INSERT
  8
0
  2
*X5
 10
0.0
 20
195.566295
 30
0.0
  0
ARC
  8
0
 10
724.80078
 20
296.400479
 30
0.0
 40
20.0
 50
29.504344
 51
330.495656
  0
ARC
  8
0
 10
863.405441
 20
296.400479
 30
0.0
 40
12.5
 50
268.361669
 51
91.638331
  0
LINE
  8
0
 10
744.004964
 20
305.236067
 30
0.0
 11
863.048062
 21
308.895369
 31
0.0
  0
LINE
  8
0
 10
744.004964
 20
287.564892
 30
0.0
 11
863.048062
 21
283.905589
 31
0.0
  0
ARC
  8
0
 10
743.947784
 20
307.235249
 30
0.0
 40
2.0
 50
209.504344
 51
271.638331
  0
ARC
  8
0
 10
743.947784
 20
285.565709
 30
0.0
 40
2.0
 50
88.361669
 51
150.495656
  0
LINE
  8
0
  6
CENTER
 10
724.80078
 20
327.715112
 30
0.0
 11
724.80078
 21
366.518884
 31
0.0
  0
ARC
  8
0
 10
937.796368
 20
346.046975
 30
0.0
 40
20.0
 50
317.54585
 51
55.588491
  0
LINE
  8
0
 10
923.040014
 20
332.546975
 30
0.0
 11
952.552723
 21
332.546975
 31
0.0
  0
LINE
  8
0
 10
926.493714
 20
362.546975
 30
0.0
 11
949.099023
 21
362.546975
 31
0.0
  0
ARC
  8
0
 10
937.796368
 20
346.046975
 30
0.0
 40
20.0
 50
124.411509
 51
222.45415
  0
ARC
  8
0
 10
724.80078
 20
346.046975
 30
0.0
 40
20.0
 50
124.411509
 51
222.45415
  0
ARC
  8
0
 10
724.80078
 20
346.046975
 30
0.0
 40
20.0
 50
317.54585
 51
350.495656
  0
LINE
  8
0
 10
714.80078
 20
332.546975
 30
0.0
 11
714.80078
 21
362.546975
 31
0.0
  0
LINE
  8
0
 10
713.498125
 20
362.546975
 30
0.0
 11
736.103434
 21
362.546975
 31
0.0
  0
LINE
  8
0
 10
710.044425
 20
332.546975
 30
0.0
 11
739.557134
 21
332.546975
 31
0.0
  0
ARC
  8
0
 10
724.80078
 20
346.046975
 30
0.0
 40
20.0
 50
49.504344
 51
55.588491
  0
ARC
  8
0
 10
863.405441
 20
396.494947
 30
0.0
 40
12.5
 50
288.361669
 51
111.638331
  0
LINE
  8
0
 10
739.824861
 20
360.91793
 30
0.0
 11
858.79611
 21
408.114072
 31
0.0
  0
LINE
  8
0
 10
745.868759
 20
344.312457
 30
0.0
 11
867.343118
 21
384.631359
 31
0.0
  0
ARC
  8
0
 10
739.087368
 20
362.77699
 30
0.0
 40
2.0
 50
229.504344
 51
291.638331
  0
ARC
  8
0
 10
746.498788
 20
342.414283
 30
0.0
 40
2.0
 50
108.361669
 51
170.495656
  0
CIRCLE
  8
0
 10
724.80078
 20
181.621026
 30
0.0
 40
8.8
  0
ARC
  8
0
 10
937.796368
 20
396.494947
 30
0.0
 40
12.5
 50
353.738083
 51
186.261928
  0
LINE
  8
0
 10
928.946368
 20
362.546975
 30
0.0
 11
925.370946
 21
395.131536
 31
0.0
  0
LINE
  8
0
 10
946.646368
 20
362.546975
 30
0.0
 11
950.22179
 21
395.131536
 31
0.0
  0
LINE
  8
0
 10
946.646368
 20
507.731582
 30
0.0
 11
950.22179
 21
540.316143
 31
0.0
  0
LINE
  8
0
 10
928.946368
 20
507.731582
 30
0.0
 11
925.370946
 21
540.316143
 31
0.0
  0
ARC
  8
0
 10
937.796368
 20
541.679553
 30
0.0
 40
12.5
 50
353.738083
 51
186.261928
  0
ARC
  8
0
 10
746.498788
 20
487.59889
 30
0.0
 40
2.0
 50
108.361669
 51
170.495656
  0
ARC
  8
0
 10
739.087368
 20
507.961597
 30
0.0
 40
2.0
 50
229.504344
 51
291.638331
  0
LINE
  8
0
 10
745.868759
 20
489.497064
 30
0.0
 11
867.343118
 21
529.815966
 31
0.0
  0
LINE
  8
0
 10
739.824861
 20
506.102537
 30
0.0
 11
858.79611
 21
553.298679
 31
0.0
  0
ARC
  8
0
 10
863.405441
 20
541.679553
 30
0.0
 40
12.5
 50
288.361669
 51
111.638331
  0
ARC
  8
0
 10
724.80078
 20
491.231582
 30
0.0
 40
20.0
 50
49.504344
 51
55.588491
  0
LINE
  8
0
 10
710.044425
 20
477.731582
 30
0.0
 11
739.557134
 21
477.731582
 31
0.0
  0
LINE
  8
0
 10
713.498125
 20
507.731582
 30
0.0
 11
736.103434
 21
507.731582
 31
0.0
  0
LINE
  8
0
 10
714.80078
 20
477.731582
 30
0.0
 11
714.80078
 21
507.731582
 31
0.0
  0
ARC
  8
0
 10
724.80078
 20
491.231582
 30
0.0
 40
20.0
 50
317.54585
 51
350.495656
  0
ARC
  8
0
 10
724.80078
 20
491.231582
 30
0.0
 40
20.0
 50
124.411509
 51
222.45415
  0
ARC
  8
0
 10
937.796368
 20
491.231582
 30
0.0
 40
20.0
 50
124.411509
 51
222.45415
  0
LINE
  8
0
 10
926.493714
 20
507.731582
 30
0.0
 11
949.099023
 21
507.731582
 31
0.0
  0
LINE
  8
0
 10
923.040014
 20
477.731582
 30
0.0
 11
952.552723
 21
477.731582
 31
0.0
  0
ARC
  8
0
 10
937.796368
 20
491.231582
 30
0.0
 40
20.0
 50
317.54585
 51
55.588491
  0
LINE
  8
0
  6
CENTER
 10
724.80078
 20
472.899719
 30
0.0
 11
724.80078
 21
511.703491
 31
0.0
  0
ARC
  8
0
 10
743.947784
 20
430.750316
 30
0.0
 40
2.0
 50
88.361669
 51
150.495656
  0
ARC
  8
0
 10
743.947784
 20
452.419856
 30
0.0
 40
2.0
 50
209.504344
 51
271.638331
  0
LINE
  8
0
 10
744.004964
 20
432.749499
 30
0.0
 11
863.048062
 21
429.090196
 31
0.0
  0
LINE
  8
0
 10
744.004964
 20
450.420674
 30
0.0
 11
863.048062
 21
454.079976
 31
0.0
  0
ARC
  8
0
 10
863.405441
 20
441.585086
 30
0.0
 40
12.5
 50
268.361669
 51
91.638331
  0
ARC
  8
0
 10
724.80078
 20
441.585086
 30
0.0
 40
20.0
 50
29.504344
 51
330.495656
  0
CIRCLE
  8
0
 10
724.80078
 20
441.585086
 30
0.0
 40
10.0
  0
CIRCLE
  8
0
 10
724.80078
 20
441.585086
 30
0.0
 40
11.302655
  0
CIRCLE
  8
0
 10
724.80078
 20
441.585086
 30
0.0
 40
8.8
  0
LINE
  8
0
 10
716.00078
 20
478.931582
 30
0.0
 11
724.80078
 21
478.931582
 31
0.0
  0
LINE
  8
0
 10
714.80078
 20
477.731582
 30
0.0
 11
716.00078
 21
478.931582
 31
0.0
  0
LINE
  8
0
 10
716.00078
 20
478.931582
 30
0.0
 11
716.00078
 21
506.531582
 31
0.0
  0
LINE
  8
0
 10
714.80078
 20
507.731582
 30
0.0
 11
716.00078
 21
506.531582
 31
0.0
  0
LINE
  8
0
 10
716.00078
 20
506.531582
 30
0.0
 11
724.80078
 21
506.531582
 31
0.0
  0
ARC
  8
0
 10
1034.968702
 20
5.311153
 30
0.0
 40
25.0
 50
29.513127
 51
330.486873
  0
ARC
  8
0
 10
1218.968702
 20
5.311153
 30
0.0
 40
16.0
 50
268.224482
 51
91.775518
  0
LINE
  8
0
 10
1058.977838
 20
16.359484
 30
0.0
 11
1218.472976
 21
21.303471
 31
0.0
  0
LINE
  8
0
 10
1058.977838
 20
-5.737179
 30
0.0
 11
1218.472976
 21
-10.681166
 31
0.0
  0
ARC
  8
0
 10
1058.900381
 20
18.858284
 30
0.0
 40
2.5
 50
209.513127
 51
271.775471
  0
ARC
  8
0
 10
1058.900381
 20
-8.235979
 30
0.0
 40
2.5
 50
88.224529
 51
150.486873
  0
CIRCLE
  8
0
 10
1315.825429
 20
5.311153
 30
0.0
 40
25.0
  0
ARC
  8
0
 10
1058.900381
 20
71.393413
 30
0.0
 40
2.5
 50
88.224529
 51
150.486873
  0
ARC
  8
0
 10
1058.900381
 20
98.487675
 30
0.0
 40
2.5
 50
209.513127
 51
271.775471
  0
LINE
  8
0
 10
1058.977838
 20
73.892212
 30
0.0
 11
1218.472976
 21
68.948225
 31
0.0
  0
LINE
  8
0
 10
1058.977838
 20
95.988875
 30
0.0
 11
1218.472976
 21
100.932862
 31
0.0
  0
ARC
  8
0
 10
1218.968702
 20
84.940544
 30
0.0
 40
16.0
 50
268.224482
 51
91.775518
  0
ARC
  8
0
 10
1034.968702
 20
84.940544
 30
0.0
 40
25.0
 50
29.513127
 51
330.486873
  0
ARC
  8
0
 10
1034.968702
 20
152.662736
 30
0.0
 40
25.0
 50
29.513127
 51
58.870387
  0
ARC
  8
0
 10
1218.968702
 20
152.662736
 30
0.0
 40
16.0
 50
268.224482
 51
91.775518
  0
LINE
  8
0
 10
1058.977838
 20
163.711067
 30
0.0
 11
1218.472976
 21
168.655055
 31
0.0
  0
LINE
  8
0
 10
1058.977838
 20
141.614405
 30
0.0
 11
1218.472976
 21
136.670417
 31
0.0
  0
ARC
  8
0
 10
1058.900381
 20
166.209867
 30
0.0
 40
2.5
 50
209.513127
 51
271.775471
  0
ARC
  8
0
 10
1058.900381
 20
139.115605
 30
0.0
 40
2.5
 50
88.224529
 51
150.486873
  0
LINE
  8
0
 10
1018.264212
 20
134.062736
 30
0.0
 11
1051.673192
 21
134.062736
 31
0.0
  0
LINE
  8
0
 10
1022.044306
 20
174.062736
 30
0.0
 11
1047.893098
 21
174.062736
 31
0.0
  0
LINE
  8
0
 10
1022.968702
 20
134.062736
 30
0.0
 11
1022.968702
 21
174.062736
 31
0.0
  0
ARC
  8
0
 10
1034.968702
 20
152.662736
 30
0.0
 40
25.0
 50
121.129613
 51
228.073278
  0
ARC
  8
0
 10
1034.968702
 20
152.662736
 30
0.0
 40
25.0
 50
311.926722
 51
330.486873
  0
ARC
  8
0
 10
1315.825429
 20
152.662736
 30
0.0
 40
25.0
 50
121.129613
 51
228.073278
  0
LINE
  8
0
 10
1302.901034
 20
174.062736
 30
0.0
 11
1328.749825
 21
174.062736
 31
0.0
  0
LINE
  8
0
 10
1299.120939
 20
134.062736
 30
0.0
 11
1332.52992
 21
134.062736
 31
0.0
  0
ARC
  8
0
 10
1315.825429
 20
152.662736
 30
0.0
 40
25.0
 50
311.926722
 51
58.870387
  0
INSERT
  8
0
  2
*X6
 10
0.0
 20
-46.883248
 30
0.0
  0
CIRCLE
  8
0
 10
1034.968702
 20
84.940544
 30
0.0
 40
12.0
  0
CIRCLE
  8
0
 10
1034.968702
 20
84.940544
 30
0.0
 40
12.924396
  0
LINE
  8
0
  6
CENTER
 10
1034.968702
 20
130.093777
 30
0.0
 11
1034.968702
 21
177.999458
 31
0.0
  0
LINE
  8
0
  6
CENTER
 10
1034.968702
 20
275.052619
 30
0.0
 11
1034.968702
 21
322.958301
 31
0.0
  0
CIRCLE
  8
0
 10
1034.968702
 20
229.899386
 30
0.0
 40
12.924396
  0
CIRCLE
  8
0
 10
1034.968702
 20
229.899386
 30
0.0
 40
12.0
  0
ARC
  8
0
 10
1315.825429
 20
297.621579
 30
0.0
 40
25.0
 50
311.926722
 51
58.870387
  0
LINE
  8
0
 10
1299.120939
 20
279.021579
 30
0.0
 11
1332.52992
 21
279.021579
 31
0.0
  0
LINE
  8
0
 10
1302.901034
 20
319.021579
 30
0.0
 11
1328.749825
 21
319.021579
 31
0.0
  0
ARC
  8
0
 10
1315.825429
 20
297.621579
 30
0.0
 40
25.0
 50
121.129613
 51
228.073278
  0
ARC
  8
0
 10
1034.968702
 20
297.621579
 30
0.0
 40
25.0
 50
311.926722
 51
330.486873
  0
ARC
  8
0
 10
1034.968702
 20
297.621579
 30
0.0
 40
25.0
 50
121.129613
 51
228.073278
  0
LINE
  8
0
 10
1022.968702
 20
279.021579
 30
0.0
 11
1022.968702
 21
319.021579
 31
0.0
  0
LINE
  8
0
 10
1022.044306
 20
319.021579
 30
0.0
 11
1047.893098
 21
319.021579
 31
0.0
  0
LINE
  8
0
 10
1018.264212
 20
279.021579
 30
0.0
 11
1051.673192
 21
279.021579
 31
0.0
  0
ARC
  8
0
 10
1058.900381
 20
284.074448
 30
0.0
 40
2.5
 50
88.224529
 51
150.486873
  0
ARC
  8
0
 10
1058.900381
 20
311.16871
 30
0.0
 40
2.5
 50
209.513127
 51
271.775471
  0
LINE
  8
0
 10
1058.977838
 20
286.573247
 30
0.0
 11
1218.472976
 21
281.62926
 31
0.0
  0
LINE
  8
0
 10
1058.977838
 20
308.66991
 30
0.0
 11
1218.472976
 21
313.613897
 31
0.0
  0
ARC
  8
0
 10
1218.968702
 20
297.621579
 30
0.0
 40
16.0
 50
268.224482
 51
91.775518
  0
ARC
  8
0
 10
1034.968702
 20
297.621579
 30
0.0
 40
25.0
 50
29.513127
 51
58.870387
  0
ARC
  8
0
 10
1034.968702
 20
229.899386
 30
0.0
 40
25.0
 50
29.513127
 51
330.486873
  0
ARC
  8
0
 10
1218.968702
 20
229.899386
 30
0.0
 40
16.0
 50
268.224482
 51
91.775518
  0
LINE
  8
0
 10
1058.977838
 20
240.947718
 30
0.0
 11
1218.472976
 21
245.891705
 31
0.0
  0
LINE
  8
0
 10
1058.977838
 20
218.851055
 30
0.0
 11
1218.472976
 21
213.907068
 31
0.0
  0
ARC
  8
0
 10
1058.900381
 20
243.446518
 30
0.0
 40
2.5
 50
209.513127
 51
271.775471
  0
ARC
  8
0
 10
1058.900381
 20
216.352255
 30
0.0
 40
2.5
 50
88.224529
 51
150.486873
  0
LINE
  8
0
 10
1024.468702
 20
280.521579
 30
0.0
 11
1024.468702
 21
317.521579
 31
0.0
  0
LINE
  8
0
 10
1022.968702
 20
279.021579
 30
0.0
 11
1024.468702
 21
280.521579
 31
0.0
  0
LINE
  8
0
 10
1024.468702
 20
280.521579
 30
0.0
 11
1034.968702
 21
280.521579
 31
0.0
  0
LINE
  8
0
 10
1022.968702
 20
319.021579
 30
0.0
 11
1024.468702
 21
317.521579
 31
0.0
  0
LINE
  8
0
 10
1024.468702
 20
317.521579
 30
0.0
 11
1034.968702
 21
317.521579
 31
0.0
  0
CIRCLE
  8
0
 10
1034.968702
 20
229.899386
 30
0.0
 40
10.5
  0
LINE
  8
0
  6
CENTER
 10
1034.968702
 20
417.925723
 30
0.0
 11
1034.968702
 21
465.831405
 31
0.0
  0
CIRCLE
  8
0
 10
1034.968702
 20
372.77249
 30
0.0
 40
12.924396
  0
CIRCLE
  8
0
 10
1034.968702
 20
372.77249
 30
0.0
 40
12.0
  0
INSERT
  8
0
  2
*X6
 10
0.0
 20
240.948699
 30
0.0
  0
ARC
  8
0
 10
1315.825429
 20
440.494683
 30
0.0
 40
25.0
 50
311.926722
 51
58.870387
  0
LINE
  8
0
 10
1299.120939
 20
421.894683
 30
0.0
 11
1332.52992
 21
421.894683
 31
0.0
  0
LINE
  8
0
 10
1302.901034
 20
461.894683
 30
0.0
 11
1328.749825
 21
461.894683
 31
0.0
  0
ARC
  8
0
 10
1315.825429
 20
440.494683
 30
0.0
 40
25.0
 50
121.129613
 51
228.073278
  0
ARC
  8
0
 10
1034.968702
 20
440.494683
 30
0.0
 40
25.0
 50
311.926722
 51
350.48687
  0
ARC
  8
0
 10
1034.968702
 20
440.494683
 30
0.0
 40
25.0
 50
121.129613
 51
228.073278
  0
LINE
  8
0
 10
1022.968702
 20
421.894683
 30
0.0
 11
1022.968702
 21
461.894683
 31
0.0
  0
LINE
  8
0
 10
1022.044306
 20
461.894683
 30
0.0
 11
1047.893098
 21
461.894683
 31
0.0
  0
LINE
  8
0
 10
1018.264212
 20
421.894683
 30
0.0
 11
1051.673192
 21
421.894683
 31
0.0
  0
ARC
  8
0
 10
1062.090515
 20
435.94966
 30
0.0
 40
2.5
 50
108.224529
 51
170.486873
  0
ARC
  8
0
 10
1052.823732
 20
461.409938
 30
0.0
 40
2.5
 50
229.513127
 51
291.775471
  0
LINE
  8
0
 10
1061.308661
 20
438.324255
 30
0.0
 11
1212.87601
 21
488.228977
 31
0.0
  0
LINE
  8
0
 10
1053.751158
 20
459.088326
 30
0.0
 11
1201.936619
 21
518.284705
 31
0.0
  0
ARC
  8
0
 10
1207.872144
 20
503.426389
 30
0.0
 40
16.0
 50
288.224482
 51
111.775518
  0
ARC
  8
0
 10
1034.968702
 20
440.494683
 30
0.0
 40
25.0
 50
49.513123
 51
58.870387
  0
ARC
  8
0
 10
1034.968702
 20
372.77249
 30
0.0
 40
25.0
 50
29.513127
 51
330.486873
  0
ARC
  8
0
 10
1207.872144
 20
372.77249
 30
0.0
 40
16.0
 50
268.224482
 51
91.775518
  0
LINE
  8
0
 10
1058.977838
 20
383.820822
 30
0.0
 11
1207.376419
 21
388.764809
 31
0.0
  0
LINE
  8
0
 10
1058.977838
 20
361.724159
 30
0.0
 11
1207.376419
 21
356.780172
 31
0.0
  0
ARC
  8
0
 10
1058.900381
 20
386.319621
 30
0.0
 40
2.5
 50
209.513127
 51
271.775471
  0
ARC
  8
0
 10
1058.900381
 20
359.225359
 30
0.0
 40
2.5
 50
88.224529
 51
150.486873
  0
ARC
  8
0
 10
1315.825429
 20
503.426389
 30
0.0
 40
16.0
 50
352.970442
 51
187.029552
  0
LINE
  8
0
 10
1304.825429
 20
461.894683
 30
0.0
 11
1299.945698
 21
501.468296
 31
0.0
  0
LINE
  8
0
 10
1326.825429
 20
461.894683
 30
0.0
 11
1331.705161
 21
501.468296
 31
0.0
  0
LINE
  8
0
 10
1326.825429
 20
651.811118
 30
0.0
 11
1331.705161
 21
691.384731
 31
0.0
  0
LINE
  8
0
 10
1304.825429
 20
651.811118
 30
0.0
 11
1299.945698
 21
691.384731
 31
0.0
  0
ARC
  8
0
 10
1315.825429
 20
693.342824
 30
0.0
 40
16.0
 50
352.970442
 51
187.029552
  0
ARC
  8
0
 10
1058.900381
 20
549.141794
 30
0.0
 40
2.5
 50
88.224529
 51
150.486873
  0
ARC
  8
0
 10
1058.900381
 20
576.236057
 30
0.0
 40
2.5
 50
209.513127
 51
271.775471
  0
LINE
  8
0
 10
1058.977838
 20
551.640594
 30
0.0
 11
1207.376419
 21
546.696607
 31
0.0
  0
LINE
  8
0
 10
1058.977838
 20
573.737257
 30
0.0
 11
1207.376419
 21
578.681244
 31
0.0
  0
ARC
  8
0
 10
1207.872144
 20
562.688926
 30
0.0
 40
16.0
 50
268.224482
 51
91.775518
  0
ARC
  8
0
 10
1034.968702
 20
562.688926
 30
0.0
 40
25.0
 50
29.513127
 51
330.486873
  0
ARC
  8
0
 10
1034.968702
 20
630.411118
 30
0.0
 40
25.0
 50
49.513123
 51
58.870387
  0
ARC
  8
0
 10
1207.872144
 20
693.342824
 30
0.0
 40
16.0
 50
288.224482
 51
111.775518
  0
LINE
  8
0
 10
1053.751158
 20
649.004762
 30
0.0
 11
1201.936619
 21
708.20114
 31
0.0
  0
LINE
  8
0
 10
1061.308661
 20
628.240691
 30
0.0
 11
1212.87601
 21
678.145412
 31
0.0
  0
ARC
  8
0
 10
1052.823732
 20
651.326373
 30
0.0
 40
2.5
 50
229.513127
 51
291.775471
  0
ARC
  8
0
 10
1062.090515
 20
625.866095
 30
0.0
 40
2.5
 50
108.224529
 51
170.486873
  0
LINE
  8
0
 10
1018.264212
 20
611.811118
 30
0.0
 11
1051.673192
 21
611.811118
 31
0.0
  0
LINE
  8
0
 10
1022.044306
 20
651.811118
 30
0.0
 11
1047.893098
 21
651.811118
 31
0.0
  0
LINE
  8
0
 10
1022.968702
 20
611.811118
 30
0.0
 11
1022.968702
 21
651.811118
 31
0.0
  0
ARC
  8
0
 10
1034.968702
 20
630.411118
 30
0.0
 40
25.0
 50
121.129613
 51
228.073278
  0
ARC
  8
0
 10
1034.968702
 20
630.411118
 30
0.0
 40
25.0
 50
311.926722
 51
350.48687
  0
ARC
  8
0
 10
1315.825429
 20
630.411118
 30
0.0
 40
25.0
 50
121.129613
 51
228.073278
  0
LINE
  8
0
 10
1302.901034
 20
651.811118
 30
0.0
 11
1328.749825
 21
651.811118
 31
0.0
  0
LINE
  8
0
 10
1299.120939
 20
611.811118
 30
0.0
 11
1332.52992
 21
611.811118
 31
0.0
  0
ARC
  8
0
 10
1315.825429
 20
630.411118
 30
0.0
 40
25.0
 50
311.926722
 51
58.870387
  0
CIRCLE
  8
0
 10
1034.968702
 20
562.688926
 30
0.0
 40
12.0
  0
CIRCLE
  8
0
 10
1034.968702
 20
562.688926
 30
0.0
 40
12.924396
  0
LINE
  8
0
  6
CENTER
 10
1034.968702
 20
607.842158
 30
0.0
 11
1034.968702
 21
655.74784
 31
0.0
  0
CIRCLE
  8
0
 10
1034.968702
 20
562.688926
 30
0.0
 40
10.5
  0
LINE
  8
0
 10
1024.468702
 20
613.311118
 30
0.0
 11
1034.968702
 21
613.311118
 31
0.0
  0
LINE
  8
0
 10
1022.968702
 20
611.811118
 30
0.0
 11
1024.468702
 21
613.311118
 31
0.0
  0
LINE
  8
0
 10
1024.468702
 20
650.311118
 30
0.0
 11
1034.968702
 21
650.311118
 31
0.0
  0
LINE
  8
0
 10
1022.968702
 20
651.811118
 30
0.0
 11
1024.468702
 21
650.311118
 31
0.0
  0
LINE
  8
0
 10
1024.468702
 20
613.311118
 30
0.0
 11
1024.468702
 21
650.311118
 31
0.0
  0
LINE
  8
0
 10
129.848906
 20
268.113315
 30
0.0
 11
190.0047
 21
288.233621
 31
0.0
  0
LINE
  8
0
 10
129.868821
 20
268.119977
 30
0.0
 11
129.877072
 21
268.122736
 31
0.0
  0
LINE
  8
0
 10
129.858389
 20
268.116487
 30
0.0
 11
129.865976
 21
268.119025
 31
0.0
  0
INSERT
  8
0
  2
*X7
 10
0.0
 20
0.0
 30
0.0
1001
ACAD
1000
HATCH
1002
{
1070
    16
1000
ANSI31
1040
10.0
1040
0.0
1002
}
  0
INSERT
  8
0
  2
*X8
 10
0.0
 20
0.0
 30
0.0
1001
ACAD
1000
HATCH
1002
{
1070
    16
1000
ANSI31
1040
10.0
1040
0.0
1002
}
  0
INSERT
  8
0
  2
*X9
 10
0.0
 20
0.0
 30
0.0
1001
ACAD
1000
HATCH
1002
{
1070
    16
1000
ANSI31
1040
10.0
1040
0.0
1002
}
  0
INSERT
  8
0
  2
*X10
 10
0.0
 20
0.0
 30
0.0
1001
ACAD
1000
HATCH
1002
{
1070
    16
1000
ANSI31
1040
10.0
1040
0.0
1002
}
  0
INSERT
  8
0
  2
*X11
 10
0.0
 20
0.0
 30
0.0
1001
ACAD
1000
HATCH
1002
{
1070
    16
1000
ANSI31
1040
15.0
1040
0.0
1002
}
  0
INSERT
  8
0
  2
*X12
 10
0.0
 20
0.0
 30
0.0
1001
ACAD
1000
HATCH
1002
{
1070
    16
1000
ANSI31
1040
15.0
1040
0.0
1002
}
  0
INSERT
  8
0
  2
*X13
 10
0.0
 20
0.0
 30
0.0
1001
ACAD
1000
HATCH
1002
{
1070
    16
1000
ANSI31
1040
15.0
1040
0.0
1002
}
  0
INSERT
  8
0
  2
*X14
 10
0.0
 20
0.0
 30
0.0
1001
ACAD
1000
HATCH
1002
{
1070
    16
1000
ANSI31
1040
15.0
1040
0.0
1002
}
  0
INSERT
  8
0
  2
*X15
 10
0.0
 20
0.0
 30
0.0
1001
ACAD
1000
HATCH
1002
{
1070
    16
1000
ANSI31
1040
20.0
1040
0.0
1002
}
  0
INSERT
  8
0
  2
*X16
 10
0.0
 20
0.0
 30
0.0
1001
ACAD
1000
HATCH
1002
{
1070
    16
1000
ANSI31
1040
20.0
1040
0.0
1002
}
  0
INSERT
  8
0
  2
*X17
 10
0.0
 20
0.0
 30
0.0
1001
ACAD
1000
HATCH
1002
{
1070
    16
1000
ANSI31
1040
25.0
1040
0.0
1002
}
  0
INSERT
  8
0
  2
*X18
 10
0.0
 20
0.0
 30
0.0
1001
ACAD
1000
HATCH
1002
{
1070
    16
1000
ANSI31
1040
25.0
1040
0.0
1002
}
  0
INSERT
  8
0
  2
*X19
 10
0.0
 20
0.0
 30
0.0
1001
ACAD
1000
HATCH
1002
{
1070
    16
1000
ANSI31
1040
25.0
1040
0.0
1002
}
  0
INSERT
  8
0
  2
*X20
 10
0.0
 20
0.0
 30
0.0
1001
ACAD
1000
HATCH
1002
{
1070
    16
1000
ANSI31
1040
25.0
1040
0.0
1002
}
  0
ENDSEC
  0
EOF
