  0
SECTION
  2
HEADER
  9
$ACADVER
  1
AC1009
  9
$INSBASE
 10
0.0
 20
0.0
 30
0.0
  9
$EXTMIN
 10
-10.0
 20
-25.0
 30
0.0
  9
$EXTMAX
 10
289.0
 20
276.0
 30
0.0
  9
$LIMMIN
 10
0.0
 20
0.0
  9
$LIMMAX
 10
420.0
 20
297.0
  9
$ORTHOMODE
 70
     1
  9
$REGENMODE
 70
     1
  9
$FILLMODE
 70
     1
  9
$QTEXTMODE
 70
     0
  9
$MIRRTEXT
 70
     1
  9
$DRAGMODE
 70
     2
  9
$LTSCALE
 40
1.0
  9
$OSMODE
 70
    32
  9
$ATTMODE
 70
     1
  9
$TEXTSIZE
 40
3.5
  9
$TRACEWID
 40
1.0
  9
$TEXTSTYLE
  7
STANDARD
  9
$CLAYER
  8
0
  9
$CELTYPE
  6
BYLAYER
  9
$CECOLOR
 62
   256
  9
$DIMSCALE
 40
1.0
  9
$DIMASZ
 40
2.5
  9
$DIMEXO
 40
0.625
  9
$DIMDLI
 40
3.75
  9
$DIMRND
 40
0.0
  9
$DIMDLE
 40
0.0
  9
$DIMEXE
 40
1.25
  9
$DIMTP
 40
0.0
  9
$DIMTM
 40
0.0
  9
$DIMTXT
 40
2.5
  9
$DIMCEN
 40
2.5
  9
$DIMTSZ
 40
0.0
  9
$DIMTOL
 70
     0
  9
$DIMLIM
 70
     0
  9
$DIMTIH
 70
     1
  9
$DIMTOH
 70
     0
  9
$DIMSE1
 70
     0
  9
$DIMSE2
 70
     0
  9
$DIMTAD
 70
     1
  9
$DIMZIN
 70
     8
  9
$DIMBLK
  1

  9
$DIMASO
 70
     1
  9
$DIMSHO
 70
     1
  9
$DIMPOST
  1

  9
$DIMAPOST
  1

  9
$DIMALT
 70
     0
  9
$DIMALTD
 70
     2
  9
$DIMALTF
 40
0.0394
  9
$DIMLFAC
 40
1.0
  9
$DIMTOFL
 70
     1
  9
$DIMTVP
 40
1.0
  9
$DIMTIX
 70
     0
  9
$DIMSOXD
 70
     0
  9
$DIMSAH
 70
     0
  9
$DIMBLK1
  1

  9
$DIMBLK2
  1

  9
$DIMSTYLE
  2
STANDARD
  9
$DIMCLRD
 70
     0
  9
$DIMCLRE
 70
     0
  9
$DIMCLRT
 70
     0
  9
$DIMTFAC
 40
1.0
  9
$DIMGAP
 40
0.625
  9
$LUNITS
 70
     2
  9
$LUPREC
 70
     4
  9
$SKETCHINC
 40
1.0
  9
$FILLETRAD
 40
0.0
  9
$AUNITS
 70
     0
  9
$AUPREC
 70
     0
  9
$MENU
  1
acad
  9
$ELEVATION
 40
0.0
  9
$PELEVATION
 40
0.0
  9
$THICKNESS
 40
0.0
  9
$LIMCHECK
 70
     0
  9
$BLIPMODE
 70
     0
  9
$CHAMFERA
 40
0.5
  9
$CHAMFERB
 40
0.5
  9
$SKPOLY
 70
     0
  9
$TDCREATE
 40
2450500.3695219909
  9
$TDUPDATE
 40
2451967.6395584368
  9
$TDINDWG
 40
0.298624375
  9
$TDUSRTIMER
 40
0.298624375
  9
$USRTIMER
 70
     1
  9
$ANGBASE
 50
0.0
  9
$ANGDIR
 70
     0
  9
$PDMODE
 70
     0
  9
$PDSIZE
 40
0.0
  9
$PLINEWID
 40
0.0
  9
$COORDS
 70
     1
  9
$SPLFRAME
 70
     0
  9
$SPLINETYPE
 70
     6
  9
$SPLINESEGS
 70
     8
  9
$ATTDIA
 70
     0
  9
$ATTREQ
 70
     1
  9
$HANDLING
 70
-16383
  9
$HANDSEED
  5
380
  9
$SURFTAB1
 70
     6
  9
$SURFTAB2
 70
     6
  9
$SURFTYPE
 70
     6
  9
$SURFU
 70
     6
  9
$SURFV
 70
     6
  9
$UCSNAME
  2

  9
$UCSORG
 10
0.0
 20
0.0
 30
0.0
  9
$UCSXDIR
 10
1.0
 20
0.0
 30
0.0
  9
$UCSYDIR
 10
0.0
 20
1.0
 30
0.0
  9
$PUCSNAME
  2

  9
$PUCSORG
 10
0.0
 20
0.0
 30
0.0
  9
$PUCSXDIR
 10
1.0
 20
0.0
 30
0.0
  9
$PUCSYDIR
 10
0.0
 20
1.0
 30
0.0
  9
$USERI1
 70
     0
  9
$USERI2
 70
     0
  9
$USERI3
 70
     0
  9
$USERI4
 70
     0
  9
$USERI5
 70
     0
  9
$USERR1
 40
0.0
  9
$USERR2
 40
0.0
  9
$USERR3
 40
0.0
  9
$USERR4
 40
0.0
  9
$USERR5
 40
0.0
  9
$WORLDVIEW
 70
     1
  9
$SHADEDGE
 70
     3
  9
$SHADEDIF
 70
    70
  9
$TILEMODE
 70
     1
  9
$MAXACTVP
 70
    16
  9
$PLIMCHECK
 70
     0
  9
$PEXTMIN
 10
1.0000000000000000E+020
 20
1.0000000000000000E+020
 30
1.0000000000000000E+020
  9
$PEXTMAX
 10
-1.0000000000000000E+020
 20
-1.0000000000000000E+020
 30
-1.0000000000000000E+020
  9
$PLIMMIN
 10
0.0
 20
0.0
  9
$PLIMMAX
 10
420.0
 20
297.0
  9
$UNITMODE
 70
     0
  9
$VISRETAIN
 70
     0
  9
$PLINEGEN
 70
     0
  9
$PSLTSCALE
 70
     1
  0
ENDSEC
  0
SECTION
  2
TABLES
  0
TABLE
  2
VPORT
 70
     3
  0
VPORT
  2
*ACTIVE
 70
     0
 10
0.0
 20
0.0
 11
1.0
 21
1.0
 12
274.56862745098027
 22
141.36720305688601
 13
0.0
 23
0.0
 14
0.5
 24
0.5
 15
10.0
 25
10.0
 16
0.0
 26
0.0
 36
1.0
 17
0.0
 27
0.0
 37
0.0
 40
332.73440611377202
 41
1.7104851330203441
 42
50.0
 43
0.0
 44
0.0
 50
0.0
 51
0.0
 71
     0
 72
   100
 73
     1
 74
     0
 75
     1
 76
     0
 77
     0
 78
     0
  0
ENDTAB
  0
TABLE
  2
LTYPE
 70
    25
  0
LTYPE
  2
CONTINUOUS
 70
     0
  3
Solid line
 72
    65
 73
     0
 40
0.0
  0
LTYPE
  2
BORDER
 70
     0
  3
__ __ . __ __ . __ __ . __ __ . __ __ . __ __ .
 72
    65
 73
     6
 40
1.75
 49
0.5
 49
-0.25
 49
0.5
 49
-0.25
 49
0.0
 49
-0.25
  0
LTYPE
  2
BORDER2
 70
     0
  3
__.__.__.__.__.__.__.__.__.__.__.__.__.__.__.__
 72
    65
 73
     6
 40
0.875
 49
0.25
 49
-0.125
 49
0.25
 49
-0.125
 49
0.0
 49
-0.125
  0
LTYPE
  2
BORDERX2
 70
     0
  3
____  ____  .  ____  ____  .  ____  ____  .  __
 72
    65
 73
     6
 40
3.5
 49
1.0
 49
-0.5
 49
1.0
 49
-0.5
 49
0.0
 49
-0.5
  0
LTYPE
  2
CENTER
 70
     0
  3
____ _ ____ _ ____ _ ____ _ ____ _ ____ _ ____ 
 72
    65
 73
     4
 40
2.0
 49
1.25
 49
-0.25
 49
0.25
 49
-0.25
  0
LTYPE
  2
CENTER2
 70
     0
  3
___ _ ___ _ ___ _ ___ _ ___ _ ___ _ ___ _ ___ _
 72
    65
 73
     4
 40
1.125
 49
0.75
 49
-0.125
 49
0.125
 49
-0.125
  0
LTYPE
  2
CENTERX2
 70
     0
  3
________  __  ________  __  ________  __  _____
 72
    65
 73
     4
 40
4.0
 49
2.5
 49
-0.5
 49
0.5
 49
-0.5
  0
LTYPE
  2
DASHDOT
 70
     0
  3
__ . __ . __ . __ . __ . __ . __ . __ . __ . __
 72
    65
 73
     4
 40
1.0
 49
0.5
 49
-0.25
 49
0.0
 49
-0.25
  0
LTYPE
  2
DASHDOT2
 70
     0
  3
_._._._._._._._._._._._._._._._._._._._._._._._
 72
    65
 73
     4
 40
0.5
 49
0.25
 49
-0.125
 49
0.0
 49
-0.125
  0
LTYPE
  2
DASHDOTX2
 70
     0
  3
____  .  ____  .  ____  .  ____  .  ____  .  __
 72
    65
 73
     4
 40
2.0
 49
1.0
 49
-0.5
 49
0.0
 49
-0.5
  0
LTYPE
  2
DASHED
 70
     0
  3
__ __ __ __ __ __ __ __ __ __ __ __ __ __ __ __
 72
    65
 73
     2
 40
0.75
 49
0.5
 49
-0.25
  0
LTYPE
  2
DASHED2
 70
     0
  3
_ _ _ _ _ _ _ _ _ _ _ _ _ _ _ _ _ _ _ _ _ _ _ _
 72
    65
 73
     2
 40
0.375
 49
0.25
 49
-0.125
  0
LTYPE
  2
DASHEDX2
 70
     0
  3
____  ____  ____  ____  ____  ____  ____  ____ 
 72
    65
 73
     2
 40
1.5
 49
1.0
 49
-0.5
  0
LTYPE
  2
DIVIDE
 70
     0
  3
____ . . ____ . . ____ . . ____ . . ____ . . __
 72
    65
 73
     6
 40
1.25
 49
0.5
 49
-0.25
 49
0.0
 49
-0.25
 49
0.0
 49
-0.25
  0
LTYPE
  2
DIVIDE2
 70
     0
  3
__..__..__..__..__..__..__..__..__..__..__..__.
 72
    65
 73
     6
 40
0.625
 49
0.25
 49
-0.125
 49
0.0
 49
-0.125
 49
0.0
 49
-0.125
  0
LTYPE
  2
DIVIDEX2
 70
     0
  3
________  .  .  ________  .  .  ________  .  . 
 72
    65
 73
     6
 40
2.5
 49
1.0
 49
-0.5
 49
0.0
 49
-0.5
 49
0.0
 49
-0.5
  0
LTYPE
  2
DOT
 70
     0
  3
. . . . . . . . . . . . . . . . . . . . . . . .
 72
    65
 73
     2
 40
0.25
 49
0.0
 49
-0.25
  0
LTYPE
  2
DOT2
 70
     0
  3
...............................................
 72
    65
 73
     2
 40
0.125
 49
0.0
 49
-0.125
  0
LTYPE
  2
DOTX2
 70
     0
  3
.  .  .  .  .  .  .  .  .  .  .  .  .  .  .  . 
 72
    65
 73
     2
 40
0.5
 49
0.0
 49
-0.5
  0
LTYPE
  2
HIDDEN
 70
     0
  3
__ __ __ __ __ __ __ __ __ __ __ __ __ __ __ __
 72
    65
 73
     2
 40
0.375
 49
0.25
 49
-0.125
  0
LTYPE
  2
HIDDEN2
 70
     0
  3
_ _ _ _ _ _ _ _ _ _ _ _ _ _ _ _ _ _ _ _ _ _ _ _
 72
    65
 73
     2
 40
0.1875
 49
0.125
 49
-0.0625
  0
LTYPE
  2
HIDDENX2
 70
     0
  3
____ ____ ____ ____ ____ ____ ____ ____ ____ __
 72
    65
 73
     2
 40
0.75
 49
0.5
 49
-0.25
  0
LTYPE
  2
PHANTOM
 70
     0
  3
______  __  __  ______  __  __  ______  __  __ 
 72
    65
 73
     6
 40
2.5
 49
1.25
 49
-0.25
 49
0.25
 49
-0.25
 49
0.25
 49
-0.25
  0
LTYPE
  2
PHANTOM2
 70
     0
  3
___ _ _ ___ _ _ ___ _ _ ___ _ _ ___ _ _ ___ _ _
 72
    65
 73
     6
 40
1.25
 49
0.625
 49
-0.125
 49
0.125
 49
-0.125
 49
0.125
 49
-0.125
  0
LTYPE
  2
PHANTOMX2
 70
     0
  3
____________    ____    ____    ____________   
 72
    65
 73
     6
 40
5.0
 49
2.5
 49
-0.5
 49
0.5
 49
-0.5
 49
0.5
 49
-0.5
  0
ENDTAB
  0
TABLE
  2
LAYER
 70
     1
  0
LAYER
  2
0
 70
     0
 62
     7
  6
CONTINUOUS
  0
ENDTAB
  0
TABLE
  2
STYLE
 70
     1
  0
STYLE
  2
STANDARD
 70
     0
 40
0.0
 41
1.0
 50
0.0
 71
     0
 42
3.5
  3
txt
  4

  0
ENDTAB
  0
TABLE
  2
VIEW
 70
     0
  0
ENDTAB
  0
TABLE
  2
UCS
 70
     0
  0
ENDTAB
  0
TABLE
  2
APPID
 70
     1
  0
APPID
  2
ACAD
 70
     0
  0
ENDTAB
  0
TABLE
  2
DIMSTYLE
 70
     1
  0
DIMSTYLE
  2
STANDARD
 70
     0
  3

  4

  5

  6

  7

 40
1.0
 41
0.18
 42
0.0625
 43
0.38
 44
0.18
 45
0.0
 46
0.0
 47
0.0
 48
0.0
140
0.18
141
0.09
142
0.0
143
25.399999999999999
144
1.0
145
0.0
146
1.0
147
0.09
 71
     0
 72
     0
 73
     1
 74
     1
 75
     0
 76
     0
 77
     0
 78
     0
170
     0
171
     2
172
     0
173
     0
174
     0
175
     0
176
     0
177
     0
178
     0
  0
ENDTAB
  0
ENDSEC
  0
SECTION
  2
BLOCKS
  0
BLOCK
  8
0
  2
$MODEL_SPACE
 70
     0
 10
0.0
 20
0.0
 30
0.0
  3
$MODEL_SPACE
  1

  0
ENDBLK
  5
55
  8
0
  0
BLOCK
 67
     1
  8
0
  2
$PAPER_SPACE
 70
     0
 10
0.0
 20
0.0
 30
0.0
  3
$PAPER_SPACE
  1

  0
ENDBLK
  5
53
 67
     1
  8
0
  0
BLOCK
  8
0
  2
14V
 70
     0
 10
0.0
 20
0.0
 30
0.0
  3
14V
  1

  0
LINE
  5
57
  8
0
 10
-29.5
 20
14.0
 30
0.0
 11
-29.5
 21
-14.0
 31
0.0
  0
LINE
  5
58
  8
0
 10
-30.0
 20
-13.5
 30
0.0
 11
-30.0
 21
13.5
 31
0.0
  0
LINE
  5
59
  8
0
  6
DASHED
 10
-17.0
 20
-7.0
 30
0.0
 11
-14.0
 21
-14.0
 31
0.0
  0
LINE
  5
5A
  8
0
 10
-6.5
 20
-6.5
 30
0.0
 11
-14.0
 21
-14.0
 31
0.0
  0
LINE
  5
5B
  8
0
 10
-14.0
 20
-14.0
 30
0.0
 11
-29.5
 21
-14.0
 31
0.0
  0
LINE
  5
5C
  8
0
 10
-29.5
 20
-14.0
 30
0.0
 11
-30.0
 21
-13.5
 31
0.0
  0
LINE
  5
5D
  8
0
 10
-29.5
 20
14.0
 30
0.0
 11
-14.0
 21
14.0
 31
0.0
  0
LINE
  5
5E
  8
0
  6
DASHED
 10
-30.0
 20
7.0
 30
0.0
 11
-17.0
 21
7.0
 31
0.0
  0
LINE
  5
5F
  8
0
  6
DASHED
 10
-30.0
 20
-7.0
 30
0.0
 11
-17.0
 21
-7.0
 31
0.0
  0
LINE
  5
60
  8
0
 10
-29.5
 20
14.0
 30
0.0
 11
-30.0
 21
13.5
 31
0.0
  0
LINE
  5
61
  8
0
  6
DASHED
 10
-17.0
 20
7.0
 30
0.0
 11
-14.0
 21
14.0
 31
0.0
  0
LINE
  5
62
  8
0
 10
-14.0
 20
14.0
 30
0.0
 11
-6.5
 21
6.5
 31
0.0
  0
LINE
  5
63
  8
0
 10
-6.5
 20
6.5
 30
0.0
 11
0.0
 21
6.5
 31
0.0
  0
LINE
  5
64
  8
0
 10
0.0
 20
-6.5
 30
0.0
 11
-6.5
 21
-6.5
 31
0.0
  0
CIRCLE
  5
65
  8
0
 10
0.0
 20
0.0
 30
0.0
 40
4.5
  0
ARC
  5
66
  8
0
 10
0.0
 20
0.0
 30
0.0
 40
6.5
 50
270.0
 51
90.0
  0
CIRCLE
  5
67
  8
0
 10
0.0
 20
0.0
 30
0.0
 40
0.75
  0
ENDBLK
  5
68
  8
0
  0
BLOCK
  8
0
  2
14H
 70
     0
 10
0.0
 20
0.0
 30
0.0
  3
14H
  1
14H
  0
LINE
  5
6A
  8
0
 10
-6.5
 20
-14.0
 30
0.0
 11
42.5
 21
-14.0
 31
0.0
  0
LINE
  5
6B
  8
0
 10
42.5
 20
14.0
 30
0.0
 11
-6.5
 21
14.0
 31
0.0
  0
LINE
  5
6C
  8
0
 10
-0.000000000000199
 20
13.0
 30
0.0
 11
7.0
 21
13.0
 31
0.0
  0
LINE
  5
6D
  8
0
 10
-6.5
 20
8.0
 30
0.0
 11
7.0
 21
8.0
 31
0.0
  0
LINE
  5
6E
  8
0
 10
7.0
 20
7.5
 30
0.0
 11
-7.0
 21
7.5
 31
0.0
  0
LINE
  5
6F
  8
0
 10
-0.000000000000199
 20
-13.0
 30
0.0
 11
7.0
 21
-13.0
 31
0.0
  0
LINE
  5
70
  8
0
 10
-6.5
 20
-8.0
 30
0.0
 11
7.0
 21
-8.0
 31
0.0
  0
LINE
  5
71
  8
0
 10
-7.0
 20
-7.5
 30
0.0
 11
7.0
 21
-7.5
 31
0.0
  0
LINE
  5
72
  8
0
 10
-7.5
 20
7.0
 30
0.0
 11
-7.5
 21
-7.0
 31
0.0
  0
ARC
  5
73
  8
0
 10
0.0
 20
-34.0
 30
0.0
 40
20.5
 50
77.319616508180161
 51
102.6803834918198
  0
ARC
  5
74
  8
0
 10
0.3200274723201346
 20
-36.70517857008084
 30
0.0
 40
23.707338708139719
 50
90.773464312093793
 51
106.7188602130166
  0
LINE
  5
75
  8
0
 10
-6.5
 20
-8.0
 30
0.0
 11
-6.5
 21
-14.0
 31
0.0
  0
LINE
  5
76
  8
0
 10
-7.5
 20
-7.0
 30
0.0
 11
-7.0
 21
-7.5
 31
0.0
  0
LINE
  5
77
  8
0
 10
-6.5
 20
-8.0
 30
0.0
 11
-6.5
 21
-7.5
 31
0.0
  0
ARC
  5
78
  8
0
 10
0.0
 20
34.0
 30
0.0
 40
20.5
 50
257.3196165081801
 51
282.68038349181978
  0
ARC
  5
79
  8
0
 10
0.3200274723201346
 20
36.70517857008084
 30
0.0
 40
23.707338708139719
 50
253.28113978698329
 51
269.22653568790622
  0
LINE
  5
7A
  8
0
 10
-6.5
 20
14.0
 30
0.0
 11
-6.5
 21
8.0
 31
0.0
  0
LINE
  5
7B
  8
0
 10
-7.0
 20
7.5
 30
0.0
 11
-7.5
 21
7.0
 31
0.0
  0
LINE
  5
7C
  8
0
 10
-6.5
 20
8.0
 30
0.0
 11
-6.5
 21
7.5
 31
0.0
  0
ARC
  5
7D
  8
0
 10
35.679972527679858
 20
36.70517857008084
 30
0.0
 40
23.707338708139719
 50
270.77346431209372
 51
286.71886021301663
  0
ARC
  5
7E
  8
0
 10
35.679972527679858
 20
-36.70517857008084
 30
0.0
 40
23.707338708139719
 50
73.28113978698336
 51
89.226535687906207
  0
LINE
  5
7F
  8
0
 10
42.5
 20
8.0
 30
0.0
 11
29.0
 21
8.0
 31
0.0
  0
LINE
  5
80
  8
0
 10
29.0
 20
7.5
 30
0.0
 11
43.0
 21
7.5
 31
0.0
  0
LINE
  5
81
  8
0
 10
42.5
 20
-8.0
 30
0.0
 11
29.0
 21
-8.0
 31
0.0
  0
LINE
  5
82
  8
0
 10
43.0
 20
-7.5
 30
0.0
 11
29.0
 21
-7.5
 31
0.0
  0
ARC
  5
83
  8
0
 10
36.0
 20
-34.0
 30
0.0
 40
20.5
 50
77.319616508180161
 51
102.6803834918198
  0
ARC
  5
84
  8
0
 10
36.0
 20
34.0
 30
0.0
 40
20.5
 50
257.3196165081801
 51
282.68038349181978
  0
LINE
  5
85
  8
0
 10
28.5
 20
-7.0
 30
0.0
 11
28.5
 21
7.0
 31
0.0
  0
ARC
  5
86
  8
0
 10
30.07142857142858
 20
0.0
 30
0.0
 40
8.0714285714285712
 50
97.628149668580761
 51
262.37185033141913
  0
ARC
  5
87
  8
0
 10
35.5625
 20
0.0
 30
0.0
 40
14.5625
 50
116.7849955075021
 51
243.2150044924978
  0
LINE
  5
88
  8
0
 10
7.5
 20
-7.0
 30
0.0
 11
7.5
 21
7.0
 31
0.0
  0
ARC
  5
89
  8
0
 10
5.9285714285714164
 20
0.0
 30
0.0
 40
8.0714285714285712
 50
277.62814966858082
 51
82.371850331419239
  0
ARC
  5
8A
  8
0
 10
0.4375
 20
0.0
 30
0.0
 40
14.5625
 50
296.78499550750212
 51
63.215004492497791
  0
LINE
  5
8B
  8
0
 10
7.0
 20
-8.0
 30
0.0
 11
7.0
 21
-13.0
 31
0.0
  0
LINE
  5
8C
  8
0
 10
6.5
 20
-8.0
 30
0.0
 11
6.5
 21
-7.5
 31
0.0
  0
LINE
  5
8D
  8
0
 10
7.0
 20
-7.5
 30
0.0
 11
7.5
 21
-7.0
 31
0.0
  0
LINE
  5
8E
  8
0
 10
36.000000000000199
 20
-13.0
 30
0.0
 11
29.0
 21
-13.0
 31
0.0
  0
LINE
  5
8F
  8
0
 10
29.0
 20
-8.0
 30
0.0
 11
29.0
 21
-13.0
 31
0.0
  0
LINE
  5
90
  8
0
 10
29.5
 20
-8.0
 30
0.0
 11
29.5
 21
-7.5
 31
0.0
  0
LINE
  5
91
  8
0
 10
29.0
 20
-7.5
 30
0.0
 11
28.5
 21
-7.0
 31
0.0
  0
LINE
  5
92
  8
0
 10
7.0
 20
8.0
 30
0.0
 11
7.0
 21
13.0
 31
0.0
  0
LINE
  5
93
  8
0
 10
6.5
 20
8.0
 30
0.0
 11
6.5
 21
7.5
 31
0.0
  0
LINE
  5
94
  8
0
 10
7.5
 20
7.0
 30
0.0
 11
7.0
 21
7.5
 31
0.0
  0
LINE
  5
95
  8
0
 10
36.000000000000199
 20
13.0
 30
0.0
 11
29.0
 21
13.0
 31
0.0
  0
LINE
  5
96
  8
0
 10
29.0
 20
8.0
 30
0.0
 11
29.0
 21
13.0
 31
0.0
  0
LINE
  5
97
  8
0
 10
29.5
 20
8.0
 30
0.0
 11
29.5
 21
7.5
 31
0.0
  0
LINE
  5
98
  8
0
 10
28.5
 20
7.0
 30
0.0
 11
29.0
 21
7.5
 31
0.0
  0
LINE
  5
99
  8
0
 10
43.5
 20
7.0
 30
0.0
 11
43.5
 21
-7.0
 31
0.0
  0
LINE
  5
9A
  8
0
 10
42.5
 20
-8.0
 30
0.0
 11
42.5
 21
-14.0
 31
0.0
  0
LINE
  5
9B
  8
0
 10
43.5
 20
-7.0
 30
0.0
 11
43.0
 21
-7.5
 31
0.0
  0
LINE
  5
9C
  8
0
 10
42.5
 20
-8.0
 30
0.0
 11
42.5
 21
-7.5
 31
0.0
  0
LINE
  5
9D
  8
0
 10
42.5
 20
14.0
 30
0.0
 11
42.5
 21
8.0
 31
0.0
  0
LINE
  5
9E
  8
0
 10
43.0
 20
7.5
 30
0.0
 11
43.5
 21
7.0
 31
0.0
  0
LINE
  5
9F
  8
0
 10
42.5
 20
8.0
 30
0.0
 11
42.5
 21
7.5
 31
0.0
  0
ENDBLK
  5
A0
  8
0
  0
BLOCK
  8
0
  2
16V
 70
     0
 10
0.0
 20
0.0
 30
0.0
  3
16V
  1
16V
  0
LINE
  5
A2
  8
0
  6
DASHED
 10
-34.0
 20
8.0
 30
0.0
 11
-18.0
 21
8.0
 31
0.0
  0
LINE
  5
A3
  8
0
  6
DASHED
 10
-18.0
 20
-8.0
 30
0.0
 11
-34.0
 21
-8.0
 31
0.0
  0
LINE
  5
A4
  8
0
 10
-15.5
 20
-16.0
 30
0.0
 11
-33.5
 21
-16.0
 31
0.0
  0
LINE
  5
A5
  8
0
 10
-33.5
 20
16.0
 30
0.0
 11
-15.5
 21
16.0
 31
0.0
  0
LINE
  5
A6
  8
0
 10
-33.5
 20
16.0
 30
0.0
 11
-33.5
 21
-16.0
 31
0.0
  0
LINE
  5
A7
  8
0
 10
-34.0
 20
-15.5
 30
0.0
 11
-34.0
 21
15.5
 31
0.0
  0
LINE
  5
A8
  8
0
 10
-33.5
 20
-16.0
 30
0.0
 11
-34.0
 21
-15.5
 31
0.0
  0
LINE
  5
A9
  8
0
 10
-33.5
 20
16.0
 30
0.0
 11
-34.0
 21
15.5
 31
0.0
  0
ARC
  5
AA
  8
0
 10
0.0
 20
0.0
 30
0.0
 40
8.0
 50
270.0
 51
90.0
  0
CIRCLE
  5
AB
  8
0
 10
0.0
 20
0.0
 30
0.0
 40
5.5
  0
LINE
  5
AC
  8
0
 10
-7.5
 20
-8.0
 30
0.0
 11
-15.5
 21
-16.0
 31
0.0
  0
LINE
  5
AD
  8
0
  6
DASHED
 10
-15.5
 20
-16.0
 30
0.0
 11
-18.0
 21
-8.0
 31
0.0
  0
CIRCLE
  5
AE
  8
0
 10
0.0
 20
0.0
 30
0.0
 40
1.0
  0
LINE
  5
AF
  8
0
 10
0.0
 20
-8.0
 30
0.0
 11
-7.5
 21
-8.0
 31
0.0
  0
LINE
  5
B0
  8
0
 10
-15.5
 20
16.0
 30
0.0
 11
-7.5
 21
8.0
 31
0.0
  0
LINE
  5
B1
  8
0
  6
DASHED
 10
-18.0
 20
8.0
 30
0.0
 11
-15.5
 21
16.0
 31
0.0
  0
LINE
  5
B2
  8
0
 10
-7.5
 20
8.0
 30
0.0
 11
0.0
 21
8.0
 31
0.0
  0
ENDBLK
  5
B3
  8
0
  0
BLOCK
  8
0
  2
16H
 70
     0
 10
0.0
 20
0.0
 30
0.0
  3
16H
  1
16H
  0
LINE
  5
B5
  8
0
 10
-8.0
 20
16.0
 30
0.0
 11
44.0
 21
16.0
 31
0.0
  0
LINE
  5
B6
  8
0
 10
44.0
 20
-16.0
 30
0.0
 11
-8.0
 21
-16.0
 31
0.0
  0
ARC
  5
B7
  8
0
 10
0.0
 20
46.0
 30
0.0
 40
30.5
 50
259.61114218453042
 51
280.38885781546958
  0
LINE
  5
B8
  8
0
 10
-0.0000000000001421
 20
14.0
 30
0.0
 11
7.5
 21
14.0
 31
0.0
  0
LINE
  5
B9
  8
0
 10
-8.5
 20
9.0
 30
0.0
 11
8.5
 21
9.0
 31
0.0
  0
ARC
  5
BA
  8
0
 10
0.0
 20
-46.0
 30
0.0
 40
30.5
 50
79.611142184530365
 51
100.38885781546951
  0
LINE
  5
BB
  8
0
 10
-0.0000000000001421
 20
-14.0
 30
0.0
 11
7.5
 21
-14.0
 31
0.0
  0
LINE
  5
BC
  8
0
 10
8.5
 20
-9.0
 30
0.0
 11
-8.5
 21
-9.0
 31
0.0
  0
LINE
  5
BD
  8
0
 10
-8.0
 20
10.0
 30
0.0
 11
11.5
 21
10.0
 31
0.0
  0
LINE
  5
BE
  8
0
 10
-8.0
 20
-10.0
 30
0.0
 11
11.5
 21
-10.0
 31
0.0
  0
LINE
  5
BF
  8
0
 10
-8.0
 20
16.0
 30
0.0
 11
-8.0
 21
10.0
 31
0.0
  0
ARC
  5
C0
  8
0
 10
0.2360679774998005
 20
31.94427190999917
 30
0.0
 40
17.945824652826239
 50
242.68123094353439
 51
269.24628212061242
  0
LINE
  5
C1
  8
0
 10
-9.0
 20
-8.5
 30
0.0
 11
-9.0
 21
8.5
 31
0.0
  0
LINE
  5
C2
  8
0
 10
-9.0
 20
-8.5
 30
0.0
 11
-8.5
 21
-9.0
 31
0.0
  0
LINE
  5
C3
  8
0
 10
-8.0
 20
-10.0
 30
0.0
 11
-8.0
 21
-16.0
 31
0.0
  0
ARC
  5
C4
  8
0
 10
0.2360679774998005
 20
-31.94427190999917
 30
0.0
 40
17.945824652826239
 50
90.753717879387509
 51
117.3187690564654
  0
LINE
  5
C5
  8
0
 10
-8.0
 20
-10.0
 30
0.0
 11
-8.0
 21
-9.0
 31
0.0
  0
LINE
  5
C6
  8
0
 10
-8.5
 20
9.0
 30
0.0
 11
-9.0
 21
8.5
 31
0.0
  0
LINE
  5
C7
  8
0
 10
-8.0
 20
10.0
 30
0.0
 11
-8.0
 21
9.0
 31
0.0
  0
LINE
  5
C8
  8
0
 10
44.0
 20
16.0
 30
0.0
 11
44.0
 21
10.0
 31
0.0
  0
ARC
  5
C9
  8
0
 10
35.7639320225002
 20
31.94427190999917
 30
0.0
 40
17.945824652826239
 50
270.75371787938752
 51
297.3187690564655
  0
ARC
  5
CA
  8
0
 10
36.0
 20
-46.0
 30
0.0
 40
30.5
 50
79.611142184530436
 51
100.38885781546961
  0
LINE
  5
CB
  8
0
 10
36.000000000000142
 20
14.0
 30
0.0
 11
28.5
 21
14.0
 31
0.0
  0
LINE
  5
CC
  8
0
 10
44.5
 20
9.0
 30
0.0
 11
27.5
 21
9.0
 31
0.0
  0
LINE
  5
CD
  8
0
 10
36.000000000000142
 20
-14.0
 30
0.0
 11
28.5
 21
-14.0
 31
0.0
  0
LINE
  5
CE
  8
0
 10
27.5
 20
-9.0
 30
0.0
 11
44.5
 21
-9.0
 31
0.0
  0
LINE
  5
CF
  8
0
 10
44.0
 20
10.0
 30
0.0
 11
24.5
 21
10.0
 31
0.0
  0
LINE
  5
D0
  8
0
 10
44.0
 20
-10.0
 30
0.0
 11
24.5
 21
-10.0
 31
0.0
  0
ARC
  5
D1
  8
0
 10
35.0
 20
0.0
 30
0.0
 40
14.5
 50
136.3971810272964
 51
223.60281897270349
  0
LINE
  5
D2
  8
0
 10
27.0
 20
8.5
 30
0.0
 11
27.0
 21
-8.5
 31
0.0
  0
ARC
  5
D3
  8
0
 10
34.888888888888879
 20
0.0
 30
0.0
 40
15.38888888888888
 50
114.52954745578469
 51
245.47045254421519
  0
ARC
  5
D4
  8
0
 10
1.0
 20
0.0
 30
0.0
 40
14.5
 50
316.39718102729631
 51
43.602818972703602
  0
LINE
  5
D5
  8
0
 10
9.0
 20
8.5
 30
0.0
 11
9.0
 21
-8.5
 31
0.0
  0
ARC
  5
D6
  8
0
 10
1.111111111111114
 20
0.0
 30
0.0
 40
15.38888888888888
 50
294.52954745578472
 51
65.470452544215192
  0
LINE
  5
D7
  8
0
 10
8.0
 20
-10.0
 30
0.0
 11
8.0
 21
-9.0
 31
0.0
  0
LINE
  5
D8
  8
0
 10
8.5
 20
-9.0
 30
0.0
 11
9.0
 21
-8.5
 31
0.0
  0
LINE
  5
D9
  8
0
 10
28.0
 20
-10.0
 30
0.0
 11
28.0
 21
-9.0
 31
0.0
  0
LINE
  5
DA
  8
0
 10
27.5
 20
-9.0
 30
0.0
 11
27.0
 21
-8.5
 31
0.0
  0
LINE
  5
DB
  8
0
 10
8.0
 20
9.0
 30
0.0
 11
8.0
 21
10.0
 31
0.0
  0
LINE
  5
DC
  8
0
 10
9.0
 20
8.5
 30
0.0
 11
8.5
 21
9.0
 31
0.0
  0
LINE
  5
DD
  8
0
 10
28.0
 20
9.0
 30
0.0
 11
28.0
 21
10.0
 31
0.0
  0
LINE
  5
DE
  8
0
 10
27.0
 20
8.5
 30
0.0
 11
27.5
 21
9.0
 31
0.0
  0
LINE
  5
DF
  8
0
 10
45.0
 20
-8.5
 30
0.0
 11
45.0
 21
8.5
 31
0.0
  0
ARC
  5
E0
  8
0
 10
35.7639320225002
 20
-31.94427190999917
 30
0.0
 40
17.945824652826239
 50
62.681230943534509
 51
89.246282120612477
  0
LINE
  5
E1
  8
0
 10
44.0
 20
-10.0
 30
0.0
 11
44.0
 21
-16.0
 31
0.0
  0
LINE
  5
E2
  8
0
 10
45.0
 20
-8.5
 30
0.0
 11
44.5
 21
-9.0
 31
0.0
  0
LINE
  5
E3
  8
0
 10
44.0
 20
-10.0
 30
0.0
 11
44.0
 21
-9.0
 31
0.0
  0
LINE
  5
E4
  8
0
 10
44.0
 20
10.0
 30
0.0
 11
44.0
 21
9.0
 31
0.0
  0
LINE
  5
E5
  8
0
 10
44.5
 20
9.0
 30
0.0
 11
45.0
 21
8.5
 31
0.0
  0
ARC
  5
E6
  8
0
 10
36.0
 20
46.0
 30
0.0
 40
30.5
 50
259.61114218453031
 51
280.38885781546952
  0
ENDBLK
  5
E7
  8
0
  0
BLOCK
  8
0
  2
18V
 70
     0
 10
0.0
 20
0.0
 30
0.0
  3
18V
  1
18V
  0
LINE
  5
E9
  8
0
  6
DASHED
 10
-37.0
 20
9.0
 30
0.0
 11
-20.0
 21
9.0
 31
0.0
  0
LINE
  5
EA
  8
0
  6
DASHED
 10
-20.0
 20
-9.0
 30
0.0
 11
-37.0
 21
-9.0
 31
0.0
  0
LINE
  5
EB
  8
0
 10
-36.0
 20
18.0
 30
0.0
 11
-17.5
 21
18.0
 31
0.0
  0
LINE
  5
EC
  8
0
 10
-17.5
 20
-18.0
 30
0.0
 11
-36.0
 21
-18.0
 31
0.0
  0
LINE
  5
ED
  8
0
 10
-36.0
 20
18.0
 30
0.0
 11
-36.0
 21
-18.0
 31
0.0
  0
LINE
  5
EE
  8
0
 10
-37.0
 20
-17.0
 30
0.0
 11
-37.0
 21
17.0
 31
0.0
  0
LINE
  5
EF
  8
0
 10
-36.0
 20
-18.0
 30
0.0
 11
-37.0
 21
-17.0
 31
0.0
  0
LINE
  5
F0
  8
0
 10
-36.0
 20
18.0
 30
0.0
 11
-37.0
 21
17.0
 31
0.0
  0
ARC
  5
F1
  8
0
 10
0.0
 20
0.0
 30
0.0
 40
8.5
 50
270.0
 51
90.0
  0
CIRCLE
  5
F2
  8
0
 10
0.0
 20
0.0
 30
0.0
 40
1.0
  0
CIRCLE
  5
F3
  8
0
 10
0.0
 20
0.0
 30
0.0
 40
5.5
  0
LINE
  5
F4
  8
0
 10
-7.5
 20
-8.5
 30
0.0
 11
-17.5
 21
-18.0
 31
0.0
  0
LINE
  5
F5
  8
0
  6
DASHED
 10
-17.5
 20
-18.0
 30
0.0
 11
-20.0
 21
-9.0
 31
0.0
  0
LINE
  5
F6
  8
0
 10
0.0
 20
-8.5
 30
0.0
 11
-7.5
 21
-8.5
 31
0.0
  0
LINE
  5
F7
  8
0
 10
-17.5
 20
18.0
 30
0.0
 11
-7.5
 21
8.5
 31
0.0
  0
LINE
  5
F8
  8
0
  6
DASHED
 10
-20.0
 20
9.0
 30
0.0
 11
-17.5
 21
18.0
 31
0.0
  0
LINE
  5
F9
  8
0
 10
-7.5
 20
8.5
 30
0.0
 11
0.0
 21
8.5
 31
0.0
  0
ENDBLK
  5
FA
  8
0
  0
BLOCK
  8
0
  2
18H
 70
     0
 10
0.0
 20
0.0
 30
0.0
  3
18H
  1
18H
  0
LINE
  5
FC
  8
0
 10
-8.5
 20
-18.0
 30
0.0
 11
48.5
 21
-18.0
 31
0.0
  0
LINE
  5
FD
  8
0
 10
48.5
 20
18.0
 30
0.0
 11
-8.5
 21
18.0
 31
0.0
  0
ARC
  5
FE
  8
0
 10
1.8095238095237951
 20
0.0
 30
0.0
 40
16.69047619047619
 50
291.7710541093175
 51
68.228945890682482
  0
LINE
  5
FF
  8
0
 10
-8.5
 20
-11.0
 30
0.0
 11
13.0
 21
-11.0
 31
0.0
  0
LINE
  5
100
  8
0
 10
-8.5
 20
11.0
 30
0.0
 11
13.0
 21
11.0
 31
0.0
  0
LINE
  5
101
  8
0
 10
-8.5
 20
18.0
 30
0.0
 11
-8.5
 21
11.0
 31
0.0
  0
LINE
  5
102
  8
0
 10
10.0
 20
-9.5
 30
0.0
 11
10.0
 21
9.5
 31
0.0
  0
LINE
  5
103
  8
0
 10
-10.0
 20
9.5
 30
0.0
 11
-10.0
 21
-9.5
 31
0.0
  0
LINE
  5
104
  8
0
 10
-8.5
 20
-15.5
 30
0.0
 11
8.0
 21
-15.5
 31
0.0
  0
LINE
  5
105
  8
0
 10
-9.5
 20
-10.0
 30
0.0
 11
9.5
 21
-10.0
 31
0.0
  0
LINE
  5
106
  8
0
 10
-8.5
 20
-11.0
 30
0.0
 11
-8.5
 21
-18.0
 31
0.0
  0
LINE
  5
107
  8
0
 10
-8.5
 20
-11.0
 30
0.0
 11
-8.5
 21
-10.0
 31
0.0
  0
LINE
  5
108
  8
0
 10
-10.0
 20
-9.5
 30
0.0
 11
-9.5
 21
-10.0
 31
0.0
  0
ARC
  5
109
  8
0
 10
0.0
 20
-32.625
 30
0.0
 40
15.625
 50
69.390307062467926
 51
110.609692937532
  0
LINE
  5
10A
  8
0
 10
8.5
 20
-11.0
 30
0.0
 11
8.5
 21
-10.0
 31
0.0
  0
LINE
  5
10B
  8
0
 10
9.5
 20
-10.0
 30
0.0
 11
10.0
 21
-9.5
 31
0.0
  0
LINE
  5
10C
  8
0
 10
9.5
 20
10.0
 30
0.0
 11
-9.5
 21
10.0
 31
0.0
  0
LINE
  5
10D
  8
0
 10
-8.5
 20
11.0
 30
0.0
 11
-8.5
 21
10.0
 31
0.0
  0
LINE
  5
10E
  8
0
 10
-9.5
 20
10.0
 30
0.0
 11
-10.0
 21
9.5
 31
0.0
  0
LINE
  5
10F
  8
0
 10
8.5
 20
11.0
 30
0.0
 11
8.5
 21
10.0
 31
0.0
  0
LINE
  5
110
  8
0
 10
10.0
 20
9.5
 30
0.0
 11
9.5
 21
10.0
 31
0.0
  0
LINE
  5
111
  8
0
 10
-8.5
 20
15.5
 30
0.0
 11
8.0
 21
15.5
 31
0.0
  0
ARC
  5
112
  8
0
 10
0.0
 20
32.625
 30
0.0
 40
15.625
 50
249.39030706246791
 51
290.60969293753197
  0
ARC
  5
113
  8
0
 10
38.190476190476197
 20
0.0
 30
0.0
 40
16.69047619047619
 50
111.7710541093175
 51
248.2289458906825
  0
LINE
  5
114
  8
0
 10
48.5
 20
18.0
 30
0.0
 11
48.5
 21
11.0
 31
0.0
  0
LINE
  5
115
  8
0
 10
30.5
 20
10.0
 30
0.0
 11
49.5
 21
10.0
 31
0.0
  0
LINE
  5
116
  8
0
 10
48.5
 20
-15.5
 30
0.0
 11
32.0
 21
-15.5
 31
0.0
  0
LINE
  5
117
  8
0
 10
49.5
 20
-10.0
 30
0.0
 11
30.5
 21
-10.0
 31
0.0
  0
ARC
  5
118
  8
0
 10
40.0
 20
-32.625
 30
0.0
 40
15.625
 50
69.39030706246794
 51
110.609692937532
  0
LINE
  5
119
  8
0
 10
48.5
 20
-11.0
 30
0.0
 11
27.0
 21
-11.0
 31
0.0
  0
LINE
  5
11A
  8
0
 10
48.5
 20
11.0
 30
0.0
 11
27.0
 21
11.0
 31
0.0
  0
LINE
  5
11B
  8
0
 10
30.0
 20
-9.5
 30
0.0
 11
30.0
 21
9.5
 31
0.0
  0
ARC
  5
11C
  8
0
 10
38.194444444444457
 20
0.0
 30
0.0
 40
15.69444444444445
 50
135.50195268557519
 51
224.49804731442461
  0
ARC
  5
11D
  8
0
 10
1.805555555555542
 20
0.0
 30
0.0
 40
15.69444444444445
 50
315.5019526855753
 51
44.498047314424689
  0
LINE
  5
11E
  8
0
 10
30.5
 20
-10.0
 30
0.0
 11
30.0
 21
-9.5
 31
0.0
  0
LINE
  5
11F
  8
0
 10
31.5
 20
-11.0
 30
0.0
 11
31.5
 21
-10.0
 31
0.0
  0
LINE
  5
120
  8
0
 10
30.0
 20
9.5
 30
0.0
 11
30.5
 21
10.0
 31
0.0
  0
LINE
  5
121
  8
0
 10
31.5
 20
11.0
 30
0.0
 11
31.5
 21
10.0
 31
0.0
  0
LINE
  5
122
  8
0
 10
50.0
 20
9.5
 30
0.0
 11
50.0
 21
-9.5
 31
0.0
  0
LINE
  5
123
  8
0
 10
48.5
 20
-11.0
 30
0.0
 11
48.5
 21
-18.0
 31
0.0
  0
LINE
  5
124
  8
0
 10
50.0
 20
-9.5
 30
0.0
 11
49.5
 21
-10.0
 31
0.0
  0
LINE
  5
125
  8
0
 10
48.5
 20
-11.0
 30
0.0
 11
48.5
 21
-10.0
 31
0.0
  0
LINE
  5
126
  8
0
 10
49.5
 20
10.0
 30
0.0
 11
50.0
 21
9.5
 31
0.0
  0
LINE
  5
127
  8
0
 10
48.5
 20
11.0
 30
0.0
 11
48.5
 21
10.0
 31
0.0
  0
LINE
  5
128
  8
0
 10
48.5
 20
15.5
 30
0.0
 11
32.0
 21
15.5
 31
0.0
  0
ARC
  5
129
  8
0
 10
40.0
 20
32.625
 30
0.0
 40
15.625
 50
249.39030706246791
 51
290.60969293753197
  0
ENDBLK
  5
12A
  8
0
  0
BLOCK
  8
0
  2
20V
 70
     0
 10
0.0
 20
0.0
 30
0.0
  3
20V
  1
20V
  0
LINE
  5
12C
  8
0
  6
DASHED
 10
-41.0
 20
10.0
 30
0.0
 11
-23.0
 21
10.0
 31
0.0
  0
LINE
  5
12D
  8
0
  6
DASHED
 10
-23.0
 20
-10.0
 30
0.0
 11
-41.0
 21
-10.0
 31
0.0
  0
LINE
  5
12E
  8
0
 10
-20.0
 20
-21.0
 30
0.0
 11
-40.0
 21
-21.0
 31
0.0
  0
LINE
  5
12F
  8
0
 10
-40.0
 20
21.0
 30
0.0
 11
-20.0
 21
21.0
 31
0.0
  0
LINE
  5
130
  8
0
 10
-40.0
 20
21.0
 30
0.0
 11
-40.0
 21
-21.0
 31
0.0
  0
LINE
  5
131
  8
0
 10
-41.0
 20
-20.0
 30
0.0
 11
-41.0
 21
20.0
 31
0.0
  0
LINE
  5
132
  8
0
 10
-40.0
 20
-21.0
 30
0.0
 11
-41.0
 21
-20.0
 31
0.0
  0
LINE
  5
133
  8
0
 10
-40.0
 20
21.0
 30
0.0
 11
-41.0
 21
20.0
 31
0.0
  0
LINE
  5
134
  8
0
  6
DASHED
 10
-20.0
 20
-21.0
 30
0.0
 11
-23.0
 21
-10.0
 31
0.0
  0
LINE
  5
135
  8
0
 10
-8.5
 20
-10.0
 30
0.0
 11
-20.0
 21
-21.0
 31
0.0
  0
ARC
  5
136
  8
0
 10
0.0
 20
0.0
 30
0.0
 40
10.0
 50
270.0
 51
90.0
  0
CIRCLE
  5
137
  8
0
 10
0.0
 20
0.0
 30
0.0
 40
6.5
  0
LINE
  5
138
  8
0
 10
0.0
 20
-10.0
 30
0.0
 11
-8.5
 21
-10.0
 31
0.0
  0
CIRCLE
  5
139
  8
0
 10
0.0
 20
0.0
 30
0.0
 40
1.5
  0
LINE
  5
13A
  8
0
 10
-20.0
 20
21.0
 30
0.0
 11
-8.5
 21
10.0
 31
0.0
  0
LINE
  5
13B
  8
0
  6
DASHED
 10
-23.0
 20
10.0
 30
0.0
 11
-20.0
 21
21.0
 31
0.0
  0
LINE
  5
13C
  8
0
 10
-8.5
 20
10.0
 30
0.0
 11
0.0
 21
10.0
 31
0.0
  0
ENDBLK
  5
13D
  8
0
  0
BLOCK
  8
0
  2
20H
 70
     0
 10
0.0
 20
0.0
 30
0.0
  3
20H
  1
20H
  0
LINE
  5
13F
  8
0
 10
-10.0
 20
-21.0
 30
0.0
 11
56.0
 21
-21.0
 31
0.0
  0
LINE
  5
140
  8
0
 10
56.0
 20
21.0
 30
0.0
 11
-10.0
 21
21.0
 31
0.0
  0
ARC
  5
141
  8
0
 10
2.5384615384615472
 20
0.0
 30
0.0
 40
18.961538461538449
 50
288.3246940914434
 51
71.675305908556595
  0
LINE
  5
142
  8
0
 10
-10.0
 20
12.0
 30
0.0
 11
16.0
 21
12.0
 31
0.0
  0
LINE
  5
143
  8
0
 10
-10.0
 20
-12.0
 30
0.0
 11
16.0
 21
-12.0
 31
0.0
  0
LINE
  5
144
  8
0
 10
10.5
 20
11.0
 30
0.0
 11
-10.5
 21
11.0
 31
0.0
  0
LINE
  5
145
  8
0
 10
-10.5
 20
-11.0
 30
0.0
 11
10.5
 21
-11.0
 31
0.0
  0
LINE
  5
146
  8
0
 10
-10.0
 20
12.0
 30
0.0
 11
-10.0
 21
21.0
 31
0.0
  0
LINE
  5
147
  8
0
 10
-11.0
 20
10.5
 30
0.0
 11
-11.0
 21
-10.5
 31
0.0
  0
ARC
  5
148
  8
0
 10
0.0
 20
-34.333333333333307
 30
0.0
 40
14.83333333333332
 50
64.010766416167002
 51
115.989233583833
  0
ARC
  5
149
  8
0
 10
3.0785164831552541
 20
-46.428388277184212
 30
0.0
 40
28.59458906463604
 50
96.180488721282757
 51
117.21799974670451
  0
LINE
  5
14A
  8
0
 10
-10.0
 20
-21.0
 30
0.0
 11
-10.0
 21
-12.0
 31
0.0
  0
LINE
  5
14B
  8
0
 10
-11.0
 20
-10.5
 30
0.0
 11
-10.5
 21
-11.0
 31
0.0
  0
LINE
  5
14C
  8
0
 10
-10.0
 20
-12.0
 30
0.0
 11
-10.0
 21
-11.0
 31
0.0
  0
LINE
  5
14D
  8
0
 10
0.0
 20
-18.0
 30
0.0
 11
8.5
 21
-18.0
 31
0.0
  0
LINE
  5
14E
  8
0
 10
10.0
 20
-12.0
 30
0.0
 11
10.0
 21
-11.0
 31
0.0
  0
LINE
  5
14F
  8
0
 10
-10.5
 20
11.0
 30
0.0
 11
-11.0
 21
10.5
 31
0.0
  0
LINE
  5
150
  8
0
 10
-10.0
 20
12.0
 30
0.0
 11
-10.0
 21
11.0
 31
0.0
  0
LINE
  5
151
  8
0
 10
10.0
 20
12.0
 30
0.0
 11
10.0
 21
11.0
 31
0.0
  0
ARC
  5
152
  8
0
 10
3.0785164831552541
 20
46.428388277184212
 30
0.0
 40
28.59458906463604
 50
242.78200025329539
 51
263.81951127871719
  0
ARC
  5
153
  8
0
 10
0.0
 20
34.333333333333343
 30
0.0
 40
14.833333333333339
 50
244.010766416167
 51
295.98923358383303
  0
LINE
  5
154
  8
0
 10
0.0
 20
18.0
 30
0.0
 11
8.5
 21
18.0
 31
0.0
  0
ARC
  5
155
  8
0
 10
43.461538461538453
 20
0.0
 30
0.0
 40
18.961538461538449
 50
108.3246940914434
 51
251.67530590855651
  0
LINE
  5
156
  8
0
 10
56.0
 20
12.0
 30
0.0
 11
56.0
 21
21.0
 31
0.0
  0
LINE
  5
157
  8
0
 10
56.0
 20
12.0
 30
0.0
 11
30.0
 21
12.0
 31
0.0
  0
LINE
  5
158
  8
0
 10
35.5
 20
11.0
 30
0.0
 11
56.5
 21
11.0
 31
0.0
  0
LINE
  5
159
  8
0
 10
56.0
 20
-12.0
 30
0.0
 11
30.0
 21
-12.0
 31
0.0
  0
LINE
  5
15A
  8
0
 10
56.5
 20
-11.0
 30
0.0
 11
35.5
 21
-11.0
 31
0.0
  0
ARC
  5
15B
  8
0
 10
46.0
 20
-34.333333333333307
 30
0.0
 40
14.83333333333332
 50
64.010766416166931
 51
115.9892335838329
  0
LINE
  5
15C
  8
0
 10
46.0
 20
-18.0
 30
0.0
 11
37.5
 21
-18.0
 31
0.0
  0
LINE
  5
15D
  8
0
 10
35.0
 20
-10.5
 30
0.0
 11
35.0
 21
10.5
 31
0.0
  0
ARC
  5
15E
  8
0
 10
46.0
 20
0.0
 30
0.0
 40
20.0
 50
143.13010235415589
 51
216.86989764584399
  0
ARC
  5
15F
  8
0
 10
0.0
 20
0.0
 30
0.0
 40
20.0
 50
323.13010235415601
 51
36.869897645844013
  0
LINE
  5
160
  8
0
 10
11.0
 20
-10.5
 30
0.0
 11
11.0
 21
10.5
 31
0.0
  0
LINE
  5
161
  8
0
 10
10.5
 20
-11.0
 30
0.0
 11
11.0
 21
-10.5
 31
0.0
  0
LINE
  5
162
  8
0
 10
36.0
 20
-12.0
 30
0.0
 11
36.0
 21
-11.0
 31
0.0
  0
LINE
  5
163
  8
0
 10
35.5
 20
-11.0
 30
0.0
 11
35.0
 21
-10.5
 31
0.0
  0
LINE
  5
164
  8
0
 10
11.0
 20
10.5
 30
0.0
 11
10.5
 21
11.0
 31
0.0
  0
LINE
  5
165
  8
0
 10
36.0
 20
12.0
 30
0.0
 11
36.0
 21
11.0
 31
0.0
  0
LINE
  5
166
  8
0
 10
35.0
 20
10.5
 30
0.0
 11
35.5
 21
11.0
 31
0.0
  0
LINE
  5
167
  8
0
 10
57.0
 20
10.5
 30
0.0
 11
57.0
 21
-10.5
 31
0.0
  0
ARC
  5
168
  8
0
 10
42.921483516844773
 20
-46.428388277184212
 30
0.0
 40
28.59458906463604
 50
62.7820002532955
 51
83.819511278717258
  0
LINE
  5
169
  8
0
 10
56.0
 20
-21.0
 30
0.0
 11
56.0
 21
-12.0
 31
0.0
  0
LINE
  5
16A
  8
0
 10
57.0
 20
-10.5
 30
0.0
 11
56.5
 21
-11.0
 31
0.0
  0
LINE
  5
16B
  8
0
 10
56.0
 20
-12.0
 30
0.0
 11
56.0
 21
-11.0
 31
0.0
  0
LINE
  5
16C
  8
0
 10
56.5
 20
11.0
 30
0.0
 11
57.0
 21
10.5
 31
0.0
  0
LINE
  5
16D
  8
0
 10
56.0
 20
12.0
 30
0.0
 11
56.0
 21
11.0
 31
0.0
  0
ARC
  5
16E
  8
0
 10
46.0
 20
34.333333333333343
 30
0.0
 40
14.833333333333339
 50
244.01076641616689
 51
295.98923358383291
  0
LINE
  5
16F
  8
0
 10
46.0
 20
18.0
 30
0.0
 11
37.5
 21
18.0
 31
0.0
  0
ARC
  5
170
  8
0
 10
42.921483516844773
 20
46.428388277184212
 30
0.0
 40
28.59458906463604
 50
276.1804887212827
 51
297.21799974670438
  0
ENDBLK
  5
171
  8
0
  0
BLOCK
  8
0
  2
22V
 70
     0
 10
0.0
 20
0.0
 30
0.0
  3
22V
  1
22V
  0
LINE
  5
173
  8
0
 10
-46.5
 20
-22.5
 30
0.0
 11
-46.5
 21
22.5
 31
0.0
  0
LINE
  5
174
  8
0
 10
-47.5
 20
-21.499999999999989
 30
0.0
 11
-47.5
 21
21.499999999999989
 31
0.0
  0
LINE
  5
175
  8
0
  6
DASHED
 10
-25.5
 20
11.0
 30
0.0
 11
-22.0
 21
22.5
 31
0.0
  0
LINE
  5
176
  8
0
 10
-21.499999999999989
 20
22.5
 30
0.0
 11
-9.0
 21
10.5
 31
0.0
  0
LINE
  5
177
  8
0
 10
-9.0
 20
-10.5
 30
0.0
 11
-21.499999999999989
 21
-22.5
 31
0.0
  0
LINE
  5
178
  8
0
 10
-21.499999999999989
 20
-22.5
 30
0.0
 11
-46.5
 21
-22.5
 31
0.0
  0
LINE
  5
179
  8
0
  6
DASHED
 10
-25.5
 20
-11.0
 30
0.0
 11
-47.5
 21
-11.0
 31
0.0
  0
LINE
  5
17A
  8
0
 10
-47.5
 20
-21.499999999999989
 30
0.0
 11
-46.5
 21
-22.5
 31
0.0
  0
LINE
  5
17B
  8
0
  6
DASHED
 10
-22.0
 20
-22.5
 30
0.0
 11
-25.5
 21
-11.0
 31
0.0
  0
LINE
  5
17C
  8
0
  6
DASHED
 10
-47.5
 20
11.0
 30
0.0
 11
-25.5
 21
11.0
 31
0.0
  0
ARC
  5
17D
  8
0
 10
0.0
 20
0.0
 30
0.0
 40
10.5
 50
270.0
 51
90.0
  0
CIRCLE
  5
17E
  8
0
 10
0.0
 20
0.0
 30
0.0
 40
7.5
  0
LINE
  5
17F
  8
0
 10
0.0
 20
-10.5
 30
0.0
 11
-9.0
 21
-10.5
 31
0.0
  0
LINE
  5
180
  8
0
 10
-9.0
 20
10.5
 30
0.0
 11
0.0
 21
10.5
 31
0.0
  0
CIRCLE
  5
181
  8
0
 10
0.0
 20
0.0
 30
0.0
 40
1.5
  0
LINE
  5
182
  8
0
 10
-46.5
 20
22.5
 30
0.0
 11
-21.499999999999989
 21
22.5
 31
0.0
  0
LINE
  5
183
  8
0
 10
-46.5
 20
22.5
 30
0.0
 11
-47.5
 21
21.499999999999989
 31
0.0
  0
ENDBLK
  5
184
  8
0
  0
BLOCK
  8
0
  2
22H
 70
     0
 10
0.0
 20
0.0
 30
0.0
  3
22H
  1
22H
  0
LINE
  5
186
  8
0
 10
60.5
 20
-22.5
 30
0.0
 11
-10.5
 21
-22.5
 31
0.0
  0
LINE
  5
187
  8
0
 10
-10.5
 20
22.5
 30
0.0
 11
60.5
 21
22.5
 31
0.0
  0
ARC
  5
188
  8
0
 10
1.115384615384613
 20
0.0
 30
0.0
 40
21.88461538461538
 50
293.95226488840672
 51
66.047735111593283
  0
LINE
  5
189
  8
0
 10
-10.5
 20
12.5
 30
0.0
 11
17.5
 21
12.5
 31
0.0
  0
LINE
  5
18A
  8
0
 10
-10.5
 20
-12.5
 30
0.0
 11
17.5
 21
-12.5
 31
0.0
  0
LINE
  5
18B
  8
0
 10
11.0
 20
11.5
 30
0.0
 11
-11.0
 21
11.5
 31
0.0
  0
LINE
  5
18C
  8
0
 10
-11.0
 20
-11.5
 30
0.0
 11
11.0
 21
-11.5
 31
0.0
  0
LINE
  5
18D
  8
0
 10
-10.5
 20
12.5
 30
0.0
 11
-10.5
 21
22.5
 31
0.0
  0
LINE
  5
18E
  8
0
 10
-11.5
 20
11.0
 30
0.0
 11
-11.5
 21
-11.0
 31
0.0
  0
ARC
  5
18F
  8
0
 10
0.0
 20
-40.499999999999993
 30
0.0
 40
19.5
 50
67.380135051959641
 51
112.6198649480405
  0
ARC
  5
190
  8
0
 10
0.839905460776805
 20
-46.827602935262568
 30
0.0
 40
26.840747389652769
 50
91.793202496927336
 51
114.9917930105748
  0
LINE
  5
191
  8
0
 10
-10.5
 20
-22.5
 30
0.0
 11
-10.5
 21
-12.5
 31
0.0
  0
LINE
  5
192
  8
0
 10
-11.5
 20
-11.0
 30
0.0
 11
-11.0
 21
-11.5
 31
0.0
  0
LINE
  5
193
  8
0
 10
-10.5
 20
-12.5
 30
0.0
 11
-10.5
 21
-11.5
 31
0.0
  0
LINE
  5
194
  8
0
 10
-0.0000000000000284
 20
-20.0
 30
0.0
 11
10.0
 21
-20.0
 31
0.0
  0
LINE
  5
195
  8
0
 10
-11.0
 20
11.5
 30
0.0
 11
-11.5
 21
11.0
 31
0.0
  0
LINE
  5
196
  8
0
 10
-10.5
 20
12.5
 30
0.0
 11
-10.5
 21
11.5
 31
0.0
  0
ARC
  5
197
  8
0
 10
0.0
 20
40.499999999999993
 30
0.0
 40
19.5
 50
247.38013505195951
 51
292.61986494804029
  0
ARC
  5
198
  8
0
 10
0.839905460776805
 20
46.827602935262568
 30
0.0
 40
26.840747389652769
 50
245.0082069894251
 51
268.20679750307261
  0
LINE
  5
199
  8
0
 10
-0.0000000000000284
 20
20.0
 30
0.0
 11
10.0
 21
20.0
 31
0.0
  0
ARC
  5
19A
  8
0
 10
48.884615384615358
 20
0.0
 30
0.0
 40
21.88461538461538
 50
113.9522648884067
 51
246.0477351115932
  0
LINE
  5
19B
  8
0
 10
60.5
 20
12.5
 30
0.0
 11
60.5
 21
22.5
 31
0.0
  0
LINE
  5
19C
  8
0
 10
39.0
 20
11.5
 30
0.0
 11
61.0
 21
11.5
 31
0.0
  0
LINE
  5
19D
  8
0
 10
61.0
 20
-11.5
 30
0.0
 11
39.0
 21
-11.5
 31
0.0
  0
ARC
  5
19E
  8
0
 10
50.0
 20
-40.499999999999993
 30
0.0
 40
19.5
 50
67.380135051959471
 51
112.6198649480403
  0
LINE
  5
19F
  8
0
 10
50.0
 20
-20.0
 30
0.0
 11
40.0
 21
-20.0
 31
0.0
  0
LINE
  5
1A0
  8
0
 10
60.5
 20
12.5
 30
0.0
 11
32.5
 21
12.5
 31
0.0
  0
LINE
  5
1A1
  8
0
 10
60.5
 20
-12.5
 30
0.0
 11
32.5
 21
-12.5
 31
0.0
  0
LINE
  5
1A2
  8
0
 10
38.5
 20
-11.0
 30
0.0
 11
38.5
 21
11.0
 31
0.0
  0
ARC
  5
1A3
  8
0
 10
50.03125
 20
0.0
 30
0.0
 40
21.53125
 50
144.5106567498861
 51
215.48934325011379
  0
ARC
  5
1A4
  8
0
 10
-0.03125
 20
0.0
 30
0.0
 40
21.53125
 50
324.5106567498861
 51
35.489343250113862
  0
LINE
  5
1A5
  8
0
 10
11.5
 20
-11.0
 30
0.0
 11
11.5
 21
11.0
 31
0.0
  0
LINE
  5
1A6
  8
0
 10
10.5
 20
-12.5
 30
0.0
 11
10.5
 21
-11.5
 31
0.0
  0
LINE
  5
1A7
  8
0
 10
11.0
 20
-11.5
 30
0.0
 11
11.5
 21
-11.0
 31
0.0
  0
LINE
  5
1A8
  8
0
 10
39.0
 20
-11.5
 30
0.0
 11
38.5
 21
-11.0
 31
0.0
  0
LINE
  5
1A9
  8
0
 10
39.5
 20
-12.5
 30
0.0
 11
39.5
 21
-11.5
 31
0.0
  0
LINE
  5
1AA
  8
0
 10
10.5
 20
12.5
 30
0.0
 11
10.5
 21
11.5
 31
0.0
  0
LINE
  5
1AB
  8
0
 10
11.5
 20
11.0
 30
0.0
 11
11.0
 21
11.5
 31
0.0
  0
LINE
  5
1AC
  8
0
 10
38.5
 20
11.0
 30
0.0
 11
39.0
 21
11.5
 31
0.0
  0
LINE
  5
1AD
  8
0
 10
39.5
 20
12.5
 30
0.0
 11
39.5
 21
11.5
 31
0.0
  0
LINE
  5
1AE
  8
0
 10
61.5
 20
11.0
 30
0.0
 11
61.5
 21
-11.0
 31
0.0
  0
ARC
  5
1AF
  8
0
 10
49.160094539223223
 20
-46.827602935262568
 30
0.0
 40
26.840747389652769
 50
65.008206989425133
 51
88.20679750307265
  0
LINE
  5
1B0
  8
0
 10
60.5
 20
-22.5
 30
0.0
 11
60.5
 21
-12.5
 31
0.0
  0
LINE
  5
1B1
  8
0
 10
61.5
 20
-11.0
 30
0.0
 11
61.0
 21
-11.5
 31
0.0
  0
LINE
  5
1B2
  8
0
 10
60.5
 20
-12.5
 30
0.0
 11
60.5
 21
-11.5
 31
0.0
  0
LINE
  5
1B3
  8
0
 10
61.0
 20
11.5
 30
0.0
 11
61.5
 21
11.0
 31
0.0
  0
LINE
  5
1B4
  8
0
 10
60.5
 20
12.5
 30
0.0
 11
60.5
 21
11.5
 31
0.0
  0
ARC
  5
1B5
  8
0
 10
50.0
 20
40.499999999999993
 30
0.0
 40
19.5
 50
247.38013505195951
 51
292.61986494804029
  0
LINE
  5
1B6
  8
0
 10
50.0
 20
20.0
 30
0.0
 11
40.0
 21
20.0
 31
0.0
  0
ARC
  5
1B7
  8
0
 10
49.160094539223223
 20
46.827602935262568
 30
0.0
 40
26.840747389652769
 50
271.79320249692728
 51
294.99179301057478
  0
ENDBLK
  5
1B8
  8
0
  0
BLOCK
  8
0
  2
25V
 70
     0
 10
0.0
 20
0.0
 30
0.0
  3
25V
  1
25V
  0
LINE
  5
1BA
  8
0
  6
DASHED
 10
-54.0
 20
12.5
 30
0.0
 11
-28.0
 21
12.5
 31
0.0
  0
LINE
  5
1BB
  8
0
  6
DASHED
 10
-28.0
 20
-12.5
 30
0.0
 11
-54.0
 21
-12.5
 31
0.0
  0
LINE
  5
1BC
  8
0
 10
-24.5
 20
-25.0
 30
0.0
 11
-53.0
 21
-25.0
 31
0.0
  0
LINE
  5
1BD
  8
0
 10
-53.0
 20
25.0
 30
0.0
 11
-24.5
 21
25.0
 31
0.0
  0
LINE
  5
1BE
  8
0
 10
-53.0
 20
-25.0
 30
0.0
 11
-53.0
 21
25.0
 31
0.0
  0
LINE
  5
1BF
  8
0
 10
-54.0
 20
-24.0
 30
0.0
 11
-54.0
 21
24.0
 31
0.0
  0
LINE
  5
1C0
  8
0
 10
-54.0
 20
-24.0
 30
0.0
 11
-53.0
 21
-25.0
 31
0.0
  0
LINE
  5
1C1
  8
0
 10
-53.0
 20
25.0
 30
0.0
 11
-54.0
 21
24.0
 31
0.0
  0
LINE
  5
1C2
  8
0
  6
DASHED
 10
-28.0
 20
12.5
 30
0.0
 11
-24.5
 21
25.0
 31
0.0
  0
LINE
  5
1C3
  8
0
 10
-24.5
 20
25.0
 30
0.0
 11
-11.5
 21
12.5
 31
0.0
  0
LINE
  5
1C4
  8
0
  6
DASHED
 10
-24.5
 20
-25.0
 30
0.0
 11
-28.0
 21
-12.5
 31
0.0
  0
LINE
  5
1C5
  8
0
 10
-11.5
 20
-12.5
 30
0.0
 11
-24.5
 21
-25.0
 31
0.0
  0
LINE
  5
1C6
  8
0
 10
-11.5
 20
12.5
 30
0.0
 11
0.0
 21
12.5
 31
0.0
  0
LINE
  5
1C7
  8
0
 10
0.0
 20
-12.5
 30
0.0
 11
-11.5
 21
-12.5
 31
0.0
  0
ARC
  5
1C8
  8
0
 10
0.0
 20
0.0
 30
0.0
 40
12.5
 50
270.0
 51
90.0
  0
CIRCLE
  5
1C9
  8
0
 10
0.0
 20
0.0
 30
0.0
 40
1.5
  0
CIRCLE
  5
1CA
  8
0
 10
0.0
 20
0.0
 30
0.0
 40
8.0
  0
ENDBLK
  5
1CB
  8
0
  0
BLOCK
  8
0
  2
25H
 70
     0
 10
0.0
 20
0.0
 30
0.0
  3
25H
  1
25H
  0
LINE
  5
1CD
  8
0
 10
67.5
 20
-25.0
 30
0.0
 11
-12.5
 21
-25.0
 31
0.0
  0
LINE
  5
1CE
  8
0
 10
-12.5
 20
25.0
 30
0.0
 11
67.5
 21
25.0
 31
0.0
  0
LINE
  5
1CF
  8
0
 10
0.0000000000010516
 20
22.0
 30
0.0
 11
11.5
 21
22.0
 31
0.0
  0
LINE
  5
1D0
  8
0
 10
0.0000000000010516
 20
-22.0
 30
0.0
 11
11.5
 21
-22.0
 31
0.0
  0
LINE
  5
1D1
  8
0
 10
-12.5
 20
15.0
 30
0.0
 11
19.5
 21
15.0
 31
0.0
  0
LINE
  5
1D2
  8
0
 10
-12.5
 20
-15.0
 30
0.0
 11
19.5
 21
-15.0
 31
0.0
  0
POLYLINE
  5
1D3
  8
0
 66
     1
 10
0.0
 20
0.0
 30
0.0
 70
     1
  0
VERTEX
  5
362
  8
0
 10
-13.5
 20
13.5
 30
0.0
  0
VERTEX
  5
363
  8
0
 10
-13.5
 20
-13.5
 30
0.0
  0
VERTEX
  5
364
  8
0
 10
13.5
 20
-13.5
 30
0.0
  0
VERTEX
  5
365
  8
0
 10
13.5
 20
13.5
 30
0.0
  0
SEQEND
  5
366
  8
0
  0
LINE
  5
1D9
  8
0
 10
-13.0
 20
15.0
 30
0.0
 11
-13.0
 21
13.5
 31
0.0
  0
ARC
  5
1DA
  8
0
 10
0.0
 20
-45.583333333333307
 30
0.0
 40
22.083333333333329
 50
68.760689447689757
 51
111.2393105523102
  0
ARC
  5
1DB
  8
0
 10
0.1041019662496865
 20
-49.975424859373703
 30
0.0
 40
27.975618550477861
 50
90.213207692256788
 51
116.77825886933471
  0
LINE
  5
1DC
  8
0
 10
-12.5
 20
-25.0
 30
0.0
 11
-12.5
 21
-15.0
 31
0.0
  0
LINE
  5
1DD
  8
0
 10
-13.0
 20
-15.0
 30
0.0
 11
-13.0
 21
-13.5
 31
0.0
  0
LINE
  5
1DE
  8
0
 10
-12.5
 20
-15.0
 30
0.0
 11
-13.0
 21
-15.0
 31
0.0
  0
ARC
  5
1DF
  8
0
 10
0.0
 20
45.583333333333343
 30
0.0
 40
22.083333333333339
 50
248.76068944768971
 51
291.2393105523102
  0
ARC
  5
1E0
  8
0
 10
0.1041019662496865
 20
49.975424859373703
 30
0.0
 40
27.975618550477861
 50
243.22174113066509
 51
269.78679230774321
  0
LINE
  5
1E1
  8
0
 10
-12.5
 20
15.0
 30
0.0
 11
-12.5
 21
25.0
 31
0.0
  0
LINE
  5
1E2
  8
0
 10
-12.5
 20
15.0
 30
0.0
 11
-13.0
 21
15.0
 31
0.0
  0
LINE
  5
1E3
  8
0
 10
68.0
 20
15.0
 30
0.0
 11
68.0
 21
13.5
 31
0.0
  0
ARC
  5
1E4
  8
0
 10
52.939655172413779
 20
0.0
 30
0.0
 40
23.939655172413779
 50
113.2229728477769
 51
246.77702715222301
  0
ARC
  5
1E5
  8
0
 10
55.5
 20
0.0
 30
0.0
 40
25.0
 50
143.13010235415589
 51
216.86989764584399
  0
LINE
  5
1E6
  8
0
 10
42.0
 20
15.0
 30
0.0
 11
42.0
 21
13.5
 31
0.0
  0
LINE
  5
1E7
  8
0
 10
13.0
 20
15.0
 30
0.0
 11
13.0
 21
13.5
 31
0.0
  0
ARC
  5
1E8
  8
0
 10
-0.5
 20
0.0
 30
0.0
 40
25.0
 50
323.13010235415601
 51
36.869897645844013
  0
ARC
  5
1E9
  8
0
 10
2.0603448275862202
 20
0.0
 30
0.0
 40
23.939655172413779
 50
293.22297284777687
 51
66.77702715222307
  0
POLYLINE
  5
1EA
  8
0
 66
     1
 10
0.0
 20
0.0
 30
0.0
 70
     1
  0
VERTEX
  5
367
  8
0
 10
68.5
 20
13.5
 30
0.0
  0
VERTEX
  5
368
  8
0
 10
68.5
 20
-13.5
 30
0.0
  0
VERTEX
  5
369
  8
0
 10
41.5
 20
-13.5
 30
0.0
  0
VERTEX
  5
36A
  8
0
 10
41.5
 20
13.5
 30
0.0
  0
SEQEND
  5
36B
  8
0
  0
LINE
  5
1F0
  8
0
 10
67.5
 20
-15.0
 30
0.0
 11
35.5
 21
-15.0
 31
0.0
  0
LINE
  5
1F1
  8
0
 10
13.0
 20
-15.0
 30
0.0
 11
13.0
 21
-13.5
 31
0.0
  0
LINE
  5
1F2
  8
0
 10
42.0
 20
-15.0
 30
0.0
 11
42.0
 21
-13.5
 31
0.0
  0
ARC
  5
1F3
  8
0
 10
54.895898033750314
 20
-49.975424859373703
 30
0.0
 40
27.975618550477861
 50
63.221741130665208
 51
89.786792307743198
  0
ARC
  5
1F4
  8
0
 10
55.0
 20
-45.583333333333307
 30
0.0
 40
22.083333333333329
 50
68.760689447689771
 51
111.2393105523102
  0
LINE
  5
1F5
  8
0
 10
54.99999999999897
 20
-22.0
 30
0.0
 11
43.5
 21
-22.0
 31
0.0
  0
LINE
  5
1F6
  8
0
 10
67.5
 20
-25.0
 30
0.0
 11
67.5
 21
-15.0
 31
0.0
  0
LINE
  5
1F7
  8
0
 10
68.0
 20
-15.0
 30
0.0
 11
68.0
 21
-13.5
 31
0.0
  0
LINE
  5
1F8
  8
0
 10
67.5
 20
-15.0
 30
0.0
 11
68.0
 21
-15.0
 31
0.0
  0
LINE
  5
1F9
  8
0
 10
67.5
 20
15.0
 30
0.0
 11
35.5
 21
15.0
 31
0.0
  0
ARC
  5
1FA
  8
0
 10
54.895898033750314
 20
49.975424859373703
 30
0.0
 40
27.975618550477861
 50
270.21320769225679
 51
296.77825886933482
  0
ARC
  5
1FB
  8
0
 10
55.0
 20
45.583333333333343
 30
0.0
 40
22.083333333333339
 50
248.76068944768971
 51
291.2393105523102
  0
LINE
  5
1FC
  8
0
 10
54.99999999999897
 20
22.0
 30
0.0
 11
43.5
 21
22.0
 31
0.0
  0
LINE
  5
1FD
  8
0
 10
67.5
 20
15.0
 30
0.0
 11
67.5
 21
25.0
 31
0.0
  0
LINE
  5
1FE
  8
0
 10
67.5
 20
15.0
 30
0.0
 11
68.0
 21
15.0
 31
0.0
  0
ENDBLK
  5
1FF
  8
0
  0
BLOCK
  8
0
  2
30V
 70
     0
 10
0.0
 20
0.0
 30
0.0
  3
30V
  1
30V
  0
LINE
  5
201
  8
0
  6
DASHED
 10
-61.0
 20
15.0
 30
0.0
 11
-32.0
 21
15.0
 31
0.0
  0
LINE
  5
202
  8
0
  6
DASHED
 10
-32.0
 20
-15.0
 30
0.0
 11
-61.0
 21
-15.0
 31
0.0
  0
LINE
  5
203
  8
0
 10
-60.0
 20
29.0
 30
0.0
 11
-27.5
 21
29.0
 31
0.0
  0
LINE
  5
204
  8
0
 10
-27.5
 20
-29.0
 30
0.0
 11
-60.0
 21
-29.0
 31
0.0
  0
LINE
  5
205
  8
0
 10
-60.0
 20
29.0
 30
0.0
 11
-60.0
 21
-29.0
 31
0.0
  0
LINE
  5
206
  8
0
 10
-61.0
 20
-28.0
 30
0.0
 11
-61.0
 21
28.0
 31
0.0
  0
LINE
  5
207
  8
0
 10
-60.0
 20
-29.0
 30
0.0
 11
-61.0
 21
-28.0
 31
0.0
  0
LINE
  5
208
  8
0
 10
-61.0
 20
28.0
 30
0.0
 11
-60.0
 21
29.0
 31
0.0
  0
LINE
  5
209
  8
0
  6
DASHED
 10
-32.0
 20
15.0
 30
0.0
 11
-27.5
 21
29.0
 31
0.0
  0
LINE
  5
20A
  8
0
 10
-27.5
 20
29.0
 30
0.0
 11
-11.5
 21
14.5
 31
0.0
  0
LINE
  5
20B
  8
0
  6
DASHED
 10
-27.5
 20
-29.0
 30
0.0
 11
-32.0
 21
-15.0
 31
0.0
  0
LINE
  5
20C
  8
0
 10
-11.5
 20
-14.5
 30
0.0
 11
-27.5
 21
-29.0
 31
0.0
  0
ARC
  5
20D
  8
0
 10
0.0
 20
0.0
 30
0.0
 40
14.5
 50
270.0
 51
90.0
  0
CIRCLE
  5
20E
  8
0
 10
0.0
 20
0.0
 30
0.0
 40
9.0
  0
LINE
  5
20F
  8
0
 10
0.0
 20
-14.5
 30
0.0
 11
-11.5
 21
-14.5
 31
0.0
  0
LINE
  5
210
  8
0
 10
-11.5
 20
14.5
 30
0.0
 11
0.0
 21
14.5
 31
0.0
  0
CIRCLE
  5
211
  8
0
 10
0.0
 20
0.0
 30
0.0
 40
2.0
  0
ENDBLK
  5
212
  8
0
  0
BLOCK
  8
0
  2
30H
 70
     0
 10
0.0
 20
0.0
 30
0.0
  3
30H
  1
30H
  0
LINE
  5
214
  8
0
 10
-14.5
 20
18.0
 30
0.0
 11
-14.5
 21
29.0
 31
0.0
  0
ARC
  5
215
  8
0
 10
2.4375
 20
0.0
 30
0.0
 40
27.0625
 50
289.56481406361451
 51
70.435185936385437
  0
LINE
  5
216
  8
0
 10
61.0
 20
-28.0
 30
0.0
 11
61.0
 21
28.0
 31
0.0
  0
LINE
  5
217
  8
0
 10
60.0
 20
29.0
 30
0.0
 11
60.0
 21
-29.0
 31
0.0
  0
LINE
  5
218
  8
0
 10
16.0
 20
16.0
 30
0.0
 11
-16.0
 21
16.0
 31
0.0
  0
LINE
  5
219
  8
0
 10
-16.0
 20
-16.0
 30
0.0
 11
16.0
 21
-16.0
 31
0.0
  0
LINE
  5
21A
  8
0
 10
-14.5
 20
-18.0
 30
0.0
 11
21.499999999999989
 21
-18.0
 31
0.0
  0
LINE
  5
21B
  8
0
 10
-14.5
 20
18.0
 30
0.0
 11
21.499999999999989
 21
18.0
 31
0.0
  0
LINE
  5
21C
  8
0
 10
-14.5
 20
-29.0
 30
0.0
 11
60.0
 21
-29.0
 31
0.0
  0
LINE
  5
21D
  8
0
 10
-14.5
 20
-29.0
 30
0.0
 11
-14.5
 21
-18.0
 31
0.0
  0
ARC
  5
21E
  8
0
 10
-0.2042308768972134
 20
-56.439614938568582
 30
0.0
 40
30.940288990214281
 50
89.62179886968778
 51
117.5190699006353
  0
ARC
  5
21F
  8
0
 10
0.0
 20
-48.25
 30
0.0
 40
21.25
 50
64.942384581696999
 51
115.0576154183029
  0
LINE
  5
220
  8
0
 10
-16.0
 20
16.0
 30
0.0
 11
-16.0
 21
-16.0
 31
0.0
  0
LINE
  5
221
  8
0
 10
-15.0
 20
-18.0
 30
0.0
 11
-15.0
 21
-16.0
 31
0.0
  0
LINE
  5
222
  8
0
 10
-14.5
 20
-18.0
 30
0.0
 11
-15.0
 21
-18.0
 31
0.0
  0
LINE
  5
223
  8
0
 10
-0.4084617537961322
 20
-25.5
 30
0.0
 11
11.5
 21
-25.5
 31
0.0
  0
LINE
  5
224
  8
0
 10
-15.0
 20
18.0
 30
0.0
 11
-15.0
 21
16.0
 31
0.0
  0
LINE
  5
225
  8
0
 10
-14.5
 20
18.0
 30
0.0
 11
-15.0
 21
18.0
 31
0.0
  0
LINE
  5
226
  8
0
 10
60.0
 20
-29.0
 30
0.0
 11
61.0
 21
-28.0
 31
0.0
  0
LINE
  5
227
  8
0
  6
DASHED
 10
23.48076211353316
 20
-15.0
 30
0.0
 11
61.0
 21
-15.0
 31
0.0
  0
LINE
  5
228
  8
0
  6
DASHED
 10
61.0
 20
15.0
 30
0.0
 11
23.48076211353316
 21
15.0
 31
0.0
  0
LINE
  5
229
  8
0
 10
16.0
 20
-16.0
 30
0.0
 11
16.0
 21
16.0
 31
0.0
  0
ARC
  5
22A
  8
0
 10
-2.5
 20
0.0
 30
0.0
 40
30.0
 50
323.13010235415601
 51
36.869897645844013
  0
LINE
  5
22B
  8
0
 10
15.0
 20
-18.0
 30
0.0
 11
15.0
 21
-16.0
 31
0.0
  0
LINE
  5
22C
  8
0
 10
15.0
 20
18.0
 30
0.0
 11
15.0
 21
16.0
 31
0.0
  0
LINE
  5
22D
  8
0
 10
60.0
 20
29.0
 30
0.0
 11
-14.5
 21
29.0
 31
0.0
  0
ARC
  5
22E
  8
0
 10
-0.2042308768972134
 20
56.439614938568582
 30
0.0
 40
30.940288990214281
 50
242.4809300993646
 51
270.37820113031222
  0
ARC
  5
22F
  8
0
 10
0.0
 20
48.25
 30
0.0
 40
21.25
 50
244.9423845816969
 51
295.05761541830299
  0
LINE
  5
230
  8
0
 10
-0.4084617537961322
 20
25.5
 30
0.0
 11
11.5
 21
25.5
 31
0.0
  0
LINE
  5
231
  8
0
 10
61.0
 20
28.0
 30
0.0
 11
60.0
 21
29.0
 31
0.0
  0
ENDBLK
  5
232
  8
0
  0
BLOCK
  8
0
  2
12V
 70
     0
 10
0.0
 20
0.0
 30
0.0
  3
12V
  1
12V
  0
LINE
  5
234
  8
0
  6
DASHED
 10
-28.0
 20
6.0
 30
0.0
 11
-15.0
 21
6.0
 31
0.0
  0
LINE
  5
235
  8
0
  6
DASHED
 10
-28.0
 20
-6.0
 30
0.0
 11
-15.0
 21
-6.0
 31
0.0
  0
LINE
  5
236
  8
0
 10
-27.5
 20
12.5
 30
0.0
 11
-13.0
 21
12.5
 31
0.0
  0
LINE
  5
237
  8
0
 10
-13.0
 20
-12.5
 30
0.0
 11
-27.5
 21
-12.5
 31
0.0
  0
LINE
  5
238
  8
0
 10
-27.5
 20
12.5
 30
0.0
 11
-27.5
 21
-12.5
 31
0.0
  0
LINE
  5
239
  8
0
 10
-28.0
 20
-12.0
 30
0.0
 11
-28.0
 21
12.0
 31
0.0
  0
LINE
  5
23A
  8
0
 10
-27.5
 20
-12.5
 30
0.0
 11
-28.0
 21
-12.0
 31
0.0
  0
LINE
  5
23B
  8
0
 10
-28.0
 20
12.0
 30
0.0
 11
-27.5
 21
12.5
 31
0.0
  0
LINE
  5
23C
  8
0
  6
DASHED
 10
-15.0
 20
-6.0
 30
0.0
 11
-13.0
 21
-12.5
 31
0.0
  0
LINE
  5
23D
  8
0
 10
-7.0
 20
-6.5
 30
0.0
 11
-13.0
 21
-12.5
 31
0.0
  0
LINE
  5
23E
  8
0
 10
-7.0
 20
6.5
 30
0.0
 11
0.0
 21
6.5
 31
0.0
  0
LINE
  5
23F
  8
0
 10
0.0
 20
-6.5
 30
0.0
 11
-7.0
 21
-6.5
 31
0.0
  0
CIRCLE
  5
240
  8
0
 10
0.0
 20
0.0
 30
0.0
 40
4.5
  0
LINE
  5
241
  8
0
 10
-13.0
 20
12.5
 30
0.0
 11
-7.0
 21
6.5
 31
0.0
  0
LINE
  5
242
  8
0
  6
DASHED
 10
-15.0
 20
6.0
 30
0.0
 11
-13.0
 21
12.5
 31
0.0
  0
ARC
  5
243
  8
0
 10
0.0
 20
0.0
 30
0.0
 40
6.5
 50
270.0
 51
90.0
  0
CIRCLE
  5
244
  8
0
 10
0.0
 20
0.0
 30
0.0
 40
0.75
  0
ENDBLK
  5
245
  8
0
  0
BLOCK
  8
0
  2
12H
 70
     0
 10
0.0
 20
0.0
 30
0.0
  3
12H
  1
12H
  0
LINE
  5
247
  8
0
 10
36.5
 20
-12.5
 30
0.0
 11
-6.5
 21
-12.5
 31
0.0
  0
LINE
  5
248
  8
0
 10
-6.5
 20
12.5
 30
0.0
 11
36.5
 21
12.5
 31
0.0
  0
LINE
  5
249
  8
0
 10
22.5
 20
7.0
 30
0.0
 11
23.0
 21
7.5
 31
0.0
  0
LINE
  5
24A
  8
0
 10
36.5
 20
8.0
 30
0.0
 11
19.5
 21
8.0
 31
0.0
  0
LINE
  5
24B
  8
0
 10
23.0
 20
-7.5
 30
0.0
 11
22.5
 21
-7.0
 31
0.0
  0
LINE
  5
24C
  8
0
 10
36.5
 20
-8.0
 30
0.0
 11
19.5
 21
-8.0
 31
0.0
  0
ARC
  5
24D
  8
0
 10
29.92307692307693
 20
0.0
 30
0.0
 40
13.42307692307692
 50
121.04822199350851
 51
238.95177800649139
  0
LINE
  5
24E
  8
0
 10
22.5
 20
-7.0
 30
0.0
 11
22.5
 21
7.0
 31
0.0
  0
ARC
  5
24F
  8
0
 10
31.050000000000011
 20
0.0
 30
0.0
 40
14.05000000000001
 50
145.29195072747731
 51
214.7080492725226
  0
ARC
  5
250
  8
0
 10
-1.0500000000000109
 20
0.0
 30
0.0
 40
14.05000000000001
 50
325.2919507274774
 51
34.708049272522622
  0
LINE
  5
251
  8
0
 10
7.5
 20
-7.0
 30
0.0
 11
7.5
 21
7.0
 31
0.0
  0
LINE
  5
252
  8
0
 10
-7.5
 20
7.0
 30
0.0
 11
-7.5
 21
-7.0
 31
0.0
  0
ARC
  5
253
  8
0
 10
0.076923076923066
 20
0.0
 30
0.0
 40
13.42307692307692
 50
301.04822199350849
 51
58.951778006491431
  0
LINE
  5
254
  8
0
 10
-6.5
 20
-8.0
 30
0.0
 11
10.5
 21
-8.0
 31
0.0
  0
LINE
  5
255
  8
0
 10
-7.0
 20
-7.5
 30
0.0
 11
7.0
 21
-7.5
 31
0.0
  0
LINE
  5
256
  8
0
 10
-0.00000000000054
 20
-11.5
 30
0.0
 11
7.0
 21
-11.5
 31
0.0
  0
ARC
  5
257
  8
0
 10
0.0
 20
-32.5
 30
0.0
 40
20.5
 50
77.319616508180161
 51
102.6803834918198
  0
ARC
  5
258
  8
0
 10
0.0751838135919343
 20
-33.613694788347537
 30
0.0
 40
22.113822595788719
 50
90.194797778029013
 51
107.29752674708131
  0
LINE
  5
259
  8
0
 10
-6.5
 20
-12.5
 30
0.0
 11
-6.5
 21
-8.0
 31
0.0
  0
LINE
  5
25A
  8
0
 10
-6.5
 20
-8.0
 30
0.0
 11
-6.5
 21
-7.5
 31
0.0
  0
LINE
  5
25B
  8
0
 10
-7.5
 20
-7.0
 30
0.0
 11
-7.0
 21
-7.5
 31
0.0
  0
LINE
  5
25C
  8
0
 10
7.0
 20
-7.5
 30
0.0
 11
7.5
 21
-7.0
 31
0.0
  0
LINE
  5
25D
  8
0
 10
6.5
 20
-8.0
 30
0.0
 11
6.5
 21
-7.5
 31
0.0
  0
LINE
  5
25E
  8
0
 10
-0.00000000000054
 20
11.5
 30
0.0
 11
7.0
 21
11.5
 31
0.0
  0
LINE
  5
25F
  8
0
 10
-6.5
 20
8.0
 30
0.0
 11
10.5
 21
8.0
 31
0.0
  0
LINE
  5
260
  8
0
 10
7.0
 20
7.5
 30
0.0
 11
-7.0
 21
7.5
 31
0.0
  0
ARC
  5
261
  8
0
 10
0.0
 20
32.5
 30
0.0
 40
20.5
 50
257.3196165081801
 51
282.68038349181978
  0
ARC
  5
262
  8
0
 10
0.0751838135919343
 20
33.613694788347537
 30
0.0
 40
22.113822595788719
 50
252.70247325291859
 51
269.805202221971
  0
LINE
  5
263
  8
0
 10
-6.5
 20
8.0
 30
0.0
 11
-6.5
 21
12.5
 31
0.0
  0
LINE
  5
264
  8
0
 10
-6.5
 20
8.0
 30
0.0
 11
-6.5
 21
7.5
 31
0.0
  0
LINE
  5
265
  8
0
 10
-7.0
 20
7.5
 30
0.0
 11
-7.5
 21
7.0
 31
0.0
  0
LINE
  5
266
  8
0
 10
7.5
 20
7.0
 30
0.0
 11
7.0
 21
7.5
 31
0.0
  0
LINE
  5
267
  8
0
 10
6.5
 20
8.0
 30
0.0
 11
6.5
 21
7.5
 31
0.0
  0
LINE
  5
268
  8
0
 10
37.5
 20
7.0
 30
0.0
 11
37.5
 21
-7.0
 31
0.0
  0
LINE
  5
269
  8
0
 10
37.0
 20
-7.5
 30
0.0
 11
23.0
 21
-7.5
 31
0.0
  0
ARC
  5
26A
  8
0
 10
30.0
 20
-32.5
 30
0.0
 40
20.5
 50
77.319616508180161
 51
102.6803834918198
  0
ARC
  5
26B
  8
0
 10
29.924816186408059
 20
-33.613694788347537
 30
0.0
 40
22.113822595788719
 50
72.702473252918608
 51
89.805202221970987
  0
LINE
  5
26C
  8
0
 10
30.00000000000054
 20
-11.5
 30
0.0
 11
23.0
 21
-11.5
 31
0.0
  0
LINE
  5
26D
  8
0
 10
23.5
 20
-8.0
 30
0.0
 11
23.5
 21
-7.5
 31
0.0
  0
LINE
  5
26E
  8
0
 10
36.5
 20
-12.5
 30
0.0
 11
36.5
 21
-8.0
 31
0.0
  0
LINE
  5
26F
  8
0
 10
36.5
 20
-8.0
 30
0.0
 11
36.5
 21
-7.5
 31
0.0
  0
LINE
  5
270
  8
0
 10
37.5
 20
-7.0
 30
0.0
 11
37.0
 21
-7.5
 31
0.0
  0
LINE
  5
271
  8
0
 10
23.0
 20
7.5
 30
0.0
 11
37.0
 21
7.5
 31
0.0
  0
ARC
  5
272
  8
0
 10
30.0
 20
32.5
 30
0.0
 40
20.5
 50
257.3196165081801
 51
282.68038349181978
  0
ARC
  5
273
  8
0
 10
29.924816186408059
 20
33.613694788347537
 30
0.0
 40
22.113822595788719
 50
270.194797778029
 51
287.29752674708141
  0
LINE
  5
274
  8
0
 10
30.00000000000054
 20
11.5
 30
0.0
 11
23.0
 21
11.5
 31
0.0
  0
LINE
  5
275
  8
0
 10
23.5
 20
8.0
 30
0.0
 11
23.5
 21
7.5
 31
0.0
  0
LINE
  5
276
  8
0
 10
36.5
 20
8.0
 30
0.0
 11
36.5
 21
12.5
 31
0.0
  0
LINE
  5
277
  8
0
 10
36.5
 20
8.0
 30
0.0
 11
36.5
 21
7.5
 31
0.0
  0
LINE
  5
278
  8
0
 10
37.0
 20
7.5
 30
0.0
 11
37.5
 21
7.0
 31
0.0
  0
ENDBLK
  5
279
  8
0
  0
BLOCK
  8
0
  2
10V
 70
     0
 10
0.0
 20
0.0
 30
0.0
  3
10V
  1
10V
  0
LINE
  5
27B
  8
0
  6
DASHED
 10
-24.0
 20
5.0
 30
0.0
 11
-12.0
 21
5.0
 31
0.0
  0
LINE
  5
27C
  8
0
  6
DASHED
 10
-24.0
 20
-5.0
 30
0.0
 11
-12.0
 21
-5.0
 31
0.0
  0
LINE
  5
27D
  8
0
 10
-23.5
 20
11.0
 30
0.0
 11
-12.0
 21
11.0
 31
0.0
  0
LINE
  5
27E
  8
0
 10
-12.0
 20
-11.0
 30
0.0
 11
-23.5
 21
-11.0
 31
0.0
  0
LINE
  5
27F
  8
0
 10
-23.5
 20
11.0
 30
0.0
 11
-23.5
 21
-11.0
 31
0.0
  0
LINE
  5
280
  8
0
 10
-24.0
 20
-10.5
 30
0.0
 11
-24.0
 21
10.5
 31
0.0
  0
LINE
  5
281
  8
0
 10
-23.5
 20
-11.0
 30
0.0
 11
-24.0
 21
-10.5
 31
0.0
  0
LINE
  5
282
  8
0
 10
-24.0
 20
10.5
 30
0.0
 11
-23.5
 21
11.0
 31
0.0
  0
LINE
  5
283
  8
0
  6
DASHED
 10
-12.0
 20
-5.0
 30
0.0
 11
-12.0
 21
-11.0
 31
0.0
  0
LINE
  5
284
  8
0
 10
-6.5
 20
-5.5
 30
0.0
 11
-12.0
 21
-11.0
 31
0.0
  0
ARC
  5
285
  8
0
 10
0.0
 20
0.0
 30
0.0
 40
5.5
 50
270.0
 51
90.0
  0
CIRCLE
  5
286
  8
0
 10
0.0
 20
0.0
 30
0.0
 40
3.5
  0
LINE
  5
287
  8
0
 10
0.0
 20
-5.5
 30
0.0
 11
-6.5
 21
-5.5
 31
0.0
  0
CIRCLE
  5
288
  8
0
 10
0.0
 20
0.0
 30
0.0
 40
0.75
  0
LINE
  5
289
  8
0
 10
-6.5
 20
5.5
 30
0.0
 11
0.0
 21
5.5
 31
0.0
  0
LINE
  5
28A
  8
0
  6
DASHED
 10
-12.0
 20
5.0
 30
0.0
 11
-12.0
 21
11.0
 31
0.0
  0
LINE
  5
28B
  8
0
 10
-12.0
 20
11.0
 30
0.0
 11
-6.5
 21
5.5
 31
0.0
  0
ENDBLK
  5
28C
  8
0
  0
BLOCK
  8
0
  2
10H
 70
     0
 10
0.0
 20
0.0
 30
0.0
  3
10H
  1
10H
  0
LINE
  5
28E
  8
0
 10
31.5
 20
-11.0
 30
0.0
 11
-5.5
 21
-11.0
 31
0.0
  0
LINE
  5
28F
  8
0
 10
-5.5
 20
11.0
 30
0.0
 11
31.5
 21
11.0
 31
0.0
  0
LINE
  5
290
  8
0
 10
-5.5
 20
7.0
 30
0.0
 11
9.0
 21
7.0
 31
0.0
  0
LINE
  5
291
  8
0
 10
-5.5
 20
-7.0
 30
0.0
 11
9.0
 21
-7.0
 31
0.0
  0
LINE
  5
292
  8
0
 10
-5.5
 20
9.5
 30
0.0
 11
6.5
 21
9.5
 31
0.0
  0
ARC
  5
293
  8
0
 10
0.0
 20
23.0
 30
0.0
 40
12.5
 50
253.73979529168801
 51
286.2602047083119
  0
LINE
  5
294
  8
0
 10
6.0
 20
6.5
 30
0.0
 11
-6.0
 21
6.5
 31
0.0
  0
LINE
  5
295
  8
0
 10
-6.0
 20
-6.5
 30
0.0
 11
6.0
 21
-6.5
 31
0.0
  0
LINE
  5
296
  8
0
 10
-5.5
 20
-9.5
 30
0.0
 11
6.5
 21
-9.5
 31
0.0
  0
ARC
  5
297
  8
0
 10
0.0
 20
-23.0
 30
0.0
 40
12.5
 50
73.739795291688054
 51
106.2602047083119
  0
LINE
  5
298
  8
0
 10
-6.5
 20
6.0
 30
0.0
 11
-6.5
 21
-6.0
 31
0.0
  0
LINE
  5
299
  8
0
 10
-5.5
 20
-7.0
 30
0.0
 11
-5.5
 21
-6.5
 31
0.0
  0
LINE
  5
29A
  8
0
 10
-6.5
 20
-6.0
 30
0.0
 11
-6.0
 21
-6.5
 31
0.0
  0
LINE
  5
29B
  8
0
 10
-5.5
 20
-11.0
 30
0.0
 11
-5.5
 21
-7.0
 31
0.0
  0
LINE
  5
29C
  8
0
 10
-5.5
 20
7.0
 30
0.0
 11
-5.5
 21
6.5
 31
0.0
  0
LINE
  5
29D
  8
0
 10
-5.5
 20
7.0
 30
0.0
 11
-5.5
 21
11.0
 31
0.0
  0
LINE
  5
29E
  8
0
 10
-6.0
 20
6.5
 30
0.0
 11
-6.5
 21
6.0
 31
0.0
  0
ARC
  5
29F
  8
0
 10
24.020833333333339
 20
0.0
 30
0.0
 40
10.52083333333333
 50
115.44871137084471
 51
244.55128862915521
  0
ARC
  5
2A0
  8
0
 10
25.550000000000011
 20
0.0
 30
0.0
 40
11.050000000000001
 50
140.69235188389331
 51
219.30764811610649
  0
ARC
  5
2A1
  8
0
 10
1.7717391304347809
 20
0.1310068649885636
 30
0.0
 40
10.72906072702165
 50
296.1483371047849
 51
60.836791377665108
  0
ARC
  5
2A2
  8
0
 10
0.4499999999999887
 20
0.0
 30
0.0
 40
11.050000000000001
 50
320.69235188389342
 51
39.307648116106591
  0
LINE
  5
2A3
  8
0
 10
32.5
 20
6.0
 30
0.0
 11
32.5
 21
-6.0
 31
0.0
  0
LINE
  5
2A4
  8
0
 10
19.5
 20
-6.0
 30
0.0
 11
19.5
 21
6.0
 31
0.0
  0
LINE
  5
2A5
  8
0
 10
6.5
 20
-6.0
 30
0.0
 11
6.5
 21
6.0
 31
0.0
  0
LINE
  5
2A6
  8
0
 10
5.5
 20
-7.0
 30
0.0
 11
5.5
 21
-6.5
 31
0.0
  0
LINE
  5
2A7
  8
0
 10
6.0
 20
-6.5
 30
0.0
 11
6.5
 21
-6.0
 31
0.0
  0
LINE
  5
2A8
  8
0
 10
31.5
 20
-7.0
 30
0.0
 11
17.0
 21
-7.0
 31
0.0
  0
LINE
  5
2A9
  8
0
 10
32.0
 20
-6.5
 30
0.0
 11
20.0
 21
-6.5
 31
0.0
  0
LINE
  5
2AA
  8
0
 10
31.5
 20
-9.5
 30
0.0
 11
19.5
 21
-9.5
 31
0.0
  0
ARC
  5
2AB
  8
0
 10
26.0
 20
-23.0
 30
0.0
 40
12.5
 50
73.739795291688054
 51
106.2602047083119
  0
LINE
  5
2AC
  8
0
 10
20.5
 20
-7.0
 30
0.0
 11
20.5
 21
-6.5
 31
0.0
  0
LINE
  5
2AD
  8
0
 10
20.0
 20
-6.5
 30
0.0
 11
19.5
 21
-6.0
 31
0.0
  0
LINE
  5
2AE
  8
0
 10
32.5
 20
-6.0
 30
0.0
 11
32.0
 21
-6.5
 31
0.0
  0
LINE
  5
2AF
  8
0
 10
31.5
 20
-7.0
 30
0.0
 11
31.5
 21
-6.5
 31
0.0
  0
LINE
  5
2B0
  8
0
 10
31.5
 20
-11.0
 30
0.0
 11
31.5
 21
-7.0
 31
0.0
  0
LINE
  5
2B1
  8
0
 10
5.5
 20
7.0
 30
0.0
 11
5.5
 21
6.5
 31
0.0
  0
LINE
  5
2B2
  8
0
 10
6.5
 20
6.0
 30
0.0
 11
6.0
 21
6.5
 31
0.0
  0
LINE
  5
2B3
  8
0
 10
31.5
 20
7.0
 30
0.0
 11
17.0
 21
7.0
 31
0.0
  0
LINE
  5
2B4
  8
0
 10
31.5
 20
9.5
 30
0.0
 11
19.5
 21
9.5
 31
0.0
  0
ARC
  5
2B5
  8
0
 10
26.0
 20
23.0
 30
0.0
 40
12.5
 50
253.73979529168801
 51
286.2602047083119
  0
LINE
  5
2B6
  8
0
 10
20.0
 20
6.5
 30
0.0
 11
32.0
 21
6.5
 31
0.0
  0
LINE
  5
2B7
  8
0
 10
20.5
 20
7.0
 30
0.0
 11
20.5
 21
6.5
 31
0.0
  0
LINE
  5
2B8
  8
0
 10
19.5
 20
6.0
 30
0.0
 11
20.0
 21
6.5
 31
0.0
  0
LINE
  5
2B9
  8
0
 10
32.0
 20
6.5
 30
0.0
 11
32.5
 21
6.0
 31
0.0
  0
LINE
  5
2BA
  8
0
 10
31.5
 20
7.0
 30
0.0
 11
31.5
 21
6.5
 31
0.0
  0
LINE
  5
2BB
  8
0
 10
31.5
 20
7.0
 30
0.0
 11
31.5
 21
11.0
 31
0.0
  0
ENDBLK
  5
2BC
  8
0
  0
BLOCK
  8
0
  2
8V
 70
     0
 10
0.0
 20
0.0
 30
0.0
  3
8V
  1
8V
  0
LINE
  5
2BE
  8
0
  6
DASHED
 10
-20.0
 20
4.0
 30
0.0
 11
-9.0
 21
4.0
 31
0.0
  0
LINE
  5
2BF
  8
0
  6
DASHED
 10
-20.0
 20
-4.0
 30
0.0
 11
-9.0
 21
-4.0
 31
0.0
  0
LINE
  5
2C0
  8
0
 10
-19.5
 20
8.0
 30
0.0
 11
-8.5
 21
8.0
 31
0.0
  0
LINE
  5
2C1
  8
0
 10
-8.5
 20
-8.0
 30
0.0
 11
-19.5
 21
-8.0
 31
0.0
  0
LINE
  5
2C2
  8
0
 10
-19.5
 20
8.0
 30
0.0
 11
-19.5
 21
-8.0
 31
0.0
  0
LINE
  5
2C3
  8
0
 10
-20.0
 20
-7.5
 30
0.0
 11
-20.0
 21
7.5
 31
0.0
  0
LINE
  5
2C4
  8
0
 10
-19.5
 20
-8.0
 30
0.0
 11
-20.0
 21
-7.5
 31
0.0
  0
LINE
  5
2C5
  8
0
 10
-19.5
 20
8.0
 30
0.0
 11
-20.0
 21
7.5
 31
0.0
  0
LINE
  5
2C6
  8
0
  6
DASHED
 10
-9.0
 20
-4.0
 30
0.0
 11
-8.5
 21
-8.0
 31
0.0
  0
LINE
  5
2C7
  8
0
 10
-5.0
 20
-4.0
 30
0.0
 11
-8.5
 21
-8.0
 31
0.0
  0
LINE
  5
2C8
  8
0
  6
DASHED
 10
-9.0
 20
4.0
 30
0.0
 11
-8.5
 21
8.0
 31
0.0
  0
LINE
  5
2C9
  8
0
 10
-8.5
 20
8.0
 30
0.0
 11
-5.0
 21
4.0
 31
0.0
  0
LINE
  5
2CA
  8
0
 10
-5.0
 20
4.0
 30
0.0
 11
0.0
 21
4.0
 31
0.0
  0
LINE
  5
2CB
  8
0
 10
0.0
 20
-4.0
 30
0.0
 11
-5.0
 21
-4.0
 31
0.0
  0
CIRCLE
  5
2CC
  8
0
 10
0.0
 20
0.0
 30
0.0
 40
3.0
  0
ARC
  5
2CD
  8
0
 10
0.0
 20
0.0
 30
0.0
 40
4.0
 50
270.0
 51
90.0
  0
CIRCLE
  5
2CE
  8
0
 10
0.0
 20
0.0
 30
0.0
 40
0.75
  0
ENDBLK
  5
2CF
  8
0
  0
BLOCK
  8
0
  2
8H
 70
     0
 10
0.0
 20
0.0
 30
0.0
  3
8H
  1
8H
  0
LINE
  5
2D1
  8
0
 10
-4.0
 20
-8.0
 30
0.0
 11
26.0
 21
-8.0
 31
0.0
  0
LINE
  5
2D2
  8
0
 10
26.5
 20
8.0
 30
0.0
 11
-4.0
 21
8.0
 31
0.0
  0
ARC
  5
2D3
  8
0
 10
-0.5833333333333428
 20
0.0
 30
0.0
 40
9.083333333333341
 50
326.60151153201281
 51
33.3984884679872
  0
ARC
  5
2D4
  8
0
 10
1.805555555555542
 20
0.0
 30
0.0
 40
7.6944444444444491
 50
294.52954745578478
 51
65.470452544215121
  0
POLYLINE
  5
2D5
  8
0
 66
     1
 10
0.0
 20
0.0
 30
0.0
 70
     1
  0
VERTEX
  5
36C
  8
0
 10
-4.5
 20
4.5
 30
0.0
  0
VERTEX
  5
36D
  8
0
 10
-4.5
 20
-4.5
 30
0.0
  0
VERTEX
  5
36E
  8
0
 10
4.5
 20
-4.5
 30
0.0
  0
VERTEX
  5
36F
  8
0
 10
4.5
 20
4.5
 30
0.0
  0
SEQEND
  5
370
  8
0
  0
LINE
  5
2DB
  8
0
 10
-4.0
 20
-5.0
 30
0.0
 11
7.0
 21
-5.0
 31
0.0
  0
ARC
  5
2DC
  8
0
 10
0.0
 20
-16.75
 30
0.0
 40
9.25
 50
71.075355583948763
 51
108.92464441605119
  0
ARC
  5
2DD
  8
0
 10
1.0811388300841991
 20
-19.824555320336739
 30
0.0
 40
12.870045855951471
 50
94.818769056465541
 51
113.25371787938749
  0
LINE
  5
2DE
  8
0
 10
-4.0
 20
-5.0
 30
0.0
 11
-4.0
 21
-4.5
 31
0.0
  0
LINE
  5
2DF
  8
0
 10
-4.0
 20
-8.0
 30
0.0
 11
-4.0
 21
-5.0
 31
0.0
  0
LINE
  5
2E0
  8
0
 10
-0.0000000000000284
 20
-7.0
 30
0.0
 11
5.0
 21
-7.0
 31
0.0
  0
LINE
  5
2E1
  8
0
 10
4.0
 20
-5.0
 30
0.0
 11
4.0
 21
-4.5
 31
0.0
  0
ARC
  5
2E2
  8
0
 10
0.0
 20
16.75
 30
0.0
 40
9.25
 50
251.07535558394869
 51
288.92464441605119
  0
ARC
  5
2E3
  8
0
 10
1.0811388300841991
 20
19.824555320336739
 30
0.0
 40
12.870045855951471
 50
246.74628212061239
 51
265.18123094353439
  0
LINE
  5
2E4
  8
0
 10
-4.0
 20
5.0
 30
0.0
 11
7.0
 21
5.0
 31
0.0
  0
LINE
  5
2E5
  8
0
 10
-4.0
 20
5.0
 30
0.0
 11
-4.0
 21
8.0
 31
0.0
  0
LINE
  5
2E6
  8
0
 10
-4.0
 20
5.0
 30
0.0
 11
-4.0
 21
4.5
 31
0.0
  0
LINE
  5
2E7
  8
0
 10
4.0
 20
5.0
 30
0.0
 11
4.0
 21
4.5
 31
0.0
  0
LINE
  5
2E8
  8
0
 10
-0.0000000000000284
 20
7.0
 30
0.0
 11
5.0
 21
7.0
 31
0.0
  0
ARC
  5
2E9
  8
0
 10
22.583333333333339
 20
0.0
 30
0.0
 40
9.083333333333341
 50
146.60151153201269
 51
213.39848846798711
  0
ARC
  5
2EA
  8
0
 10
20.19444444444445
 20
0.0
 30
0.0
 40
7.6944444444444491
 50
114.52954745578479
 51
245.47045254421511
  0
POLYLINE
  5
2EB
  8
0
 66
     1
 10
0.0
 20
0.0
 30
0.0
 70
     1
  0
VERTEX
  5
371
  8
0
 10
26.5
 20
4.5
 30
0.0
  0
VERTEX
  5
372
  8
0
 10
26.5
 20
-4.5
 30
0.0
  0
VERTEX
  5
373
  8
0
 10
17.5
 20
-4.5
 30
0.0
  0
VERTEX
  5
374
  8
0
 10
17.5
 20
4.5
 30
0.0
  0
SEQEND
  5
375
  8
0
  0
ARC
  5
2F1
  8
0
 10
20.9188611699158
 20
-19.824555320336739
 30
0.0
 40
12.870045855951471
 50
66.746282120612463
 51
85.181230943534459
  0
LINE
  5
2F2
  8
0
 10
26.0
 20
-5.0
 30
0.0
 11
15.0
 21
-5.0
 31
0.0
  0
ARC
  5
2F3
  8
0
 10
22.0
 20
-16.75
 30
0.0
 40
9.25
 50
71.075355583948763
 51
108.92464441605119
  0
LINE
  5
2F4
  8
0
 10
22.000000000000021
 20
-7.0
 30
0.0
 11
17.0
 21
-7.0
 31
0.0
  0
LINE
  5
2F5
  8
0
 10
18.0
 20
-5.0
 30
0.0
 11
18.0
 21
-4.5
 31
0.0
  0
LINE
  5
2F6
  8
0
 10
26.0
 20
-5.0
 30
0.0
 11
26.0
 21
-4.5
 31
0.0
  0
LINE
  5
2F7
  8
0
 10
26.0
 20
-8.0
 30
0.0
 11
26.0
 21
-5.0
 31
0.0
  0
ARC
  5
2F8
  8
0
 10
20.9188611699158
 20
19.824555320336739
 30
0.0
 40
12.870045855951471
 50
274.8187690564655
 51
293.25371787938752
  0
ARC
  5
2F9
  8
0
 10
22.0
 20
16.75
 30
0.0
 40
9.25
 50
251.07535558394869
 51
288.92464441605119
  0
LINE
  5
2FA
  8
0
 10
26.0
 20
5.0
 30
0.0
 11
15.0
 21
5.0
 31
0.0
  0
LINE
  5
2FB
  8
0
 10
18.0
 20
5.0
 30
0.0
 11
18.0
 21
4.5
 31
0.0
  0
LINE
  5
2FC
  8
0
 10
22.000000000000021
 20
7.0
 30
0.0
 11
17.0
 21
7.0
 31
0.0
  0
LINE
  5
2FD
  8
0
 10
26.0
 20
5.0
 30
0.0
 11
26.0
 21
8.0
 31
0.0
  0
LINE
  5
2FE
  8
0
 10
26.0
 20
5.0
 30
0.0
 11
26.0
 21
4.5
 31
0.0
  0
ENDBLK
  5
2FF
  8
0
  0
BLOCK
  8
0
  2
6V
 70
     0
 10
0.0
 20
0.0
 30
0.0
  3
6V
  1
6V
  0
ARC
  5
301
  8
0
 10
0.0
 20
0.0
 30
0.0
 40
4.0
 50
270.0
 51
90.0
  0
CIRCLE
  5
302
  8
0
 10
0.0
 20
0.0
 30
0.0
 40
3.0
  0
LINE
  5
303
  8
0
 10
-17.0
 20
-8.0
 30
0.0
 11
-17.0
 21
8.0
 31
0.0
  0
LINE
  5
304
  8
0
  6
DASHED
 10
-9.0
 20
-3.0
 30
0.0
 11
-17.0
 21
-3.0
 31
0.0
  0
LINE
  5
305
  8
0
 10
-8.5
 20
-8.0
 30
0.0
 11
-17.0
 21
-8.0
 31
0.0
  0
LINE
  5
306
  8
0
 10
0.0
 20
-4.0
 30
0.0
 11
-5.0
 21
-4.0
 31
0.0
  0
LINE
  5
307
  8
0
  6
DASHED
 10
-8.5
 20
-8.0
 30
0.0
 11
-9.0
 21
-3.0
 31
0.0
  0
LINE
  5
308
  8
0
 10
-5.0
 20
-4.0
 30
0.0
 11
-8.5
 21
-8.0
 31
0.0
  0
CIRCLE
  5
309
  8
0
 10
0.0
 20
0.0
 30
0.0
 40
0.75
  0
LINE
  5
30A
  8
0
  6
DASHED
 10
-17.0
 20
3.0
 30
0.0
 11
-9.0
 21
3.0
 31
0.0
  0
LINE
  5
30B
  8
0
 10
-17.0
 20
8.0
 30
0.0
 11
-8.5
 21
8.0
 31
0.0
  0
LINE
  5
30C
  8
0
 10
-5.0
 20
4.0
 30
0.0
 11
0.0
 21
4.0
 31
0.0
  0
LINE
  5
30D
  8
0
  6
DASHED
 10
-9.0
 20
3.0
 30
0.0
 11
-8.5
 21
8.0
 31
0.0
  0
LINE
  5
30E
  8
0
 10
-8.5
 20
8.0
 30
0.0
 11
-5.0
 21
4.0
 31
0.0
  0
ENDBLK
  5
30F
  8
0
  0
BLOCK
  8
0
  2
6H
 70
     0
 10
0.0
 20
0.0
 30
0.0
  3
6H
  1
6H
  0
LINE
  5
311
  8
0
 10
26.0
 20
-8.0
 30
0.0
 11
-4.0
 21
-8.0
 31
0.0
  0
LINE
  5
312
  8
0
 10
-4.0
 20
8.0
 30
0.0
 11
26.0
 21
8.0
 31
0.0
  0
ARC
  5
313
  8
0
 10
22.0
 20
16.75
 30
0.0
 40
9.25
 50
251.07535558394869
 51
288.92464441605119
  0
LINE
  5
314
  8
0
 10
26.0
 20
5.0
 30
0.0
 11
15.5
 21
5.0
 31
0.0
  0
LINE
  5
315
  8
0
 10
26.0
 20
7.0
 30
0.0
 11
17.0
 21
7.0
 31
0.0
  0
LINE
  5
316
  8
0
 10
26.0
 20
-5.0
 30
0.0
 11
15.5
 21
-5.0
 31
0.0
  0
POLYLINE
  5
317
  8
0
 66
     1
 10
0.0
 20
0.0
 30
0.0
 70
     1
  0
VERTEX
  5
376
  8
0
 10
26.5
 20
4.5
 30
0.0
  0
VERTEX
  5
377
  8
0
 10
26.5
 20
-4.5
 30
0.0
  0
VERTEX
  5
378
  8
0
 10
17.5
 20
-4.5
 30
0.0
  0
VERTEX
  5
379
  8
0
 10
17.5
 20
4.5
 30
0.0
  0
SEQEND
  5
37A
  8
0
  0
ARC
  5
31D
  8
0
 10
22.0
 20
-16.75
 30
0.0
 40
9.25
 50
71.075355583948763
 51
108.92464441605119
  0
LINE
  5
31E
  8
0
 10
26.0
 20
-7.0
 30
0.0
 11
17.0
 21
-7.0
 31
0.0
  0
ARC
  5
31F
  8
0
 10
22.25
 20
0.0
 30
0.0
 40
8.75
 50
126.86989764584401
 51
233.13010235415589
  0
LINE
  5
320
  8
0
 10
-4.0
 20
-8.0
 30
0.0
 11
-4.0
 21
-5.0
 31
0.0
  0
ARC
  5
321
  8
0
 10
-0.25
 20
0.0
 30
0.0
 40
8.75
 50
306.86989764584388
 51
53.130102354155987
  0
ARC
  5
322
  8
0
 10
0.0
 20
-16.75
 30
0.0
 40
9.25
 50
71.075355583948763
 51
108.92464441605119
  0
LINE
  5
323
  8
0
 10
-4.0
 20
-7.0
 30
0.0
 11
5.0
 21
-7.0
 31
0.0
  0
ARC
  5
324
  8
0
 10
-1.083333333333371
 20
0.0
 30
0.0
 40
9.0833333333333641
 50
326.60151153201292
 51
33.398488467987107
  0
ARC
  5
325
  8
0
 10
0.0
 20
16.75
 30
0.0
 40
9.25
 50
251.07535558394869
 51
288.92464441605119
  0
LINE
  5
326
  8
0
 10
-4.0
 20
5.0
 30
0.0
 11
6.5
 21
5.0
 31
0.0
  0
LINE
  5
327
  8
0
 10
-4.0
 20
7.0
 30
0.0
 11
5.0
 21
7.0
 31
0.0
  0
LINE
  5
328
  8
0
 10
-4.0
 20
-5.0
 30
0.0
 11
6.5
 21
-5.0
 31
0.0
  0
POLYLINE
  5
329
  8
0
 66
     1
 10
0.0
 20
0.0
 30
0.0
 70
     1
  0
VERTEX
  5
37B
  8
0
 10
-4.5
 20
4.5
 30
0.0
  0
VERTEX
  5
37C
  8
0
 10
-4.5
 20
-4.5
 30
0.0
  0
VERTEX
  5
37D
  8
0
 10
4.5
 20
-4.5
 30
0.0
  0
VERTEX
  5
37E
  8
0
 10
4.5
 20
4.5
 30
0.0
  0
SEQEND
  5
37F
  8
0
  0
LINE
  5
32F
  8
0
 10
-4.0
 20
-5.0
 30
0.0
 11
-4.0
 21
-4.5
 31
0.0
  0
LINE
  5
330
  8
0
 10
-4.0
 20
5.0
 30
0.0
 11
-4.0
 21
4.5
 31
0.0
  0
LINE
  5
331
  8
0
 10
-4.0
 20
5.0
 30
0.0
 11
-4.0
 21
8.0
 31
0.0
  0
LINE
  5
332
  8
0
 10
4.0
 20
-5.0
 30
0.0
 11
4.0
 21
-4.5
 31
0.0
  0
LINE
  5
333
  8
0
 10
4.0
 20
5.0
 30
0.0
 11
4.0
 21
4.5
 31
0.0
  0
ARC
  5
334
  8
0
 10
23.083333333333371
 20
0.0
 30
0.0
 40
9.0833333333333641
 50
146.60151153201281
 51
213.39848846798711
  0
LINE
  5
335
  8
0
 10
18.0
 20
-5.0
 30
0.0
 11
18.0
 21
-4.5
 31
0.0
  0
LINE
  5
336
  8
0
 10
18.0
 20
5.0
 30
0.0
 11
18.0
 21
4.5
 31
0.0
  0
LINE
  5
337
  8
0
 10
26.0
 20
-8.0
 30
0.0
 11
26.0
 21
-5.0
 31
0.0
  0
LINE
  5
338
  8
0
 10
26.0
 20
-5.0
 30
0.0
 11
26.0
 21
-4.5
 31
0.0
  0
LINE
  5
339
  8
0
 10
26.0
 20
5.0
 30
0.0
 11
26.0
 21
4.5
 31
0.0
  0
LINE
  5
33A
  8
0
 10
26.0
 20
5.0
 30
0.0
 11
26.0
 21
8.0
 31
0.0
  0
ENDBLK
  5
33B
  8
0
  0
ENDSEC
  0
SECTION
  2
ENTITIES
  0
INSERT
  5
33C
  8
0
  2
6V
 10
20.0
 20
260.0
 30
0.0
  0
INSERT
  5
33D
  8
0
  2
6H
 10
20.0
 20
260.0
 30
0.0
  0
INSERT
  5
33E
  8
0
  2
6V
 10
42.0
 20
260.0
 30
0.0
 50
180.0
  0
INSERT
  5
33F
  8
0
  2
8V
 10
20.0
 20
210.0
 30
0.0
  0
INSERT
  5
340
  8
0
  2
8H
 10
20.0
 20
210.0
 30
0.0
  0
INSERT
  5
341
  8
0
  2
8V
 10
42.0
 20
210.0
 30
0.0
 50
180.0
  0
INSERT
  5
342
  8
0
  2
10V
 10
20.0
 20
160.0
 30
0.0
  0
INSERT
  5
343
  8
0
  2
10H
 10
20.0
 20
160.0
 30
0.0
  0
INSERT
  5
344
  8
0
  2
10V
 10
46.0
 20
160.0
 30
0.0
 50
180.0
  0
INSERT
  5
345
  8
0
  2
12V
 10
20.0
 20
105.0
 30
0.0
  0
INSERT
  5
346
  8
0
  2
12H
 10
20.0
 20
105.0
 30
0.0
  0
INSERT
  5
347
  8
0
  2
12V
 10
50.0
 20
105.0
 30
0.0
 50
180.0
  0
INSERT
  5
348
  8
0
  2
14V
 10
20.0
 20
50.0
 30
0.0
  0
INSERT
  5
349
  8
0
  2
14H
 10
20.0
 20
50.0
 30
0.0
  0
INSERT
  5
34A
  8
0
  2
14V
 10
56.0
 20
50.0
 30
0.0
 50
180.0
  0
INSERT
  5
34B
  8
0
  2
16V
 10
180.0
 20
260.0
 30
0.0
  0
INSERT
  5
34C
  8
0
  2
16H
 10
180.0
 20
260.0
 30
0.0
  0
INSERT
  5
34D
  8
0
  2
16V
 10
216.0
 20
260.0
 30
0.0
 50
180.0
  0
INSERT
  5
34E
  8
0
  2
18V
 10
180.0
 20
205.0
 30
0.0
  0
INSERT
  5
34F
  8
0
  2
18H
 10
180.0
 20
205.0
 30
0.0
  0
INSERT
  5
350
  8
0
  2
18V
 10
220.0
 20
205.0
 30
0.0
 50
180.0
  0
INSERT
  5
351
  8
0
  2
20V
 10
180.0
 20
140.0
 30
0.0
  0
INSERT
  5
352
  8
0
  2
20H
 10
180.0
 20
140.0
 30
0.0
  0
INSERT
  5
353
  8
0
  2
20V
 10
226.0
 20
140.0
 30
0.0
 50
180.0
  0
INSERT
  5
354
  8
0
  2
22V
 10
180.0
 20
70.0
 30
0.0
  0
INSERT
  5
355
  8
0
  2
22H
 10
180.0
 20
70.0
 30
0.0
  0
INSERT
  5
356
  8
0
  2
22V
 10
230.0
 20
70.0
 30
0.0
 50
180.0
  0
INSERT
  5
357
  8
0
  2
25V
 10
180.0
 20
0.0
 30
0.0
  0
INSERT
  5
358
  8
0
  2
25H
 10
180.0
 20
0.0
 30
0.0
  0
INSERT
  5
359
  8
0
  2
25V
 10
235.0
 20
0.0
 30
0.0
 50
180.0
  0
ENDSEC
  0
EOF
