  0
SECTION
  2
HEADER
  9
$ACADVER
  1
AC1009
  9
$INSBASE
 10
0.0
 20
0.0
 30
0.0
  9
$EXTMIN
 10
13.0
 20
105.0
 30
0.0
  9
$EXTMAX
 10
372.0
 20
266.0
 30
0.0
  9
$LIMMIN
 10
0.0
 20
0.0
  9
$LIMMAX
 10
420.0
 20
297.0
  9
$ORTHOMODE
 70
     1
  9
$REGENMODE
 70
     1
  9
$FILLMODE
 70
     1
  9
$QTEXTMODE
 70
     0
  9
$MIRRTEXT
 70
     1
  9
$DRAGMODE
 70
     2
  9
$LTSCALE
 40
1.0
  9
$OSMODE
 70
    40
  9
$ATTMODE
 70
     1
  9
$TEXTSIZE
 40
3.5
  9
$TRACEWID
 40
1.0
  9
$TEXTSTYLE
  7
STANDARD
  9
$CLAYER
  8
0
  9
$CELTYPE
  6
BYLAYER
  9
$CECOLOR
 62
   256
  9
$DIMSCALE
 40
1.0
  9
$DIMASZ
 40
2.5
  9
$DIMEXO
 40
0.625
  9
$DIMDLI
 40
3.75
  9
$DIMRND
 40
0.0
  9
$DIMDLE
 40
0.0
  9
$DIMEXE
 40
1.25
  9
$DIMTP
 40
0.0
  9
$DIMTM
 40
0.0
  9
$DIMTXT
 40
2.5
  9
$DIMCEN
 40
2.5
  9
$DIMTSZ
 40
0.0
  9
$DIMTOL
 70
     0
  9
$DIMLIM
 70
     0
  9
$DIMTIH
 70
     1
  9
$DIMTOH
 70
     0
  9
$DIMSE1
 70
     0
  9
$DIMSE2
 70
     0
  9
$DIMTAD
 70
     1
  9
$DIMZIN
 70
     8
  9
$DIMBLK
  1

  9
$DIMASO
 70
     1
  9
$DIMSHO
 70
     1
  9
$DIMPOST
  1

  9
$DIMAPOST
  1

  9
$DIMALT
 70
     0
  9
$DIMALTD
 70
     2
  9
$DIMALTF
 40
0.0394
  9
$DIMLFAC
 40
1.0
  9
$DIMTOFL
 70
     1
  9
$DIMTVP
 40
1.0
  9
$DIMTIX
 70
     0
  9
$DIMSOXD
 70
     0
  9
$DIMSAH
 70
     0
  9
$DIMBLK1
  1

  9
$DIMBLK2
  1

  9
$DIMSTYLE
  2
STANDARD
  9
$DIMCLRD
 70
     0
  9
$DIMCLRE
 70
     0
  9
$DIMCLRT
 70
     0
  9
$DIMTFAC
 40
1.0
  9
$DIMGAP
 40
0.625
  9
$LUNITS
 70
     2
  9
$LUPREC
 70
     4
  9
$SKETCHINC
 40
1.0
  9
$FILLETRAD
 40
0.0
  9
$AUNITS
 70
     0
  9
$AUPREC
 70
     0
  9
$MENU
  1
acad
  9
$ELEVATION
 40
0.0
  9
$PELEVATION
 40
0.0
  9
$THICKNESS
 40
0.0
  9
$LIMCHECK
 70
     0
  9
$BLIPMODE
 70
     0
  9
$CHAMFERA
 40
1.0
  9
$CHAMFERB
 40
1.0
  9
$SKPOLY
 70
     0
  9
$TDCREATE
 40
2450501.4187565972
  9
$TDUPDATE
 40
2452235.596871573
  9
$TDINDWG
 40
0.139181331
  9
$TDUSRTIMER
 40
0.139181331
  9
$USRTIMER
 70
     1
  9
$ANGBASE
 50
0.0
  9
$ANGDIR
 70
     0
  9
$PDMODE
 70
     0
  9
$PDSIZE
 40
0.0
  9
$PLINEWID
 40
0.0
  9
$COORDS
 70
     2
  9
$SPLFRAME
 70
     0
  9
$SPLINETYPE
 70
     6
  9
$SPLINESEGS
 70
     8
  9
$ATTDIA
 70
     0
  9
$ATTREQ
 70
     1
  9
$HANDLING
 70
-16383
  9
$HANDSEED
  5
23E
  9
$SURFTAB1
 70
     6
  9
$SURFTAB2
 70
     6
  9
$SURFTYPE
 70
     6
  9
$SURFU
 70
     6
  9
$SURFV
 70
     6
  9
$UCSNAME
  2

  9
$UCSORG
 10
0.0
 20
0.0
 30
0.0
  9
$UCSXDIR
 10
1.0
 20
0.0
 30
0.0
  9
$UCSYDIR
 10
0.0
 20
1.0
 30
0.0
  9
$PUCSNAME
  2

  9
$PUCSORG
 10
0.0
 20
0.0
 30
0.0
  9
$PUCSXDIR
 10
1.0
 20
0.0
 30
0.0
  9
$PUCSYDIR
 10
0.0
 20
1.0
 30
0.0
  9
$USERI1
 70
     0
  9
$USERI2
 70
     0
  9
$USERI3
 70
     0
  9
$USERI4
 70
     0
  9
$USERI5
 70
     0
  9
$USERR1
 40
0.0
  9
$USERR2
 40
0.0
  9
$USERR3
 40
0.0
  9
$USERR4
 40
0.0
  9
$USERR5
 40
0.0
  9
$WORLDVIEW
 70
     1
  9
$SHADEDGE
 70
     3
  9
$SHADEDIF
 70
    70
  9
$TILEMODE
 70
     1
  9
$MAXACTVP
 70
    16
  9
$PLIMCHECK
 70
     0
  9
$PEXTMIN
 10
1.0000000000000000E+020
 20
1.0000000000000000E+020
 30
1.0000000000000000E+020
  9
$PEXTMAX
 10
-1.0000000000000000E+020
 20
-1.0000000000000000E+020
 30
-1.0000000000000000E+020
  9
$PLIMMIN
 10
0.0
 20
0.0
  9
$PLIMMAX
 10
420.0
 20
297.0
  9
$UNITMODE
 70
     0
  9
$VISRETAIN
 70
     0
  9
$PLINEGEN
 70
     0
  9
$PSLTSCALE
 70
     1
  0
ENDSEC
  0
SECTION
  2
TABLES
  0
TABLE
  2
VPORT
 70
     3
  0
VPORT
  2
*ACTIVE
 70
     0
 10
0.0
 20
0.0
 11
1.0
 21
1.0
 12
198.9506849315068
 22
191.714035205816
 13
0.0
 23
0.0
 14
0.5
 24
0.5
 15
10.0
 25
10.0
 16
0.0
 26
0.0
 36
1.0
 17
0.0
 27
0.0
 37
0.0
 40
248.4432842092545
 41
1.5573979591836731
 42
50.0
 43
0.0
 44
0.0
 50
0.0
 51
0.0
 71
     0
 72
   100
 73
     1
 74
     0
 75
     1
 76
     0
 77
     0
 78
     0
  0
ENDTAB
  0
TABLE
  2
LTYPE
 70
    25
  0
LTYPE
  2
CONTINUOUS
 70
     0
  3
Solid line
 72
    65
 73
     0
 40
0.0
  0
LTYPE
  2
BORDER
 70
     0
  3
__ __ . __ __ . __ __ . __ __ . __ __ . __ __ .
 72
    65
 73
     6
 40
1.75
 49
0.5
 49
-0.25
 49
0.5
 49
-0.25
 49
0.0
 49
-0.25
  0
LTYPE
  2
BORDER2
 70
     0
  3
__.__.__.__.__.__.__.__.__.__.__.__.__.__.__.__
 72
    65
 73
     6
 40
0.875
 49
0.25
 49
-0.125
 49
0.25
 49
-0.125
 49
0.0
 49
-0.125
  0
LTYPE
  2
BORDERX2
 70
     0
  3
____  ____  .  ____  ____  .  ____  ____  .  __
 72
    65
 73
     6
 40
3.5
 49
1.0
 49
-0.5
 49
1.0
 49
-0.5
 49
0.0
 49
-0.5
  0
LTYPE
  2
CENTER
 70
     0
  3
____ _ ____ _ ____ _ ____ _ ____ _ ____ _ ____ 
 72
    65
 73
     4
 40
2.0
 49
1.25
 49
-0.25
 49
0.25
 49
-0.25
  0
LTYPE
  2
CENTER2
 70
     0
  3
___ _ ___ _ ___ _ ___ _ ___ _ ___ _ ___ _ ___ _
 72
    65
 73
     4
 40
1.125
 49
0.75
 49
-0.125
 49
0.125
 49
-0.125
  0
LTYPE
  2
CENTERX2
 70
     0
  3
________  __  ________  __  ________  __  _____
 72
    65
 73
     4
 40
4.0
 49
2.5
 49
-0.5
 49
0.5
 49
-0.5
  0
LTYPE
  2
DASHDOT
 70
     0
  3
__ . __ . __ . __ . __ . __ . __ . __ . __ . __
 72
    65
 73
     4
 40
1.0
 49
0.5
 49
-0.25
 49
0.0
 49
-0.25
  0
LTYPE
  2
DASHDOT2
 70
     0
  3
_._._._._._._._._._._._._._._._._._._._._._._._
 72
    65
 73
     4
 40
0.5
 49
0.25
 49
-0.125
 49
0.0
 49
-0.125
  0
LTYPE
  2
DASHDOTX2
 70
     0
  3
____  .  ____  .  ____  .  ____  .  ____  .  __
 72
    65
 73
     4
 40
2.0
 49
1.0
 49
-0.5
 49
0.0
 49
-0.5
  0
LTYPE
  2
DASHED
 70
     0
  3
__ __ __ __ __ __ __ __ __ __ __ __ __ __ __ __
 72
    65
 73
     2
 40
0.75
 49
0.5
 49
-0.25
  0
LTYPE
  2
DASHED2
 70
     0
  3
_ _ _ _ _ _ _ _ _ _ _ _ _ _ _ _ _ _ _ _ _ _ _ _
 72
    65
 73
     2
 40
0.375
 49
0.25
 49
-0.125
  0
LTYPE
  2
DASHEDX2
 70
     0
  3
____  ____  ____  ____  ____  ____  ____  ____ 
 72
    65
 73
     2
 40
1.5
 49
1.0
 49
-0.5
  0
LTYPE
  2
DIVIDE
 70
     0
  3
____ . . ____ . . ____ . . ____ . . ____ . . __
 72
    65
 73
     6
 40
1.25
 49
0.5
 49
-0.25
 49
0.0
 49
-0.25
 49
0.0
 49
-0.25
  0
LTYPE
  2
DIVIDE2
 70
     0
  3
__..__..__..__..__..__..__..__..__..__..__..__.
 72
    65
 73
     6
 40
0.625
 49
0.25
 49
-0.125
 49
0.0
 49
-0.125
 49
0.0
 49
-0.125
  0
LTYPE
  2
DIVIDEX2
 70
     0
  3
________  .  .  ________  .  .  ________  .  . 
 72
    65
 73
     6
 40
2.5
 49
1.0
 49
-0.5
 49
0.0
 49
-0.5
 49
0.0
 49
-0.5
  0
LTYPE
  2
DOT
 70
     0
  3
. . . . . . . . . . . . . . . . . . . . . . . .
 72
    65
 73
     2
 40
0.25
 49
0.0
 49
-0.25
  0
LTYPE
  2
DOT2
 70
     0
  3
...............................................
 72
    65
 73
     2
 40
0.125
 49
0.0
 49
-0.125
  0
LTYPE
  2
DOTX2
 70
     0
  3
.  .  .  .  .  .  .  .  .  .  .  .  .  .  .  . 
 72
    65
 73
     2
 40
0.5
 49
0.0
 49
-0.5
  0
LTYPE
  2
HIDDEN
 70
     0
  3
__ __ __ __ __ __ __ __ __ __ __ __ __ __ __ __
 72
    65
 73
     2
 40
0.375
 49
0.25
 49
-0.125
  0
LTYPE
  2
HIDDEN2
 70
     0
  3
_ _ _ _ _ _ _ _ _ _ _ _ _ _ _ _ _ _ _ _ _ _ _ _
 72
    65
 73
     2
 40
0.1875
 49
0.125
 49
-0.0625
  0
LTYPE
  2
HIDDENX2
 70
     0
  3
____ ____ ____ ____ ____ ____ ____ ____ ____ __
 72
    65
 73
     2
 40
0.75
 49
0.5
 49
-0.25
  0
LTYPE
  2
PHANTOM
 70
     0
  3
______  __  __  ______  __  __  ______  __  __ 
 72
    65
 73
     6
 40
2.5
 49
1.25
 49
-0.25
 49
0.25
 49
-0.25
 49
0.25
 49
-0.25
  0
LTYPE
  2
PHANTOM2
 70
     0
  3
___ _ _ ___ _ _ ___ _ _ ___ _ _ ___ _ _ ___ _ _
 72
    65
 73
     6
 40
1.25
 49
0.625
 49
-0.125
 49
0.125
 49
-0.125
 49
0.125
 49
-0.125
  0
LTYPE
  2
PHANTOMX2
 70
     0
  3
____________    ____    ____    ____________   
 72
    65
 73
     6
 40
5.0
 49
2.5
 49
-0.5
 49
0.5
 49
-0.5
 49
0.5
 49
-0.5
  0
ENDTAB
  0
TABLE
  2
LAYER
 70
     1
  0
LAYER
  2
0
 70
     0
 62
     7
  6
CONTINUOUS
  0
ENDTAB
  0
TABLE
  2
STYLE
 70
     1
  0
STYLE
  2
STANDARD
 70
     0
 40
0.0
 41
1.0
 50
0.0
 71
     0
 42
3.5
  3
txt
  4

  0
ENDTAB
  0
TABLE
  2
VIEW
 70
     0
  0
ENDTAB
  0
TABLE
  2
UCS
 70
     0
  0
ENDTAB
  0
TABLE
  2
APPID
 70
     1
  0
APPID
  2
ACAD
 70
     0
  0
ENDTAB
  0
TABLE
  2
DIMSTYLE
 70
     1
  0
DIMSTYLE
  2
STANDARD
 70
     0
  3

  4

  5

  6

  7

 40
1.0
 41
0.18
 42
0.0625
 43
0.38
 44
0.18
 45
0.0
 46
0.0
 47
0.0
 48
0.0
140
0.18
141
0.09
142
0.0
143
25.399999999999999
144
1.0
145
0.0
146
1.0
147
0.09
 71
     0
 72
     0
 73
     1
 74
     1
 75
     0
 76
     0
 77
     0
 78
     0
170
     0
171
     2
172
     0
173
     0
174
     0
175
     0
176
     0
177
     0
178
     0
  0
ENDTAB
  0
ENDSEC
  0
SECTION
  2
BLOCKS
  0
BLOCK
  8
0
  2
$MODEL_SPACE
 70
     0
 10
0.0
 20
0.0
 30
0.0
  3
$MODEL_SPACE
  1

  0
ENDBLK
  5
4B
  8
0
  0
BLOCK
 67
     1
  8
0
  2
$PAPER_SPACE
 70
     0
 10
0.0
 20
0.0
 30
0.0
  3
$PAPER_SPACE
  1

  0
ENDBLK
  5
49
 67
     1
  8
0
  0
BLOCK
  8
0
  2
10V
 70
     0
 10
0.0
 20
0.0
 30
0.0
  3
10V
  1
10V
  0
ARC
  5
4D
  8
0
 10
0.0
 20
0.0
 30
0.0
 40
4.0311288741492737
 50
277.1250163489018
 51
97.125016348901795
  0
LINE
  5
4E
  8
0
 10
-5.0
 20
4.0
 30
0.0
 11
0.5
 21
4.0
 31
0.0
  0
LINE
  5
4F
  8
0
 10
0.5
 20
-4.0
 30
0.0
 11
-5.0
 21
-4.0
 31
0.0
  0
CIRCLE
  5
50
  8
0
 10
0.0
 20
0.0
 30
0.0
 40
0.75
  0
CIRCLE
  5
51
  8
0
 10
0.0
 20
0.0
 30
0.0
 40
3.0
  0
LINE
  5
52
  8
0
 10
-25.5
 20
8.0
 30
0.0
 11
-25.5
 21
-8.0
 31
0.0
  0
LINE
  5
53
  8
0
 10
-26.0
 20
-7.5
 30
0.0
 11
-26.0
 21
7.5
 31
0.0
  0
LINE
  5
54
  8
0
  6
DASHED
 10
-26.0
 20
-5.0
 30
0.0
 11
-12.0
 21
-5.0
 31
0.0
  0
LINE
  5
55
  8
0
 10
-8.5
 20
-8.0
 30
0.0
 11
-25.5
 21
-8.0
 31
0.0
  0
LINE
  5
56
  8
0
 10
-25.5
 20
-8.0
 30
0.0
 11
-26.0
 21
-7.5
 31
0.0
  0
LINE
  5
57
  8
0
 10
-5.0
 20
-4.0
 30
0.0
 11
-8.5
 21
-8.0
 31
0.0
  0
LINE
  5
58
  8
0
  6
DASHED
 10
-12.0
 20
-5.0
 30
0.0
 11
-8.5
 21
-8.0
 31
0.0
  0
LINE
  5
59
  8
0
 10
-25.5
 20
8.0
 30
0.0
 11
-8.5
 21
8.0
 31
0.0
  0
LINE
  5
5A
  8
0
  6
DASHED
 10
-26.0
 20
5.0
 30
0.0
 11
-12.0
 21
5.0
 31
0.0
  0
LINE
  5
5B
  8
0
 10
-26.0
 20
7.5
 30
0.0
 11
-25.5
 21
8.0
 31
0.0
  0
LINE
  5
5C
  8
0
 10
-8.5
 20
8.0
 30
0.0
 11
-5.0
 21
4.0
 31
0.0
  0
LINE
  5
5D
  8
0
  6
DASHED
 10
-12.0
 20
5.0
 30
0.0
 11
-8.5
 21
8.0
 31
0.0
  0
ENDBLK
  5
5E
  8
0
  0
BLOCK
  8
0
  2
10H
 70
     0
 10
0.0
 20
0.0
 30
0.0
  3
10H
  1
10H
  0
ARC
  5
60
  8
0
 10
20.75
 20
0.0
 30
0.0
 40
7.25
 50
136.39718102729631
 51
223.60281897270349
  0
ARC
  5
61
  8
0
 10
19.44444444444445
 20
0.0
 30
0.0
 40
6.9444444444444491
 50
110.6096929375321
 51
249.3903070624678
  0
POLYLINE
  5
62
  8
0
 66
     1
 10
0.0
 20
0.0
 30
0.0
 70
     1
  0
VERTEX
  5
20C
  8
0
 10
26.5
 20
4.5
 30
0.0
  0
VERTEX
  5
20D
  8
0
 10
26.5
 20
-4.5
 30
0.0
  0
VERTEX
  5
20E
  8
0
 10
17.5
 20
-4.5
 30
0.0
  0
VERTEX
  5
20F
  8
0
 10
17.5
 20
4.5
 30
0.0
  0
SEQEND
  5
210
  8
0
  0
ARC
  5
68
  8
0
 10
1.25
 20
0.0
 30
0.0
 40
7.25
 50
316.39718102729631
 51
43.602818972703624
  0
ARC
  5
69
  8
0
 10
2.555555555555542
 20
0.0
 30
0.0
 40
6.9444444444444491
 50
290.60969293753209
 51
69.390307062467855
  0
POLYLINE
  5
6A
  8
0
 66
     1
 10
0.0
 20
0.0
 30
0.0
 70
     1
  0
VERTEX
  5
211
  8
0
 10
-4.5
 20
4.5
 30
0.0
  0
VERTEX
  5
212
  8
0
 10
-4.5
 20
-4.5
 30
0.0
  0
VERTEX
  5
213
  8
0
 10
4.5
 20
-4.5
 30
0.0
  0
VERTEX
  5
214
  8
0
 10
4.5
 20
4.5
 30
0.0
  0
SEQEND
  5
215
  8
0
  0
LINE
  5
70
  8
0
 10
26.0
 20
-8.0
 30
0.0
 11
-4.0
 21
-8.0
 31
0.0
  0
LINE
  5
71
  8
0
 10
-4.0
 20
-5.0
 30
0.0
 11
6.5
 21
-5.0
 31
0.0
  0
LINE
  5
72
  8
0
 10
-0.0000000000000426
 20
-6.5
 30
0.0
 11
5.0
 21
-6.5
 31
0.0
  0
ARC
  5
73
  8
0
 10
0.340348790056396
 20
-13.490930106817039
 30
0.0
 40
6.9992100309459122
 50
92.787206323596266
 51
128.3248841155706
  0
ARC
  5
74
  8
0
 10
0.0
 20
-16.75
 30
0.0
 40
9.25
 50
71.075355583948763
 51
108.92464441605119
  0
LINE
  5
75
  8
0
 10
-4.0
 20
-8.0
 30
0.0
 11
-4.0
 21
-5.0
 31
0.0
  0
LINE
  5
76
  8
0
 10
-4.0
 20
-5.0
 30
0.0
 11
-4.0
 21
-4.5
 31
0.0
  0
LINE
  5
77
  8
0
 10
4.0
 20
-5.0
 30
0.0
 11
4.0
 21
-4.5
 31
0.0
  0
LINE
  5
78
  8
0
 10
22.000000000000039
 20
-6.5
 30
0.0
 11
17.0
 21
-6.5
 31
0.0
  0
LINE
  5
79
  8
0
 10
26.0
 20
-5.0
 30
0.0
 11
15.5
 21
-5.0
 31
0.0
  0
ARC
  5
7A
  8
0
 10
22.0
 20
-16.75
 30
0.0
 40
9.25
 50
71.075355583948763
 51
108.92464441605119
  0
LINE
  5
7B
  8
0
 10
18.0
 20
-5.0
 30
0.0
 11
18.0
 21
-4.5
 31
0.0
  0
ARC
  5
7C
  8
0
 10
21.6596512099436
 20
-13.490930106817039
 30
0.0
 40
6.9992100309459122
 50
51.675115884429353
 51
87.21279367640372
  0
LINE
  5
7D
  8
0
 10
26.0
 20
-8.0
 30
0.0
 11
26.0
 21
-5.0
 31
0.0
  0
LINE
  5
7E
  8
0
 10
26.0
 20
-5.0
 30
0.0
 11
26.0
 21
-4.5
 31
0.0
  0
LINE
  5
7F
  8
0
 10
-4.0
 20
8.0
 30
0.0
 11
26.0
 21
8.0
 31
0.0
  0
LINE
  5
80
  8
0
 10
-4.0
 20
5.0
 30
0.0
 11
6.5
 21
5.0
 31
0.0
  0
LINE
  5
81
  8
0
 10
-0.0000000000000426
 20
6.5
 30
0.0
 11
5.0
 21
6.5
 31
0.0
  0
LINE
  5
82
  8
0
 10
-4.0
 20
5.0
 30
0.0
 11
-4.0
 21
8.0
 31
0.0
  0
ARC
  5
83
  8
0
 10
0.340348790056396
 20
13.490930106817039
 30
0.0
 40
6.9992100309459122
 50
231.67511588442929
 51
267.21279367640369
  0
ARC
  5
84
  8
0
 10
0.0
 20
16.75
 30
0.0
 40
9.25
 50
251.07535558394869
 51
288.92464441605119
  0
LINE
  5
85
  8
0
 10
-4.0
 20
5.0
 30
0.0
 11
-4.0
 21
4.5
 31
0.0
  0
LINE
  5
86
  8
0
 10
4.0
 20
5.0
 30
0.0
 11
4.0
 21
4.5
 31
0.0
  0
LINE
  5
87
  8
0
 10
22.000000000000039
 20
6.5
 30
0.0
 11
17.0
 21
6.5
 31
0.0
  0
LINE
  5
88
  8
0
 10
26.0
 20
5.0
 30
0.0
 11
15.5
 21
5.0
 31
0.0
  0
ARC
  5
89
  8
0
 10
22.0
 20
16.75
 30
0.0
 40
9.25
 50
251.07535558394869
 51
288.92464441605119
  0
LINE
  5
8A
  8
0
 10
18.0
 20
5.0
 30
0.0
 11
18.0
 21
4.5
 31
0.0
  0
LINE
  5
8B
  8
0
 10
26.0
 20
5.0
 30
0.0
 11
26.0
 21
8.0
 31
0.0
  0
ARC
  5
8C
  8
0
 10
21.6596512099436
 20
13.490930106817039
 30
0.0
 40
6.9992100309459122
 50
272.78720632359619
 51
308.32488411557063
  0
LINE
  5
8D
  8
0
 10
26.0
 20
5.0
 30
0.0
 11
26.0
 21
4.5
 31
0.0
  0
ENDBLK
  5
8E
  8
0
  0
BLOCK
  8
0
  2
12V
 70
     0
 10
0.0
 20
0.0
 30
0.0
  3
12V
  1
12V
  0
LINE
  5
90
  8
0
  6
DASHED
 10
-13.0
 20
-6.0
 30
0.0
 11
-12.0
 21
-11.0
 31
0.0
  0
LINE
  5
91
  8
0
 10
-30.5
 20
11.0
 30
0.0
 11
-30.5
 21
-11.0
 31
0.0
  0
LINE
  5
92
  8
0
 10
-31.0
 20
-10.5
 30
0.0
 11
-31.0
 21
10.5
 31
0.0
  0
LINE
  5
93
  8
0
 10
-6.0
 20
-5.5
 30
0.0
 11
-12.0
 21
-11.0
 31
0.0
  0
LINE
  5
94
  8
0
 10
-12.0
 20
-11.0
 30
0.0
 11
-30.5
 21
-11.0
 31
0.0
  0
LINE
  5
95
  8
0
 10
-30.5
 20
-11.0
 30
0.0
 11
-31.0
 21
-10.5
 31
0.0
  0
LINE
  5
96
  8
0
  6
DASHED
 10
-31.0
 20
6.0
 30
0.0
 11
-13.0
 21
6.0
 31
0.0
  0
LINE
  5
97
  8
0
  6
DASHED
 10
-31.0
 20
-6.0
 30
0.0
 11
-13.0
 21
-6.0
 31
0.0
  0
LINE
  5
98
  8
0
 10
-30.5
 20
11.0
 30
0.0
 11
-12.0
 21
11.0
 31
0.0
  0
LINE
  5
99
  8
0
 10
-31.0
 20
10.5
 30
0.0
 11
-30.5
 21
11.0
 31
0.0
  0
LINE
  5
9A
  8
0
 10
-6.0
 20
5.5
 30
0.0
 11
0.0
 21
5.5
 31
0.0
  0
LINE
  5
9B
  8
0
 10
0.0
 20
-5.5
 30
0.0
 11
-6.0
 21
-5.5
 31
0.0
  0
CIRCLE
  5
9C
  8
0
 10
0.0
 20
0.0
 30
0.0
 40
3.5
  0
LINE
  5
9D
  8
0
 10
-12.0
 20
11.0
 30
0.0
 11
-6.0
 21
5.5
 31
0.0
  0
LINE
  5
9E
  8
0
  6
DASHED
 10
-13.0
 20
6.0
 30
0.0
 11
-12.0
 21
11.0
 31
0.0
  0
ARC
  5
9F
  8
0
 10
0.0
 20
0.0
 30
0.0
 40
5.5
 50
270.0
 51
90.0
  0
CIRCLE
  5
A0
  8
0
 10
0.0
 20
0.0
 30
0.0
 40
0.75
  0
ENDBLK
  5
A1
  8
0
  0
BLOCK
  8
0
  2
12H
 70
     0
 10
0.0
 20
0.0
 30
0.0
  3
12H
  1
12H
  0
ARC
  5
A3
  8
0
 10
25.550000000000011
 20
0.0
 30
0.0
 40
11.050000000000001
 50
140.69235188389331
 51
219.30764811610649
  0
POLYLINE
  5
A4
  8
0
 66
     1
 10
0.0
 20
0.0
 30
0.0
 70
     1
  0
VERTEX
  5
216
  8
0
 10
32.0
 20
6.0
 30
0.0
  0
VERTEX
  5
217
  8
0
 10
32.0
 20
-6.0
 30
0.0
  0
VERTEX
  5
218
  8
0
 10
20.0
 20
-6.0
 30
0.0
  0
VERTEX
  5
219
  8
0
 10
20.0
 20
6.0
 30
0.0
  0
SEQEND
  5
21A
  8
0
  0
ARC
  5
AA
  8
0
 10
23.692307692307669
 20
0.0
 30
0.0
 40
10.192307692307679
 50
111.2393105523101
 51
248.7606894476898
  0
ARC
  5
AB
  8
0
 10
0.4499999999999887
 20
0.0
 30
0.0
 40
11.050000000000001
 50
320.69235188389342
 51
39.307648116106591
  0
POLYLINE
  5
AC
  8
0
 66
     1
 10
0.0
 20
0.0
 30
0.0
 70
     1
  0
VERTEX
  5
21B
  8
0
 10
-6.0
 20
6.0
 30
0.0
  0
VERTEX
  5
21C
  8
0
 10
-6.0
 20
-6.0
 30
0.0
  0
VERTEX
  5
21D
  8
0
 10
6.0
 20
-6.0
 30
0.0
  0
VERTEX
  5
21E
  8
0
 10
6.0
 20
6.0
 30
0.0
  0
SEQEND
  5
21F
  8
0
  0
ARC
  5
B2
  8
0
 10
2.3076923076923199
 20
0.0
 30
0.0
 40
10.192307692307679
 50
291.23931055231009
 51
68.760689447689813
  0
LINE
  5
B3
  8
0
 10
31.5
 20
-11.0
 30
0.0
 11
-5.5
 21
-11.0
 31
0.0
  0
ARC
  5
B4
  8
0
 10
1.871708245126285
 20
-27.196263565463038
 30
0.0
 40
17.79497220939691
 50
96.037644291596806
 51
114.4725931145187
  0
LINE
  5
B5
  8
0
 10
-5.5
 20
-7.0
 30
0.0
 11
9.0
 21
-7.0
 31
0.0
  0
LINE
  5
B6
  8
0
 10
-5.5
 20
-11.0
 30
0.0
 11
-5.5
 21
-7.0
 31
0.0
  0
LINE
  5
B7
  8
0
 10
-5.5
 20
-7.0
 30
0.0
 11
-5.5
 21
-6.0
 31
0.0
  0
ARC
  5
B8
  8
0
 10
0.0
 20
-23.0
 30
0.0
 40
12.5
 50
73.739795291688054
 51
106.2602047083119
  0
LINE
  5
B9
  8
0
 10
0.0
 20
-9.5
 30
0.0
 11
6.0
 21
-9.5
 31
0.0
  0
LINE
  5
BA
  8
0
 10
5.5
 20
-7.0
 30
0.0
 11
5.5
 21
-6.0
 31
0.0
  0
ARC
  5
BB
  8
0
 10
24.128291754873711
 20
-27.196263565463038
 30
0.0
 40
17.79497220939691
 50
65.527406885481213
 51
83.962355708403209
  0
LINE
  5
BC
  8
0
 10
31.5
 20
-7.0
 30
0.0
 11
17.0
 21
-7.0
 31
0.0
  0
ARC
  5
BD
  8
0
 10
26.0
 20
-23.0
 30
0.0
 40
12.5
 50
73.739795291688054
 51
106.2602047083119
  0
LINE
  5
BE
  8
0
 10
26.0
 20
-9.5
 30
0.0
 11
20.0
 21
-9.5
 31
0.0
  0
LINE
  5
BF
  8
0
 10
20.5
 20
-7.0
 30
0.0
 11
20.5
 21
-6.0
 31
0.0
  0
LINE
  5
C0
  8
0
 10
31.5
 20
-11.0
 30
0.0
 11
31.5
 21
-7.0
 31
0.0
  0
LINE
  5
C1
  8
0
 10
31.5
 20
-7.0
 30
0.0
 11
31.5
 21
-6.0
 31
0.0
  0
LINE
  5
C2
  8
0
 10
-5.5
 20
11.0
 30
0.0
 11
31.5
 21
11.0
 31
0.0
  0
ARC
  5
C3
  8
0
 10
1.871708245126285
 20
27.196263565463038
 30
0.0
 40
17.79497220939691
 50
245.5274068854811
 51
263.96235570840321
  0
LINE
  5
C4
  8
0
 10
-5.5
 20
7.0
 30
0.0
 11
9.0
 21
7.0
 31
0.0
  0
LINE
  5
C5
  8
0
 10
-5.5
 20
7.0
 30
0.0
 11
-5.5
 21
11.0
 31
0.0
  0
LINE
  5
C6
  8
0
 10
-5.5
 20
6.0
 30
0.0
 11
-5.5
 21
7.0
 31
0.0
  0
LINE
  5
C7
  8
0
 10
0.0
 20
9.5
 30
0.0
 11
6.0
 21
9.5
 31
0.0
  0
ARC
  5
C8
  8
0
 10
0.0
 20
23.0
 30
0.0
 40
12.5
 50
253.73979529168801
 51
286.2602047083119
  0
LINE
  5
C9
  8
0
 10
5.5
 20
6.0
 30
0.0
 11
5.5
 21
7.0
 31
0.0
  0
ARC
  5
CA
  8
0
 10
24.128291754873711
 20
27.196263565463038
 30
0.0
 40
17.79497220939691
 50
276.03764429159668
 51
294.47259311451882
  0
LINE
  5
CB
  8
0
 10
31.5
 20
7.0
 30
0.0
 11
17.0
 21
7.0
 31
0.0
  0
ARC
  5
CC
  8
0
 10
26.0
 20
23.0
 30
0.0
 40
12.5
 50
253.73979529168801
 51
286.2602047083119
  0
LINE
  5
CD
  8
0
 10
20.5
 20
6.0
 30
0.0
 11
20.5
 21
7.0
 31
0.0
  0
LINE
  5
CE
  8
0
 10
26.0
 20
9.5
 30
0.0
 11
20.0
 21
9.5
 31
0.0
  0
LINE
  5
CF
  8
0
 10
31.5
 20
7.0
 30
0.0
 11
31.5
 21
11.0
 31
0.0
  0
LINE
  5
D0
  8
0
 10
31.5
 20
6.0
 30
0.0
 11
31.5
 21
7.0
 31
0.0
  0
ENDBLK
  5
D1
  8
0
  0
BLOCK
  8
0
  2
16V
 70
     0
 10
0.0
 20
0.0
 30
0.0
  3
16V
  1
16V
  0
LINE
  5
D3
  8
0
  6
DASHED
 10
-16.0
 20
-6.0
 30
0.0
 11
-13.0
 21
-12.5
 31
0.0
  0
LINE
  5
D4
  8
0
 10
-36.0
 20
-12.5
 30
0.0
 11
-36.0
 21
12.5
 31
0.0
  0
LINE
  5
D5
  8
0
 10
-37.0
 20
-11.5
 30
0.0
 11
-37.0
 21
11.5
 31
0.0
  0
LINE
  5
D6
  8
0
 10
-7.0
 20
-6.5
 30
0.0
 11
-13.0
 21
-12.5
 31
0.0
  0
LINE
  5
D7
  8
0
 10
-13.0
 20
-12.5
 30
0.0
 11
-36.0
 21
-12.5
 31
0.0
  0
LINE
  5
D8
  8
0
 10
-36.0
 20
-12.5
 30
0.0
 11
-37.0
 21
-11.5
 31
0.0
  0
LINE
  5
D9
  8
0
  6
DASHED
 10
-37.0
 20
6.0
 30
0.0
 11
-16.0
 21
6.0
 31
0.0
  0
LINE
  5
DA
  8
0
  6
DASHED
 10
-37.0
 20
-6.0
 30
0.0
 11
-16.0
 21
-6.0
 31
0.0
  0
LINE
  5
DB
  8
0
 10
-36.0
 20
12.5
 30
0.0
 11
-13.0
 21
12.5
 31
0.0
  0
LINE
  5
DC
  8
0
 10
-37.0
 20
11.5
 30
0.0
 11
-36.0
 21
12.5
 31
0.0
  0
LINE
  5
DD
  8
0
 10
-13.0
 20
12.5
 30
0.0
 11
-7.0
 21
6.5
 31
0.0
  0
LINE
  5
DE
  8
0
  6
DASHED
 10
-16.0
 20
6.0
 30
0.0
 11
-13.0
 21
12.5
 31
0.0
  0
ARC
  5
DF
  8
0
 10
0.0
 20
0.0
 30
0.0
 40
6.5
 50
270.0
 51
90.0
  0
CIRCLE
  5
E0
  8
0
 10
0.0
 20
0.0
 30
0.0
 40
4.5
  0
LINE
  5
E1
  8
0
 10
0.0
 20
-6.5
 30
0.0
 11
-7.0
 21
-6.5
 31
0.0
  0
CIRCLE
  5
E2
  8
0
 10
0.0
 20
0.0
 30
0.0
 40
0.75
  0
LINE
  5
E3
  8
0
 10
-7.0
 20
6.5
 30
0.0
 11
0.0
 21
6.5
 31
0.0
  0
ENDBLK
  5
E4
  8
0
  0
BLOCK
  8
0
  2
16H
 70
     0
 10
0.0
 20
0.0
 30
0.0
  3
16H
  1
16H
  0
ARC
  5
E6
  8
0
 10
32.5625
 20
0.0
 30
0.0
 40
15.0625
 50
150.1371656437249
 51
209.86283435627499
  0
LINE
  5
E7
  8
0
 10
37.0
 20
6.5
 30
0.0
 11
37.0
 21
-6.5
 31
0.0
  0
LINE
  5
E8
  8
0
 10
23.0
 20
-6.5
 30
0.0
 11
23.0
 21
6.5
 31
0.0
  0
ARC
  5
E9
  8
0
 10
29.057692307692321
 20
0.0
 30
0.0
 40
12.55769230769231
 50
118.841546255022
 51
241.158453744978
  0
ARC
  5
EA
  8
0
 10
-2.5625
 20
0.0
 30
0.0
 40
15.0625
 50
330.13716564372493
 51
29.862834356275108
  0
LINE
  5
EB
  8
0
 10
-7.0
 20
6.5
 30
0.0
 11
-7.0
 21
-6.5
 31
0.0
  0
LINE
  5
EC
  8
0
 10
7.0
 20
-6.5
 30
0.0
 11
7.0
 21
6.5
 31
0.0
  0
ARC
  5
ED
  8
0
 10
0.9423076923076791
 20
0.0
 30
0.0
 40
12.55769230769231
 50
298.84154625502202
 51
61.15845374497799
  0
LINE
  5
EE
  8
0
 10
36.5
 20
-12.5
 30
0.0
 11
-6.5
 21
-12.5
 31
0.0
  0
ARC
  5
EF
  8
0
 10
-0.772918271701002
 20
-22.48402082262897
 30
0.0
 40
11.510001603358059
 50
86.149583028926585
 51
119.8396505549063
  0
LINE
  5
F0
  8
0
 10
-6.5
 20
-7.0
 30
0.0
 11
6.5
 21
-7.0
 31
0.0
  0
LINE
  5
F1
  8
0
 10
-6.5
 20
-7.5
 30
0.0
 11
10.5
 21
-7.5
 31
0.0
  0
LINE
  5
F2
  8
0
 10
-6.5
 20
-12.5
 30
0.0
 11
-6.5
 21
-7.5
 31
0.0
  0
LINE
  5
F3
  8
0
 10
-6.5
 20
-7.5
 30
0.0
 11
-6.5
 21
-7.0
 31
0.0
  0
LINE
  5
F4
  8
0
 10
-7.0
 20
-6.5
 30
0.0
 11
-6.5
 21
-7.0
 31
0.0
  0
LINE
  5
F5
  8
0
 10
-1.545836543402018
 20
-11.0
 30
0.0
 11
7.0
 21
-11.0
 31
0.0
  0
ARC
  5
F6
  8
0
 10
0.0
 20
-32.5
 30
0.0
 40
20.5
 50
77.319616508180161
 51
102.6803834918198
  0
LINE
  5
F7
  8
0
 10
6.5
 20
-7.5
 30
0.0
 11
6.5
 21
-7.0
 31
0.0
  0
LINE
  5
F8
  8
0
 10
6.5
 20
-7.0
 30
0.0
 11
7.0
 21
-6.5
 31
0.0
  0
LINE
  5
F9
  8
0
 10
36.5
 20
-7.0
 30
0.0
 11
23.5
 21
-7.0
 31
0.0
  0
LINE
  5
FA
  8
0
 10
31.545836543402
 20
-11.0
 30
0.0
 11
23.0
 21
-11.0
 31
0.0
  0
ARC
  5
FB
  8
0
 10
30.0
 20
-32.5
 30
0.0
 40
20.5
 50
77.319616508180161
 51
102.6803834918198
  0
LINE
  5
FC
  8
0
 10
36.5
 20
-7.5
 30
0.0
 11
19.5
 21
-7.5
 31
0.0
  0
LINE
  5
FD
  8
0
 10
23.5
 20
-7.5
 30
0.0
 11
23.5
 21
-7.0
 31
0.0
  0
LINE
  5
FE
  8
0
 10
23.5
 20
-7.0
 30
0.0
 11
23.0
 21
-6.5
 31
0.0
  0
LINE
  5
FF
  8
0
 10
36.5
 20
-12.5
 30
0.0
 11
36.5
 21
-7.5
 31
0.0
  0
ARC
  5
100
  8
0
 10
30.772918271700998
 20
-22.48402082262897
 30
0.0
 40
11.510001603358059
 50
60.160349445093601
 51
93.850416971073386
  0
LINE
  5
101
  8
0
 10
36.5
 20
-7.5
 30
0.0
 11
36.5
 21
-7.0
 31
0.0
  0
LINE
  5
102
  8
0
 10
37.0
 20
-6.5
 30
0.0
 11
36.5
 21
-7.0
 31
0.0
  0
LINE
  5
103
  8
0
 10
-6.5
 20
12.5
 30
0.0
 11
36.5
 21
12.5
 31
0.0
  0
ARC
  5
104
  8
0
 10
-0.772918271701002
 20
22.48402082262897
 30
0.0
 40
11.510001603358059
 50
240.16034944509349
 51
273.8504169710734
  0
LINE
  5
105
  8
0
 10
6.5
 20
7.0
 30
0.0
 11
-6.5
 21
7.0
 31
0.0
  0
LINE
  5
106
  8
0
 10
-6.5
 20
7.5
 30
0.0
 11
10.5
 21
7.5
 31
0.0
  0
LINE
  5
107
  8
0
 10
-6.5
 20
7.5
 30
0.0
 11
-6.5
 21
12.5
 31
0.0
  0
LINE
  5
108
  8
0
 10
-6.5
 20
7.5
 30
0.0
 11
-6.5
 21
7.0
 31
0.0
  0
LINE
  5
109
  8
0
 10
-6.5
 20
7.0
 30
0.0
 11
-7.0
 21
6.5
 31
0.0
  0
LINE
  5
10A
  8
0
 10
-1.545836543402018
 20
11.0
 30
0.0
 11
7.0
 21
11.0
 31
0.0
  0
ARC
  5
10B
  8
0
 10
0.0
 20
32.5
 30
0.0
 40
20.5
 50
257.3196165081801
 51
282.68038349181978
  0
LINE
  5
10C
  8
0
 10
6.5
 20
7.5
 30
0.0
 11
6.5
 21
7.0
 31
0.0
  0
LINE
  5
10D
  8
0
 10
7.0
 20
6.5
 30
0.0
 11
6.5
 21
7.0
 31
0.0
  0
LINE
  5
10E
  8
0
 10
23.5
 20
7.0
 30
0.0
 11
36.5
 21
7.0
 31
0.0
  0
LINE
  5
10F
  8
0
 10
31.545836543402
 20
11.0
 30
0.0
 11
23.0
 21
11.0
 31
0.0
  0
ARC
  5
110
  8
0
 10
30.0
 20
32.5
 30
0.0
 40
20.5
 50
257.3196165081801
 51
282.68038349181978
  0
LINE
  5
111
  8
0
 10
36.5
 20
7.5
 30
0.0
 11
19.5
 21
7.5
 31
0.0
  0
LINE
  5
112
  8
0
 10
23.5
 20
7.5
 30
0.0
 11
23.5
 21
7.0
 31
0.0
  0
LINE
  5
113
  8
0
 10
23.0
 20
6.5
 30
0.0
 11
23.5
 21
7.0
 31
0.0
  0
ARC
  5
114
  8
0
 10
30.772918271700998
 20
22.48402082262897
 30
0.0
 40
11.510001603358059
 50
266.1495830289266
 51
299.83965055490643
  0
LINE
  5
115
  8
0
 10
36.5
 20
7.5
 30
0.0
 11
36.5
 21
12.5
 31
0.0
  0
LINE
  5
116
  8
0
 10
36.5
 20
7.5
 30
0.0
 11
36.5
 21
7.0
 31
0.0
  0
LINE
  5
117
  8
0
 10
36.5
 20
7.0
 30
0.0
 11
37.0
 21
6.5
 31
0.0
  0
ENDBLK
  5
118
  8
0
  0
BLOCK
  8
0
  2
20V
 70
     0
 10
0.0
 20
0.0
 30
0.0
  3
20V
  1
20V
  0
ARC
  5
11A
  8
0
 10
0.0
 20
0.0
 30
0.0
 40
8.0
 50
270.0
 51
90.0
  0
CIRCLE
  5
11B
  8
0
 10
0.0
 20
0.0
 30
0.0
 40
5.5
  0
LINE
  5
11C
  8
0
  6
DASHED
 10
-19.0
 20
-10.0
 30
0.0
 11
-15.5
 21
-16.0
 31
0.0
  0
LINE
  5
11D
  8
0
 10
-42.0
 20
16.0
 30
0.0
 11
-42.0
 21
-16.0
 31
0.0
  0
LINE
  5
11E
  8
0
 10
-43.0
 20
-15.0
 30
0.0
 11
-43.0
 21
15.0
 31
0.0
  0
LINE
  5
11F
  8
0
 10
-7.5
 20
-8.0
 30
0.0
 11
-15.5
 21
-16.0
 31
0.0
  0
LINE
  5
120
  8
0
 10
-15.5
 20
-16.0
 30
0.0
 11
-42.0
 21
-16.0
 31
0.0
  0
LINE
  5
121
  8
0
 10
-42.0
 20
-16.0
 30
0.0
 11
-43.0
 21
-15.0
 31
0.0
  0
LINE
  5
122
  8
0
  6
DASHED
 10
-43.0
 20
10.0
 30
0.0
 11
-19.0
 21
10.0
 31
0.0
  0
LINE
  5
123
  8
0
  6
DASHED
 10
-43.0
 20
-10.0
 30
0.0
 11
-19.0
 21
-10.0
 31
0.0
  0
LINE
  5
124
  8
0
 10
-42.0
 20
16.0
 30
0.0
 11
-15.5
 21
16.0
 31
0.0
  0
LINE
  5
125
  8
0
 10
-43.0
 20
15.0
 30
0.0
 11
-42.0
 21
16.0
 31
0.0
  0
LINE
  5
126
  8
0
 10
-15.5
 20
16.0
 30
0.0
 11
-7.5
 21
8.0
 31
0.0
  0
LINE
  5
127
  8
0
 10
0.0
 20
-8.0
 30
0.0
 11
-7.5
 21
-8.0
 31
0.0
  0
LINE
  5
128
  8
0
 10
-7.5
 20
8.0
 30
0.0
 11
0.0
 21
8.0
 31
0.0
  0
CIRCLE
  5
129
  8
0
 10
0.0
 20
0.0
 30
0.0
 40
1.0
  0
LINE
  5
12A
  8
0
  6
DASHED
 10
-19.0
 20
10.0
 30
0.0
 11
-15.5
 21
16.0
 31
0.0
  0
ENDBLK
  5
12B
  8
0
  0
BLOCK
  8
0
  2
20H
 70
     0
 10
0.0
 20
0.0
 30
0.0
  3
20H
  1
20H
  0
LINE
  5
12D
  8
0
 10
46.0
 20
-16.0
 30
0.0
 11
-8.0
 21
-16.0
 31
0.0
  0
LINE
  5
12E
  8
0
 10
-8.0
 20
16.0
 30
0.0
 11
46.0
 21
16.0
 31
0.0
  0
POLYLINE
  5
12F
  8
0
 66
     1
 10
0.0
 20
0.0
 30
0.0
 70
     1
  0
VERTEX
  5
220
  8
0
 10
47.0
 20
9.0
 30
0.0
  0
VERTEX
  5
221
  8
0
 10
47.0
 20
-9.0
 30
0.0
  0
VERTEX
  5
222
  8
0
 10
29.0
 20
-9.0
 30
0.0
  0
VERTEX
  5
223
  8
0
 10
29.0
 20
9.0
 30
0.0
  0
SEQEND
  5
224
  8
0
  0
LINE
  5
135
  8
0
 10
46.0
 20
-10.0
 30
0.0
 11
26.5
 21
-10.0
 31
0.0
  0
ARC
  5
136
  8
0
 10
38.389682701718243
 20
-29.441269193127049
 30
0.0
 40
15.446185513020129
 50
60.481878266036773
 51
91.445634798110277
  0
LINE
  5
137
  8
0
 10
46.0
 20
10.0
 30
0.0
 11
26.5
 21
10.0
 31
0.0
  0
ARC
  5
138
  8
0
 10
38.389682701718243
 20
29.441269193127049
 30
0.0
 40
15.446185513020129
 50
268.55436520188971
 51
299.5181217339632
  0
ARC
  5
139
  8
0
 10
37.0
 20
0.0
 30
0.0
 40
14.5
 50
136.39718102729631
 51
223.60281897270349
  0
ARC
  5
13A
  8
0
 10
36.888888888888879
 20
0.0
 30
0.0
 40
15.38888888888888
 50
114.52954745578469
 51
245.47045254421519
  0
ARC
  5
13B
  8
0
 10
1.0
 20
0.0
 30
0.0
 40
14.5
 50
316.39718102729631
 51
43.602818972703624
  0
ARC
  5
13C
  8
0
 10
1.111111111111114
 20
0.0
 30
0.0
 40
15.38888888888888
 50
294.52954745578472
 51
65.470452544215206
  0
POLYLINE
  5
13D
  8
0
 66
     1
 10
0.0
 20
0.0
 30
0.0
 70
     1
  0
VERTEX
  5
225
  8
0
 10
-9.0
 20
9.0
 30
0.0
  0
VERTEX
  5
226
  8
0
 10
-9.0
 20
-9.0
 30
0.0
  0
VERTEX
  5
227
  8
0
 10
9.0
 20
-9.0
 30
0.0
  0
VERTEX
  5
228
  8
0
 10
9.0
 20
9.0
 30
0.0
  0
SEQEND
  5
229
  8
0
  0
LINE
  5
143
  8
0
 10
-8.0
 20
-10.0
 30
0.0
 11
11.5
 21
-10.0
 31
0.0
  0
ARC
  5
144
  8
0
 10
0.0
 20
-30.625
 30
0.0
 40
15.625
 50
69.390307062467926
 51
110.609692937532
  0
ARC
  5
145
  8
0
 10
-0.3896827017182289
 20
-29.441269193127049
 30
0.0
 40
15.446185513020129
 50
88.554365201889709
 51
119.5181217339632
  0
LINE
  5
146
  8
0
 10
-8.5
 20
-10.0
 30
0.0
 11
-8.5
 21
-9.0
 31
0.0
  0
LINE
  5
147
  8
0
 10
-8.0
 20
-16.0
 30
0.0
 11
-8.0
 21
-10.0
 31
0.0
  0
LINE
  5
148
  8
0
 10
-8.0
 20
-10.0
 30
0.0
 11
-8.5
 21
-10.0
 31
0.0
  0
LINE
  5
149
  8
0
 10
8.5
 20
-9.0
 30
0.0
 11
8.5
 21
-10.0
 31
0.0
  0
LINE
  5
14A
  8
0
 10
-0.7793654034365291
 20
-14.0
 30
0.0
 11
7.5
 21
-14.0
 31
0.0
  0
LINE
  5
14B
  8
0
 10
29.5
 20
-9.0
 30
0.0
 11
29.5
 21
-10.0
 31
0.0
  0
LINE
  5
14C
  8
0
 10
38.779365403436543
 20
-14.0
 30
0.0
 11
30.5
 21
-14.0
 31
0.0
  0
ARC
  5
14D
  8
0
 10
38.0
 20
-30.625
 30
0.0
 40
15.625
 50
69.39030706246794
 51
110.609692937532
  0
LINE
  5
14E
  8
0
 10
-8.0
 20
10.0
 30
0.0
 11
11.5
 21
10.0
 31
0.0
  0
ARC
  5
14F
  8
0
 10
0.0
 20
30.625
 30
0.0
 40
15.625
 50
249.39030706246791
 51
290.60969293753197
  0
ARC
  5
150
  8
0
 10
-0.3896827017182289
 20
29.441269193127049
 30
0.0
 40
15.446185513020129
 50
240.48187826603669
 51
271.44563479811018
  0
LINE
  5
151
  8
0
 10
-8.0
 20
10.0
 30
0.0
 11
-8.0
 21
16.0
 31
0.0
  0
LINE
  5
152
  8
0
 10
-8.5
 20
10.0
 30
0.0
 11
-8.0
 21
10.0
 31
0.0
  0
LINE
  5
153
  8
0
 10
-8.5
 20
9.0
 30
0.0
 11
-8.5
 21
10.0
 31
0.0
  0
LINE
  5
154
  8
0
 10
8.5
 20
9.0
 30
0.0
 11
8.5
 21
10.0
 31
0.0
  0
LINE
  5
155
  8
0
 10
-0.7793654034365291
 20
14.0
 30
0.0
 11
7.5
 21
14.0
 31
0.0
  0
LINE
  5
156
  8
0
 10
29.5
 20
9.0
 30
0.0
 11
29.5
 21
10.0
 31
0.0
  0
LINE
  5
157
  8
0
 10
38.779365403436543
 20
14.0
 30
0.0
 11
30.5
 21
14.0
 31
0.0
  0
ARC
  5
158
  8
0
 10
38.0
 20
30.625
 30
0.0
 40
15.625
 50
249.39030706246791
 51
290.60969293753197
  0
LINE
  5
159
  8
0
 10
46.5
 20
-10.0
 30
0.0
 11
46.5
 21
-9.0
 31
0.0
  0
LINE
  5
15A
  8
0
 10
46.0
 20
-16.0
 30
0.0
 11
46.0
 21
-10.0
 31
0.0
  0
LINE
  5
15B
  8
0
 10
46.0
 20
-10.0
 30
0.0
 11
46.5
 21
-10.0
 31
0.0
  0
LINE
  5
15C
  8
0
 10
46.0
 20
10.0
 30
0.0
 11
46.0
 21
16.0
 31
0.0
  0
LINE
  5
15D
  8
0
 10
46.5
 20
9.0
 30
0.0
 11
46.5
 21
10.0
 31
0.0
  0
LINE
  5
15E
  8
0
 10
46.5
 20
10.0
 30
0.0
 11
46.0
 21
10.0
 31
0.0
  0
ENDBLK
  5
15F
  8
0
  0
BLOCK
  8
0
  2
25V
 70
     0
 10
0.0
 20
0.0
 30
0.0
  3
25V
  1
25V
  0
LINE
  5
161
  8
0
 10
-20.0
 20
21.0
 30
0.0
 11
-9.0
 21
10.0
 31
0.0
  0
LINE
  5
162
  8
0
 10
-9.0
 20
-10.0
 30
0.0
 11
-20.0
 21
-21.0
 31
0.0
  0
LINE
  5
163
  8
0
 10
-53.0
 20
21.0
 30
0.0
 11
-53.0
 21
-21.0
 31
0.0
  0
LINE
  5
164
  8
0
 10
-54.0
 20
-20.0
 30
0.0
 11
-54.0
 21
20.0
 31
0.0
  0
LINE
  5
165
  8
0
  6
DASHED
 10
-54.0
 20
-12.5
 30
0.0
 11
-23.0
 21
-12.5
 31
0.0
  0
LINE
  5
166
  8
0
 10
-20.0
 20
-21.0
 30
0.0
 11
-53.0
 21
-21.0
 31
0.0
  0
LINE
  5
167
  8
0
 10
-53.0
 20
-21.0
 30
0.0
 11
-54.0
 21
-20.0
 31
0.0
  0
LINE
  5
168
  8
0
  6
DASHED
 10
-23.0
 20
-12.5
 30
0.0
 11
-20.0
 21
-21.0
 31
0.0
  0
LINE
  5
169
  8
0
 10
-53.0
 20
21.0
 30
0.0
 11
-20.0
 21
21.0
 31
0.0
  0
LINE
  5
16A
  8
0
  6
DASHED
 10
-54.0
 20
12.5
 30
0.0
 11
-23.0
 21
12.5
 31
0.0
  0
LINE
  5
16B
  8
0
 10
-54.0
 20
20.0
 30
0.0
 11
-53.0
 21
21.0
 31
0.0
  0
LINE
  5
16C
  8
0
  6
DASHED
 10
-23.0
 20
12.5
 30
0.0
 11
-20.0
 21
21.0
 31
0.0
  0
CIRCLE
  5
16D
  8
0
 10
0.0
 20
0.0
 30
0.0
 40
6.5
  0
ARC
  5
16E
  8
0
 10
0.0
 20
0.0
 30
0.0
 40
10.0
 50
270.0
 51
90.0
  0
LINE
  5
16F
  8
0
 10
0.0
 20
-10.0
 30
0.0
 11
-9.0
 21
-10.0
 31
0.0
  0
CIRCLE
  5
170
  8
0
 10
0.0
 20
0.0
 30
0.0
 40
1.5
  0
LINE
  5
171
  8
0
 10
-9.0
 20
10.0
 30
0.0
 11
0.0
 21
10.0
 31
0.0
  0
ENDBLK
  5
172
  8
0
  0
BLOCK
  8
0
  2
25H
 70
     0
 10
0.0
 20
0.0
 30
0.0
  3
25H
  1
25H
  0
LINE
  5
174
  8
0
 10
61.5
 20
-21.0
 30
0.0
 11
-10.0
 21
-21.0
 31
0.0
  0
LINE
  5
175
  8
0
 10
-10.0
 20
21.0
 30
0.0
 11
61.5
 21
21.0
 31
0.0
  0
LINE
  5
176
  8
0
 10
51.50000000000005
 20
18.5
 30
0.0
 11
42.5
 21
18.5
 31
0.0
  0
ARC
  5
177
  8
0
 10
51.5
 20
41.625
 30
0.0
 40
21.625
 50
252.5076754748896
 51
287.49232452511029
  0
LINE
  5
178
  8
0
 10
51.50000000000005
 20
-18.5
 30
0.0
 11
42.5
 21
-18.5
 31
0.0
  0
ARC
  5
179
  8
0
 10
51.5
 20
-41.625
 30
0.0
 40
21.625
 50
72.507675474889567
 51
107.4923245251104
  0
POLYLINE
  5
17A
  8
0
 66
     1
 10
0.0
 20
0.0
 30
0.0
 70
     1
  0
VERTEX
  5
22A
  8
0
 10
62.5
 20
11.0
 30
0.0
  0
VERTEX
  5
22B
  8
0
 10
62.5
 20
-11.0
 30
0.0
  0
VERTEX
  5
22C
  8
0
 10
40.499999999999993
 20
-11.0
 30
0.0
  0
VERTEX
  5
22D
  8
0
 10
40.499999999999993
 20
11.0
 30
0.0
  0
SEQEND
  5
22E
  8
0
  0
LINE
  5
180
  8
0
 10
61.5
 20
-12.0
 30
0.0
 11
35.5
 21
-12.0
 31
0.0
  0
LINE
  5
181
  8
0
 10
61.5
 20
12.0
 30
0.0
 11
35.5
 21
12.0
 31
0.0
  0
ARC
  5
182
  8
0
 10
51.5
 20
0.0
 30
0.0
 40
20.0
 50
143.13010235415589
 51
216.86989764584399
  0
ARC
  5
183
  8
0
 10
49.939999999999991
 20
0.0
 30
0.0
 40
19.939999999999991
 50
111.9081252867966
 51
248.09187471320331
  0
ARC
  5
184
  8
0
 10
0.0
 20
0.0
 30
0.0
 40
20.0
 50
323.13010235415601
 51
36.869897645844013
  0
ARC
  5
185
  8
0
 10
1.5600000000000021
 20
0.0
 30
0.0
 40
19.939999999999991
 50
291.90812528679658
 51
68.091874713203353
  0
POLYLINE
  5
186
  8
0
 66
     1
 10
0.0
 20
0.0
 30
0.0
 70
     1
  0
VERTEX
  5
22F
  8
0
 10
-11.0
 20
11.0
 30
0.0
  0
VERTEX
  5
230
  8
0
 10
-11.0
 20
-11.0
 30
0.0
  0
VERTEX
  5
231
  8
0
 10
11.0
 20
-11.0
 30
0.0
  0
VERTEX
  5
232
  8
0
 10
11.0
 20
11.0
 30
0.0
  0
SEQEND
  5
233
  8
0
  0
LINE
  5
18C
  8
0
 10
-10.0
 20
-12.0
 30
0.0
 11
16.0
 21
-12.0
 31
0.0
  0
ARC
  5
18D
  8
0
 10
0.0
 20
-41.625
 30
0.0
 40
21.625
 50
72.507675474889567
 51
107.4923245251104
  0
LINE
  5
18E
  8
0
 10
-10.0
 20
-21.0
 30
0.0
 11
-10.0
 21
-12.0
 31
0.0
  0
ARC
  5
18F
  8
0
 10
2.7028470752104852
 20
-50.561388300841912
 30
0.0
 40
32.1751146398787
 50
94.818769056465484
 51
113.25371787938739
  0
LINE
  5
190
  8
0
 10
-10.5
 20
-12.0
 30
0.0
 11
-10.5
 21
-11.0
 31
0.0
  0
LINE
  5
191
  8
0
 10
-10.0
 20
-12.0
 30
0.0
 11
-10.5
 21
-12.0
 31
0.0
  0
LINE
  5
192
  8
0
 10
-0.0000000000000568
 20
-18.5
 30
0.0
 11
9.0
 21
-18.5
 31
0.0
  0
LINE
  5
193
  8
0
 10
10.5
 20
-11.0
 30
0.0
 11
10.5
 21
-12.0
 31
0.0
  0
LINE
  5
194
  8
0
  6
DASHED
 10
16.0
 20
-12.0
 30
0.0
 11
16.5
 21
-12.5
 31
0.0
  0
LINE
  5
195
  8
0
  6
DASHED
 10
35.5
 20
-12.0
 30
0.0
 11
35.0
 21
-12.5
 31
0.0
  0
LINE
  5
196
  8
0
 10
41.0
 20
-11.0
 30
0.0
 11
41.0
 21
-12.0
 31
0.0
  0
LINE
  5
197
  8
0
 10
-10.0
 20
12.0
 30
0.0
 11
16.0
 21
12.0
 31
0.0
  0
ARC
  5
198
  8
0
 10
0.0
 20
41.625
 30
0.0
 40
21.625
 50
252.5076754748896
 51
287.4923245251104
  0
ARC
  5
199
  8
0
 10
2.7028470752104852
 20
50.561388300841912
 30
0.0
 40
32.1751146398787
 50
246.74628212061251
 51
265.18123094353439
  0
LINE
  5
19A
  8
0
 10
-10.0
 20
12.0
 30
0.0
 11
-10.0
 21
21.0
 31
0.0
  0
LINE
  5
19B
  8
0
 10
-10.5
 20
11.0
 30
0.0
 11
-10.5
 21
12.0
 31
0.0
  0
LINE
  5
19C
  8
0
 10
-10.5
 20
12.0
 30
0.0
 11
-10.0
 21
12.0
 31
0.0
  0
LINE
  5
19D
  8
0
 10
10.5
 20
11.0
 30
0.0
 11
10.5
 21
12.0
 31
0.0
  0
LINE
  5
19E
  8
0
 10
-0.0000000000000568
 20
18.5
 30
0.0
 11
9.0
 21
18.5
 31
0.0
  0
LINE
  5
19F
  8
0
  6
DASHED
 10
16.0
 20
12.0
 30
0.0
 11
16.5
 21
12.5
 31
0.0
  0
LINE
  5
1A0
  8
0
  6
DASHED
 10
35.5
 20
12.0
 30
0.0
 11
35.0
 21
12.5
 31
0.0
  0
LINE
  5
1A1
  8
0
 10
41.0
 20
11.0
 30
0.0
 11
41.0
 21
12.0
 31
0.0
  0
LINE
  5
1A2
  8
0
 10
61.5
 20
-21.0
 30
0.0
 11
61.5
 21
-12.0
 31
0.0
  0
ARC
  5
1A3
  8
0
 10
48.797152924789522
 20
-50.561388300841912
 30
0.0
 40
32.1751146398787
 50
66.74628212061252
 51
85.181230943534516
  0
LINE
  5
1A4
  8
0
 10
62.0
 20
-12.0
 30
0.0
 11
62.0
 21
-11.0
 31
0.0
  0
LINE
  5
1A5
  8
0
 10
61.5
 20
-12.0
 30
0.0
 11
62.0
 21
-12.0
 31
0.0
  0
LINE
  5
1A6
  8
0
 10
61.5
 20
12.0
 30
0.0
 11
61.5
 21
21.0
 31
0.0
  0
LINE
  5
1A7
  8
0
 10
62.0
 20
11.0
 30
0.0
 11
62.0
 21
12.0
 31
0.0
  0
LINE
  5
1A8
  8
0
 10
62.0
 20
12.0
 30
0.0
 11
61.5
 21
12.0
 31
0.0
  0
ARC
  5
1A9
  8
0
 10
48.797152924789522
 20
50.561388300841912
 30
0.0
 40
32.1751146398787
 50
274.81876905646538
 51
293.25371787938741
  0
ENDBLK
  5
1AA
  8
0
  0
BLOCK
  8
0
  2
30V
 70
     0
 10
0.0
 20
0.0
 30
0.0
  3
30V
  1
30V
  0
LINE
  5
1AC
  8
0
  6
DASHED
 10
-28.0
 20
15.0
 30
0.0
 11
-25.0
 21
25.0
 31
0.0
  0
LINE
  5
1AD
  8
0
 10
-65.0
 20
-25.0
 30
0.0
 11
-65.0
 21
25.0
 31
0.0
  0
LINE
  5
1AE
  8
0
 10
-66.0
 20
-24.0
 30
0.0
 11
-66.0
 21
24.0
 31
0.0
  0
LINE
  5
1AF
  8
0
 10
-24.5
 20
25.0
 30
0.0
 11
-11.0
 21
12.5
 31
0.0
  0
LINE
  5
1B0
  8
0
 10
-11.0
 20
-12.5
 30
0.0
 11
-24.5
 21
-25.0
 31
0.0
  0
LINE
  5
1B1
  8
0
  6
DASHED
 10
-28.0
 20
-15.0
 30
0.0
 11
-25.0
 21
-25.0
 31
0.0
  0
LINE
  5
1B2
  8
0
 10
-24.5
 20
-25.0
 30
0.0
 11
-65.0
 21
-25.0
 31
0.0
  0
LINE
  5
1B3
  8
0
 10
-65.0
 20
-25.0
 30
0.0
 11
-66.0
 21
-24.0
 31
0.0
  0
LINE
  5
1B4
  8
0
  6
DASHED
 10
-66.0
 20
15.0
 30
0.0
 11
-28.0
 21
15.0
 31
0.0
  0
LINE
  5
1B5
  8
0
  6
DASHED
 10
-66.0
 20
-15.0
 30
0.0
 11
-28.0
 21
-15.0
 31
0.0
  0
ARC
  5
1B6
  8
0
 10
0.0
 20
0.0
 30
0.0
 40
12.5
 50
270.0
 51
90.0
  0
CIRCLE
  5
1B7
  8
0
 10
0.0
 20
0.0
 30
0.0
 40
1.5
  0
CIRCLE
  5
1B8
  8
0
 10
0.0
 20
0.0
 30
0.0
 40
8.0
  0
LINE
  5
1B9
  8
0
 10
0.0
 20
-12.5
 30
0.0
 11
-11.0
 21
-12.5
 31
0.0
  0
LINE
  5
1BA
  8
0
 10
-11.0
 20
12.5
 30
0.0
 11
0.0
 21
12.5
 31
0.0
  0
LINE
  5
1BB
  8
0
 10
-65.0
 20
25.0
 30
0.0
 11
-24.5
 21
25.0
 31
0.0
  0
LINE
  5
1BC
  8
0
 10
-66.0
 20
24.0
 30
0.0
 11
-65.0
 21
25.0
 31
0.0
  0
ENDBLK
  5
1BD
  8
0
  0
BLOCK
  8
0
  2
30H
 70
     0
 10
0.0
 20
0.0
 30
0.0
  3
30H
  1
30H
  0
LINE
  5
1BF
  8
0
 10
-12.5
 20
-25.0
 30
0.0
 11
68.5
 21
-25.0
 31
0.0
  0
LINE
  5
1C0
  8
0
 10
-12.5
 20
25.0
 30
0.0
 11
68.5
 21
25.0
 31
0.0
  0
LINE
  5
1C1
  8
0
 10
68.5
 20
15.0
 30
0.0
 11
37.0
 21
15.0
 31
0.0
  0
LINE
  5
1C2
  8
0
 10
68.5
 20
-15.0
 30
0.0
 11
37.0
 21
-15.0
 31
0.0
  0
POLYLINE
  5
1C3
  8
0
 66
     1
 10
0.0
 20
0.0
 30
0.0
 70
     1
  0
VERTEX
  5
234
  8
0
 10
69.5
 20
13.5
 30
0.0
  0
VERTEX
  5
235
  8
0
 10
69.5
 20
-13.5
 30
0.0
  0
VERTEX
  5
236
  8
0
 10
42.5
 20
-13.5
 30
0.0
  0
VERTEX
  5
237
  8
0
 10
42.5
 20
13.5
 30
0.0
  0
SEQEND
  5
238
  8
0
  0
ARC
  5
1C9
  8
0
 10
54.538135593220353
 20
0.1087570621468927
 30
0.0
 40
24.538376606650932
 50
114.1469947773644
 51
247.12619237456241
  0
ARC
  5
1CA
  8
0
 10
54.704545454545467
 20
0.0
 30
0.0
 40
23.20454545454546
 50
139.72739314350369
 51
220.2726068564962
  0
ARC
  5
1CB
  8
0
 10
1.2954545454545321
 20
0.0
 30
0.0
 40
23.20454545454546
 50
319.72739314350372
 51
40.272606856496239
  0
ARC
  5
1CC
  8
0
 10
1.4618644067796529
 20
0.1087570621468927
 30
0.0
 40
24.538376606650932
 50
292.87380762543751
 51
65.853005222635488
  0
POLYLINE
  5
1CD
  8
0
 66
     1
 10
0.0
 20
0.0
 30
0.0
 70
     1
  0
VERTEX
  5
239
  8
0
 10
-13.5
 20
13.5
 30
0.0
  0
VERTEX
  5
23A
  8
0
 10
-13.5
 20
-13.5
 30
0.0
  0
VERTEX
  5
23B
  8
0
 10
13.5
 20
-13.5
 30
0.0
  0
VERTEX
  5
23C
  8
0
 10
13.5
 20
13.5
 30
0.0
  0
SEQEND
  5
23D
  8
0
  0
LINE
  5
1D3
  8
0
 10
-12.5
 20
-15.0
 30
0.0
 11
19.0
 21
-15.0
 31
0.0
  0
LINE
  5
1D4
  8
0
 10
-12.5
 20
-25.0
 30
0.0
 11
-12.5
 21
-15.0
 31
0.0
  0
ARC
  5
1D5
  8
0
 10
0.0
 20
-45.583333333333321
 30
0.0
 40
22.083333333333329
 50
68.760689447689757
 51
111.2393105523102
  0
ARC
  5
1D6
  8
0
 10
1.0
 20
-60.0
 30
0.0
 40
37.51333096380538
 50
91.527525442212934
 51
111.0923395058274
  0
LINE
  5
1D7
  8
0
 10
0.0
 20
-22.5
 30
0.0
 11
11.0
 21
-22.5
 31
0.0
  0
LINE
  5
1D8
  8
0
 10
-13.0
 20
-13.5
 30
0.0
 11
-13.0
 21
-15.0
 31
0.0
  0
LINE
  5
1D9
  8
0
 10
-13.0
 20
-15.0
 30
0.0
 11
-12.5
 21
-15.0
 31
0.0
  0
LINE
  5
1DA
  8
0
 10
13.0
 20
-15.0
 30
0.0
 11
13.0
 21
-13.5
 31
0.0
  0
LINE
  5
1DB
  8
0
 10
43.0
 20
-15.0
 30
0.0
 11
43.0
 21
-13.5
 31
0.0
  0
LINE
  5
1DC
  8
0
 10
-12.5
 20
15.0
 30
0.0
 11
19.0
 21
15.0
 31
0.0
  0
ARC
  5
1DD
  8
0
 10
0.0
 20
45.583333333333343
 30
0.0
 40
22.083333333333339
 50
248.76068944768971
 51
291.2393105523102
  0
ARC
  5
1DE
  8
0
 10
1.0
 20
60.0
 30
0.0
 40
37.51333096380538
 50
248.90766049417249
 51
271.52752544221289
  0
LINE
  5
1DF
  8
0
 10
-12.5
 20
15.0
 30
0.0
 11
-12.5
 21
25.0
 31
0.0
  0
LINE
  5
1E0
  8
0
 10
-13.0
 20
13.5
 30
0.0
 11
-13.0
 21
15.0
 31
0.0
  0
LINE
  5
1E1
  8
0
 10
-13.0
 20
15.0
 30
0.0
 11
-12.5
 21
15.0
 31
0.0
  0
LINE
  5
1E2
  8
0
 10
0.0
 20
22.5
 30
0.0
 11
11.5
 21
22.5
 31
0.0
  0
LINE
  5
1E3
  8
0
 10
13.0
 20
13.5
 30
0.0
 11
13.0
 21
15.0
 31
0.0
  0
LINE
  5
1E4
  8
0
 10
43.0
 20
13.5
 30
0.0
 11
43.0
 21
15.0
 31
0.0
  0
LINE
  5
1E5
  8
0
 10
68.5
 20
-25.0
 30
0.0
 11
68.5
 21
-15.0
 31
0.0
  0
ARC
  5
1E6
  8
0
 10
56.0
 20
-45.583333333333321
 30
0.0
 40
22.083333333333329
 50
68.760689447689771
 51
111.2393105523102
  0
ARC
  5
1E7
  8
0
 10
55.0
 20
-60.0
 30
0.0
 40
37.51333096380538
 50
68.907660494172561
 51
88.472474557787038
  0
LINE
  5
1E8
  8
0
 10
56.0
 20
-22.5
 30
0.0
 11
45.0
 21
-22.5
 31
0.0
  0
LINE
  5
1E9
  8
0
 10
69.0
 20
-15.0
 30
0.0
 11
68.5
 21
-15.0
 31
0.0
  0
LINE
  5
1EA
  8
0
 10
69.0
 20
-13.5
 30
0.0
 11
69.0
 21
-15.0
 31
0.0
  0
ARC
  5
1EB
  8
0
 10
56.0
 20
45.583333333333343
 30
0.0
 40
22.083333333333339
 50
248.76068944768971
 51
291.2393105523102
  0
ARC
  5
1EC
  8
0
 10
55.0
 20
60.0
 30
0.0
 40
37.51333096380538
 50
268.472474557787
 51
291.0923395058274
  0
LINE
  5
1ED
  8
0
 10
56.0
 20
22.5
 30
0.0
 11
44.5
 21
22.5
 31
0.0
  0
LINE
  5
1EE
  8
0
 10
69.0
 20
15.0
 30
0.0
 11
68.5
 21
15.0
 31
0.0
  0
LINE
  5
1EF
  8
0
 10
68.5
 20
15.0
 30
0.0
 11
68.5
 21
25.0
 31
0.0
  0
LINE
  5
1F0
  8
0
 10
69.0
 20
13.5
 30
0.0
 11
69.0
 21
15.0
 31
0.0
  0
ENDBLK
  5
1F1
  8
0
  0
ENDSEC
  0
SECTION
  2
ENTITIES
  0
INSERT
  5
1F2
  8
0
  2
10V
 10
50.0
 20
250.0
 30
0.0
  0
INSERT
  5
1F3
  8
0
  2
10H
 10
50.0
 20
250.0
 30
0.0
  0
INSERT
  5
1F4
  8
0
  2
10V
 10
72.0
 20
250.0
 30
0.0
 50
180.0
  0
INSERT
  5
1F5
  8
0
  2
12V
 10
50.0
 20
200.0
 30
0.0
  0
INSERT
  5
1F6
  8
0
  2
12H
 10
50.0
 20
200.0
 30
0.0
  0
INSERT
  5
1F7
  8
0
  2
12V
 10
76.0
 20
200.0
 30
0.0
 50
180.0
  0
INSERT
  5
1F8
  8
0
  2
16V
 10
50.0
 20
150.0
 30
0.0
  0
INSERT
  5
1F9
  8
0
  2
16H
 10
50.0
 20
150.0
 30
0.0
  0
INSERT
  5
1FA
  8
0
  2
16V
 10
80.0
 20
150.0
 30
0.0
 50
180.0
  0
INSERT
  5
1FB
  8
0
  2
20V
 10
250.0
 20
250.0
 30
0.0
  0
INSERT
  5
1FC
  8
0
  2
20H
 10
250.0
 20
250.0
 30
0.0
  0
INSERT
  5
1FD
  8
0
  2
20V
 10
288.0
 20
250.0
 30
0.0
 50
180.0
  0
INSERT
  5
1FE
  8
0
  2
25V
 10
250.0
 20
200.0
 30
0.0
  0
INSERT
  5
1FF
  8
0
  2
25H
 10
250.0
 20
200.0
 30
0.0
  0
INSERT
  5
200
  8
0
  2
25V
 10
301.5
 20
200.0
 30
0.0
 50
180.0
  0
INSERT
  5
201
  8
0
  2
30V
 10
250.0
 20
130.0
 30
0.0
  0
INSERT
  5
202
  8
0
  2
30H
 10
250.0
 20
130.0
 30
0.0
  0
INSERT
  5
203
  8
0
  2
30V
 10
306.0
 20
130.0
 30
0.0
 50
180.0
  0
ENDSEC
  0
EOF
