  0
SECTION
  2
HEADER
  9
$ACADVER
  1
AC1009
  9
$INSBASE
 10
515.281673
 20
116.745271
 30
0.0
  9
$EXTMIN
 10
428.22067
 20
39.249565
 30
0.0
  9
$EXTMAX
 10
832.19177
 20
303.294869
 30
0.0
  9
$LIMMIN
 10
0.0
 20
0.0
  9
$LIMMAX
 10
12.0
 20
9.0
  9
$ORTHOMODE
 70
     1
  9
$REGENMODE
 70
     1
  9
$FILLMODE
 70
     1
  9
$QTEXTMODE
 70
     0
  9
$MIRRTEXT
 70
     1
  9
$DRAGMODE
 70
     2
  9
$LTSCALE
 40
2.0
  9
$OSMODE
 70
     0
  9
$ATTMODE
 70
     1
  9
$TEXTSIZE
 40
0.2
  9
$TRACEWID
 40
0.05
  9
$TEXTSTYLE
  7
STANDARD
  9
$CLAYER
  8
0
  9
$CELTYPE
  6
BYLAYER
  9
$CECOLOR
 62
   256
  9
$DIMSCALE
 40
1.0
  9
$DIMASZ
 40
2.5
  9
$DIMEXO
 40
0.0
  9
$DIMDLI
 40
5.0
  9
$DIMRND
 40
0.0
  9
$DIMDLE
 40
0.0
  9
$DIMEXE
 40
1.0
  9
$DIMTP
 40
0.0
  9
$DIMTM
 40
0.0
  9
$DIMTXT
 40
2.5
  9
$DIMCEN
 40
0.09
  9
$DIMTSZ
 40
0.0
  9
$DIMTOL
 70
     0
  9
$DIMLIM
 70
     0
  9
$DIMTIH
 70
     0
  9
$DIMTOH
 70
     0
  9
$DIMSE1
 70
     0
  9
$DIMSE2
 70
     0
  9
$DIMTAD
 70
     1
  9
$DIMZIN
 70
     0
  9
$DIMBLK
  1

  9
$DIMASO
 70
     0
  9
$DIMSHO
 70
     0
  9
$DIMPOST
  1

  9
$DIMAPOST
  1

  9
$DIMALT
 70
     0
  9
$DIMALTD
 70
     2
  9
$DIMALTF
 40
25.4
  9
$DIMLFAC
 40
1.0
  9
$DIMTOFL
 70
     1
  9
$DIMTVP
 40
0.0
  9
$DIMTIX
 70
     0
  9
$DIMSOXD
 70
     0
  9
$DIMSAH
 70
     0
  9
$DIMBLK1
  1

  9
$DIMBLK2
  1

  9
$DIMSTYLE
  2
*UNNAMED
  9
$DIMCLRD
 70
     0
  9
$DIMCLRE
 70
     0
  9
$DIMCLRT
 70
     0
  9
$DIMTFAC
 40
1.0
  9
$DIMGAP
 40
0.09
  9
$LUNITS
 70
     2
  9
$LUPREC
 70
     4
  9
$SKETCHINC
 40
0.1
  9
$FILLETRAD
 40
0.0
  9
$AUNITS
 70
     0
  9
$AUPREC
 70
     0
  9
$MENU
  1
wiberger
  9
$ELEVATION
 40
0.0
  9
$PELEVATION
 40
0.0
  9
$THICKNESS
 40
0.0
  9
$LIMCHECK
 70
     0
  9
$BLIPMODE
 70
     1
  9
$CHAMFERA
 40
0.0
  9
$CHAMFERB
 40
0.0
  9
$SKPOLY
 70
     0
  9
$TDCREATE
 40
2450192.415406366
  9
$TDUPDATE
 40
2450192.415406366
  9
$TDINDWG
 40
0.0000000000
  9
$TDUSRTIMER
 40
0.0000000000
  9
$USRTIMER
 70
     1
  9
$ANGBASE
 50
0.0
  9
$ANGDIR
 70
     0
  9
$PDMODE
 70
     0
  9
$PDSIZE
 40
0.0
  9
$PLINEWID
 40
0.0
  9
$COORDS
 70
     0
  9
$SPLFRAME
 70
     0
  9
$SPLINETYPE
 70
     6
  9
$SPLINESEGS
 70
     8
  9
$ATTDIA
 70
     0
  9
$ATTREQ
 70
     1
  9
$HANDLING
 70
     0
  9
$HANDSEED
  5
0
  9
$SURFTAB1
 70
     6
  9
$SURFTAB2
 70
     6
  9
$SURFTYPE
 70
     6
  9
$SURFU
 70
     6
  9
$SURFV
 70
     6
  9
$UCSNAME
  2

  9
$UCSORG
 10
0.0
 20
0.0
 30
0.0
  9
$UCSXDIR
 10
1.0
 20
0.0
 30
0.0
  9
$UCSYDIR
 10
0.0
 20
1.0
 30
0.0
  9
$PUCSNAME
  2

  9
$PUCSORG
 10
0.0
 20
0.0
 30
0.0
  9
$PUCSXDIR
 10
1.0
 20
0.0
 30
0.0
  9
$PUCSYDIR
 10
0.0
 20
1.0
 30
0.0
  9
$USERI1
 70
     0
  9
$USERI2
 70
     0
  9
$USERI3
 70
     0
  9
$USERI4
 70
     0
  9
$USERI5
 70
     0
  9
$USERR1
 40
0.0
  9
$USERR2
 40
0.0
  9
$USERR3
 40
0.0
  9
$USERR4
 40
0.0
  9
$USERR5
 40
0.0
  9
$WORLDVIEW
 70
     1
  9
$SHADEDGE
 70
     3
  9
$SHADEDIF
 70
    70
  9
$TILEMODE
 70
     1
  9
$MAXACTVP
 70
    16
  9
$PINSBASE
 10
0.0
 20
0.0
 30
0.0
  9
$PLIMCHECK
 70
     0
  9
$PEXTMIN
 10
1.000000E+20
 20
1.000000E+20
 30
1.000000E+20
  9
$PEXTMAX
 10
-1.000000E+20
 20
-1.000000E+20
 30
-1.000000E+20
  9
$PLIMMIN
 10
0.0
 20
0.0
  9
$PLIMMAX
 10
12.0
 20
9.0
  9
$UNITMODE
 70
     0
  9
$VISRETAIN
 70
     0
  9
$PLINEGEN
 70
     0
  9
$PSLTSCALE
 70
     0
  9
$TREEDEPTH
 70
  3020
  9
$DWGCODEPAGE
  3
undefined
  0
ENDSEC
  0
SECTION
  2
TABLES
  0
TABLE
  2
VPORT
 70
     2
  0
VPORT
  2
*ACTIVE
 70
     0
 10
0.0
 20
0.0
 11
1.0
 21
1.0
 12
570.543677
 22
214.420918
 13
0.0
 23
0.0
 14
1.0
 24
1.0
 15
0.0
 25
0.0
 16
0.0
 26
0.0
 36
1.0
 17
0.0
 27
0.0
 37
0.0
 40
164.876792
 41
1.767507
 42
50.0
 43
0.0
 44
0.0
 50
0.0
 51
0.0
 71
     0
 72
   100
 73
     1
 74
     0
 75
     0
 76
     0
 77
     0
 78
     0
  0
ENDTAB
  0
TABLE
  2
LTYPE
 70
     3
  0
LTYPE
  2
CONTINUOUS
 70
    64
  3
Solid line
 72
    65
 73
     0
 40
0.0
  0
LTYPE
  2
CENTER
 70
     0
  3
____ _ ____ _ ____ _ ____ _ ____ _ ____ _ ____
 72
    65
 73
     4
 40
2.0
 49
1.25
 49
-0.25
 49
0.25
 49
-0.25
  0
LTYPE
  2
DASHED
 70
    64
  3
__ __ __ __ __ __ __ __ __ __ __ __ __ __ __ __
 72
    65
 73
     2
 40
0.75
 49
0.5
 49
-0.25
  0
ENDTAB
  0
TABLE
  2
LAYER
 70
     1
  0
LAYER
  2
0
 70
    64
 62
     7
  6
CONTINUOUS
  0
ENDTAB
  0
TABLE
  2
STYLE
 70
     1
  0
STYLE
  2
STANDARD
 70
     0
 40
0.0
 41
1.0
 50
0.0
 71
     0
 42
0.2
  3
txt
  4

  0
ENDTAB
  0
TABLE
  2
VIEW
 70
     0
  0
ENDTAB
  0
TABLE
  2
UCS
 70
     0
  0
ENDTAB
  0
TABLE
  2
APPID
 70
     1
  0
APPID
  2
ACAD
 70
    64
  0
ENDTAB
  0
TABLE
  2
DIMSTYLE
 70
     0
  0
ENDTAB
  0
ENDSEC
  0
SECTION
  2
BLOCKS
  0
BLOCK
  8
0
  2
DIN6311
 70
     0
 10
0.0
 20
0.0
 30
0.0
  3
DIN6311
  0
CIRCLE
  8
0
 10
61.106795
 20
-7.735322
 30
0.0
 40
30.167441
  0
CIRCLE
  8
0
 10
-6.795219
 20
-9.637941
 30
0.0
 40
26.262141
  0
CIRCLE
  8
0
 10
92.719143
 20
43.427777
 30
0.0
 40
19.309694
  0
CIRCLE
  8
0
 10
53.299858
 20
43.848038
 30
0.0
 40
16.00688
  0
CIRCLE
  8
0
 10
18.950827
 20
43.798626
 30
0.0
 40
14.738337
  0
CIRCLE
  8
0
 10
-14.378518
 20
41.562554
 30
0.0
 40
13.22315
  0
LINE
  8
0
 10
43.799858
 20
37.848038
 30
0.0
 11
62.799858
 21
37.848038
 31
0.0
  0
LINE
  8
0
 10
-19.878518
 20
38.062554
 30
0.0
 11
-8.878518
 21
38.062554
 31
0.0
  0
LINE
  8
0
 10
41.106795
 20
-24.835322
 30
0.0
 11
81.106795
 21
-24.835322
 31
0.0
  0
LINE
  8
0
 10
41.106795
 20
-18.835322
 30
0.0
 11
81.106795
 21
-18.835322
 31
0.0
  0
LINE
  8
0
 10
47.106795
 20
-11.835322
 30
0.0
 11
75.106795
 21
-11.835322
 31
0.0
  0
LINE
  8
0
 10
42.606795
 20
-17.335322
 30
0.0
 11
79.606795
 21
-17.335322
 31
0.0
  0
ARC
  8
0
 10
77.106795
 20
-15.335322
 30
0.0
 40
2.0
 50
180.0
 51
270.0
  0
ARC
  8
0
 10
45.106795
 20
-15.335322
 30
0.0
 40
2.0
 50
270.0
 51
360.0
  0
LINE
  8
0
 10
75.106795
 20
-11.835322
 30
0.0
 11
75.106795
 21
-15.335322
 31
0.0
  0
LINE
  8
0
 10
41.106795
 20
-18.835322
 30
0.0
 11
42.606795
 21
-17.335322
 31
0.0
  0
LINE
  8
0
 10
42.606795
 20
-26.335322
 30
0.0
 11
41.106795
 21
-24.835322
 31
0.0
  0
LINE
  8
0
 10
81.106795
 20
-24.835322
 30
0.0
 11
79.606795
 21
-26.335322
 31
0.0
  0
LINE
  8
0
 10
79.606795
 20
-17.335322
 30
0.0
 11
81.106795
 21
-18.835322
 31
0.0
  0
LINE
  8
0
 10
73.606795
 20
-10.335322
 30
0.0
 11
75.106795
 21
-11.835322
 31
0.0
  0
LINE
  8
0
 10
48.606795
 20
-10.335322
 30
0.0
 11
47.106795
 21
-11.835322
 31
0.0
  0
LINE
  8
0
 10
47.106795
 20
-11.835322
 30
0.0
 11
47.106795
 21
-15.335322
 31
0.0
  0
LINE
  8
0
 10
48.606795
 20
-10.335322
 30
0.0
 11
73.606795
 21
-10.335322
 31
0.0
  0
LINE
  8
0
 10
42.606795
 20
-26.335322
 30
0.0
 11
79.606795
 21
-26.335322
 31
0.0
  0
LINE
  8
0
 10
81.106795
 20
-18.835322
 30
0.0
 11
81.106795
 21
-24.835322
 31
0.0
  0
LINE
  8
0
 10
41.106795
 20
-18.835322
 30
0.0
 11
41.106795
 21
-24.835322
 31
0.0
  0
LINE
  8
0
 10
-17.795219
 20
-10.937941
 30
0.0
 11
4.204781
 21
-10.937941
 31
0.0
  0
LINE
  8
0
 10
-22.795219
 20
-23.937941
 30
0.0
 11
9.204781
 21
-23.937941
 31
0.0
  0
LINE
  8
0
 10
-22.795219
 20
-18.937941
 30
0.0
 11
9.204781
 21
-18.937941
 31
0.0
  0
LINE
  8
0
 10
-22.795219
 20
-18.937941
 30
0.0
 11
-21.795219
 21
-17.937941
 31
0.0
  0
LINE
  8
0
 10
-21.795219
 20
-24.937941
 30
0.0
 11
-22.795219
 21
-23.937941
 31
0.0
  0
LINE
  8
0
 10
9.204781
 20
-23.937941
 30
0.0
 11
8.204781
 21
-24.937941
 31
0.0
  0
LINE
  8
0
 10
8.204781
 20
-17.937941
 30
0.0
 11
9.204781
 21
-18.937941
 31
0.0
  0
LINE
  8
0
 10
3.204781
 20
-9.937941
 30
0.0
 11
4.204781
 21
-10.937941
 31
0.0
  0
LINE
  8
0
 10
-16.795219
 20
-9.937941
 30
0.0
 11
-17.795219
 21
-10.937941
 31
0.0
  0
ARC
  8
0
 10
5.704781
 20
-16.437941
 30
0.0
 40
1.5
 50
180.0
 51
270.0
  0
ARC
  8
0
 10
-19.295219
 20
-16.437941
 30
0.0
 40
1.5
 50
270.0
 51
0.0
  0
LINE
  8
0
 10
-19.292219
 20
-17.937941
 30
0.0
 11
-19.288219
 21
-17.937941
 31
0.0
  0
LINE
  8
0
 10
9.204781
 20
-18.937941
 30
0.0
 11
9.204781
 21
-23.937941
 31
0.0
  0
LINE
  8
0
 10
-22.795219
 20
-18.937941
 30
0.0
 11
-22.795219
 21
-23.937941
 31
0.0
  0
LINE
  8
0
 10
4.204781
 20
-10.937941
 30
0.0
 11
4.204781
 21
-16.437941
 31
0.0
  0
LINE
  8
0
 10
-17.795219
 20
-10.937941
 30
0.0
 11
-17.795219
 21
-16.437941
 31
0.0
  0
LINE
  8
0
 10
-16.795219
 20
-9.937941
 30
0.0
 11
3.204781
 21
-9.937941
 31
0.0
  0
LINE
  8
0
 10
-21.795219
 20
-24.937941
 30
0.0
 11
8.204781
 21
-24.937941
 31
0.0
  0
LINE
  8
0
 10
80.219143
 20
37.927777
 30
0.0
 11
105.219143
 21
37.927777
 31
0.0
  0
LINE
  8
0
 10
83.719143
 20
44.927777
 30
0.0
 11
101.719143
 21
44.927777
 31
0.0
  0
LINE
  8
0
 10
80.219143
 20
33.927777
 30
0.0
 11
105.219143
 21
33.927777
 31
0.0
  0
LINE
  8
0
 10
104.219143
 20
38.927777
 30
0.0
 11
81.219143
 21
38.927777
 31
0.0
  0
ARC
  8
0
 10
103.219143
 20
40.427777
 30
0.0
 40
1.5
 50
180.0
 51
270.0
  0
ARC
  8
0
 10
82.219143
 20
40.427777
 30
0.0
 40
1.5
 50
270.0
 51
0.0
  0
LINE
  8
0
 10
104.219143
 20
38.927777
 30
0.0
 11
105.219143
 21
37.927777
 31
0.0
  0
LINE
  8
0
 10
80.219143
 20
37.927777
 30
0.0
 11
81.219143
 21
38.927777
 31
0.0
  0
LINE
  8
0
 10
104.219143
 20
32.927777
 30
0.0
 11
105.219143
 21
33.927777
 31
0.0
  0
LINE
  8
0
 10
80.219143
 20
33.927777
 30
0.0
 11
81.219143
 21
32.927777
 31
0.0
  0
LINE
  8
0
 10
100.719143
 20
45.927777
 30
0.0
 11
101.719143
 21
44.927777
 31
0.0
  0
LINE
  8
0
 10
84.719143
 20
45.927777
 30
0.0
 11
83.719143
 21
44.927777
 31
0.0
  0
LINE
  8
0
 10
101.719143
 20
44.927777
 30
0.0
 11
101.719143
 21
40.427777
 31
0.0
  0
LINE
  8
0
 10
83.719143
 20
44.927777
 30
0.0
 11
83.719143
 21
40.427777
 31
0.0
  0
LINE
  8
0
 10
84.719143
 20
45.927777
 30
0.0
 11
100.719143
 21
45.927777
 31
0.0
  0
LINE
  8
0
 10
81.219143
 20
32.927777
 30
0.0
 11
104.219143
 21
32.927777
 31
0.0
  0
LINE
  8
0
 10
105.219143
 20
37.927777
 30
0.0
 11
105.219143
 21
33.927777
 31
0.0
  0
LINE
  8
0
 10
80.219143
 20
37.927777
 30
0.0
 11
80.219143
 21
33.927777
 31
0.0
  0
LINE
  8
0
 10
43.299858
 20
38.748038
 30
0.0
 11
63.299858
 21
38.748038
 31
0.0
  0
LINE
  8
0
 10
43.299858
 20
34.748038
 30
0.0
 11
63.299858
 21
34.748038
 31
0.0
  0
LINE
  8
0
 10
45.799858
 20
44.748038
 30
0.0
 11
60.799858
 21
44.748038
 31
0.0
  0
ARC
  8
0
 10
61.799858
 20
40.248038
 30
0.0
 40
1.0
 50
180.0
 51
270.0
  0
ARC
  8
0
 10
44.799858
 20
40.248038
 30
0.0
 40
1.0
 50
270.0
 51
0.0
  0
LINE
  8
0
 10
43.799858
 20
39.248038
 30
0.0
 11
62.799858
 21
39.248038
 31
0.0
  0
LINE
  8
0
 10
62.799858
 20
39.248038
 30
0.0
 11
63.299858
 21
38.748038
 31
0.0
  0
LINE
  8
0
 10
43.799858
 20
39.248038
 30
0.0
 11
43.299858
 21
38.748038
 31
0.0
  0
LINE
  8
0
 10
60.299858
 20
45.248038
 30
0.0
 11
60.799858
 21
44.748038
 31
0.0
  0
LINE
  8
0
 10
46.299858
 20
45.248038
 30
0.0
 11
45.799858
 21
44.748038
 31
0.0
  0
LINE
  8
0
 10
62.799858
 20
34.248038
 30
0.0
 11
63.299858
 21
34.748038
 31
0.0
  0
LINE
  8
0
 10
43.299858
 20
34.748038
 30
0.0
 11
43.799858
 21
34.248038
 31
0.0
  0
LINE
  8
0
 10
60.799858
 20
44.748038
 30
0.0
 11
60.799858
 21
40.248038
 31
0.0
  0
LINE
  8
0
 10
45.799858
 20
44.748038
 30
0.0
 11
45.799858
 21
40.248038
 31
0.0
  0
LINE
  8
0
 10
46.299858
 20
45.248038
 30
0.0
 11
60.299858
 21
45.248038
 31
0.0
  0
LINE
  8
0
 10
43.799858
 20
34.248038
 30
0.0
 11
62.799858
 21
34.248038
 31
0.0
  0
LINE
  8
0
 10
63.299858
 20
38.748038
 30
0.0
 11
63.299858
 21
34.748038
 31
0.0
  0
LINE
  8
0
 10
43.299858
 20
38.748038
 30
0.0
 11
43.299858
 21
34.748038
 31
0.0
  0
LINE
  8
0
 10
10.950827
 20
38.798626
 30
0.0
 11
26.950827
 21
38.798626
 31
0.0
  0
LINE
  8
0
 10
26.450827
 20
39.298626
 30
0.0
 11
26.950827
 21
38.798626
 31
0.0
  0
ARC
  8
0
 10
25.650827
 20
39.998626
 30
0.0
 40
0.7
 50
180.0
 51
270.0
  0
LINE
  8
0
 10
11.450827
 20
39.298626
 30
0.0
 11
10.950827
 21
38.798626
 31
0.0
  0
ARC
  8
0
 10
12.250827
 20
39.998626
 30
0.0
 40
0.7
 50
270.0
 51
0.0
  0
LINE
  8
0
 10
10.950827
 20
35.798626
 30
0.0
 11
26.950827
 21
35.798626
 31
0.0
  0
LINE
  8
0
 10
12.950827
 20
43.798626
 30
0.0
 11
24.950827
 21
43.798626
 31
0.0
  0
LINE
  8
0
 10
26.450827
 20
35.298626
 30
0.0
 11
26.950827
 21
35.798626
 31
0.0
  0
LINE
  8
0
 10
10.950827
 20
35.798626
 30
0.0
 11
11.450827
 21
35.298626
 31
0.0
  0
LINE
  8
0
 10
24.450827
 20
44.298626
 30
0.0
 11
24.950827
 21
43.798626
 31
0.0
  0
LINE
  8
0
 10
13.450827
 20
44.298626
 30
0.0
 11
12.950827
 21
43.798626
 31
0.0
  0
LINE
  8
0
 10
24.950827
 20
43.798626
 30
0.0
 11
24.950827
 21
39.998626
 31
0.0
  0
LINE
  8
0
 10
12.950827
 20
43.798626
 30
0.0
 11
12.950827
 21
39.998626
 31
0.0
  0
LINE
  8
0
 10
11.450827
 20
39.298626
 30
0.0
 11
26.450827
 21
39.298626
 31
0.0
  0
LINE
  8
0
 10
13.450827
 20
44.298626
 30
0.0
 11
24.450827
 21
44.298626
 31
0.0
  0
LINE
  8
0
 10
11.450827
 20
35.298626
 30
0.0
 11
26.450827
 21
35.298626
 31
0.0
  0
LINE
  8
0
 10
26.950827
 20
38.798626
 30
0.0
 11
26.950827
 21
35.798626
 31
0.0
  0
LINE
  8
0
 10
10.950827
 20
38.798626
 30
0.0
 11
10.950827
 21
35.798626
 31
0.0
  0
LINE
  8
0
 10
-20.378518
 20
36.362554
 30
0.0
 11
-8.378518
 21
36.362554
 31
0.0
  0
LINE
  8
0
 10
-19.378518
 20
42.362554
 30
0.0
 11
-9.378518
 21
42.362554
 31
0.0
  0
ARC
  8
0
 10
-8.878518
 20
38.862554
 30
0.0
 40
0.5
 50
180.0
 51
270.0
  0
ARC
  8
0
 10
-19.878518
 20
38.862554
 30
0.0
 40
0.5
 50
270.0
 51
0.0
  0
LINE
  8
0
 10
-20.378518
 20
38.362554
 30
0.0
 11
-8.378518
 21
38.362554
 31
0.0
  0
LINE
  8
0
 10
-8.878518
 20
35.862554
 30
0.0
 11
-8.378518
 21
36.362554
 31
0.0
  0
LINE
  8
0
 10
-20.378518
 20
36.362554
 30
0.0
 11
-19.878518
 21
35.862554
 31
0.0
  0
LINE
  8
0
 10
-9.878518
 20
42.862554
 30
0.0
 11
-9.378518
 21
42.362554
 31
0.0
  0
LINE
  8
0
 10
-18.878518
 20
42.862554
 30
0.0
 11
-19.378518
 21
42.362554
 31
0.0
  0
LINE
  8
0
 10
-8.378518
 20
38.362554
 30
0.0
 11
-8.378518
 21
36.362554
 31
0.0
  0
LINE
  8
0
 10
-20.378518
 20
38.362554
 30
0.0
 11
-20.378518
 21
36.362554
 31
0.0
  0
LINE
  8
0
 10
-9.378518
 20
38.862554
 30
0.0
 11
-9.378518
 21
42.362554
 31
0.0
  0
LINE
  8
0
 10
-19.378518
 20
38.862554
 30
0.0
 11
-19.378518
 21
42.362554
 31
0.0
  0
LINE
  8
0
 10
-18.878518
 20
42.862554
 30
0.0
 11
-9.878518
 21
42.862554
 31
0.0
  0
LINE
  8
0
 10
-19.878518
 20
35.862554
 30
0.0
 11
-8.878518
 21
35.862554
 31
0.0
  0
LINE
  8
0
 10
-21.795219
 20
-17.937941
 30
0.0
 11
8.204781
 21
-17.937941
 31
0.0
  0
LINE
  8
0
 10
-19.285219
 20
-17.937941
 30
0.0
 11
-19.277219
 21
-17.937941
 31
0.0
  0
LINE
  8
0
 10
-19.274219
 20
-17.937941
 30
0.0
 11
-19.265519
 21
-17.937941
 31
0.0
  0
ENDBLK
  8
0
  0
ENDSEC
  0
SECTION
  2
ENTITIES
  0
CIRCLE
  8
0
 10
464.223222
 20
176.058652
 30
0.0
 40
4.0
  0
CIRCLE
  8
0
 10
439.315986
 20
178.490476
 30
0.0
 40
3.0
  0
CIRCLE
  8
0
 10
617.966055
 20
161.047932
 30
0.0
 40
10.0
  0
LINE
  8
0
 10
607.966055
 20
264.501957
 30
0.0
 11
627.966055
 21
264.501957
 31
0.0
  0
LINE
  8
0
 10
562.47438
 20
198.851957
 30
0.0
 11
578.47438
 21
198.851957
 31
0.0
  0
LINE
  8
0
 10
610.216055
 20
188.314644
 30
0.0
 11
625.716055
 21
188.314644
 31
0.0
  0
LINE
  8
0
 10
626.716055
 20
265.751957
 30
0.0
 11
627.966055
 21
264.501957
 31
0.0
  0
LINE
  8
0
 10
609.216055
 20
265.751957
 30
0.0
 11
607.966055
 21
264.501957
 31
0.0
  0
LINE
  8
0
 10
607.966055
 20
200.951957
 30
0.0
 11
627.966055
 21
200.951957
 31
0.0
  0
LINE
  8
0
 10
609.216055
 20
199.701957
 30
0.0
 11
626.716055
 21
199.701957
 31
0.0
  0
LINE
  8
0
 10
625.166055
 20
198.151957
 30
0.0
 11
627.966055
 21
200.951957
 31
0.0
  0
LINE
  8
0
 10
610.766055
 20
198.151957
 30
0.0
 11
607.966055
 21
200.951957
 31
0.0
  0
LINE
  8
0
 10
625.716055
 20
191.251957
 30
0.0
 11
610.216055
 21
191.251957
 31
0.0
  0
LINE
  8
0
 10
625.166055
 20
198.151957
 30
0.0
 11
625.166055
 21
191.251957
 31
0.0
  0
LINE
  8
0
 10
610.766055
 20
198.151957
 30
0.0
 11
610.766055
 21
191.251957
 31
0.0
  0
LINE
  8
0
 10
625.166055
 20
198.151957
 30
0.0
 11
610.766055
 21
198.151957
 31
0.0
  0
LINE
  8
0
 10
625.716055
 20
191.251957
 30
0.0
 11
625.716055
 21
188.314644
 31
0.0
  0
LINE
  8
0
 10
610.216055
 20
191.251957
 30
0.0
 11
610.216055
 21
188.314644
 31
0.0
  0
ARC
  8
0
 10
617.966055
 20
198.751957
 30
0.0
 40
13.0
 50
233.405069
 51
306.594931
  0
LINE
  8
0
 10
626.716055
 20
265.751957
 30
0.0
 11
626.716055
 21
199.701957
 31
0.0
  0
LINE
  8
0
 10
609.216055
 20
265.751957
 30
0.0
 11
609.216055
 21
199.701957
 31
0.0
  0
LINE
  8
0
 10
626.716055
 20
265.751957
 30
0.0
 11
609.216055
 21
265.751957
 31
0.0
  0
LINE
  8
0
 10
627.966055
 20
264.501957
 30
0.0
 11
627.966055
 21
200.951957
 31
0.0
  0
LINE
  8
0
 10
607.966055
 20
264.501957
 30
0.0
 11
607.966055
 21
200.951957
 31
0.0
  0
CIRCLE
  8
0
 10
570.47438
 20
165.684793
 30
0.0
 40
8.0
  0
LINE
  8
0
 10
563.47438
 20
197.851957
 30
0.0
 11
577.47438
 21
197.851957
 31
0.0
  0
LINE
  8
0
 10
575.97438
 20
196.351957
 30
0.0
 11
578.47438
 21
198.851957
 31
0.0
  0
LINE
  8
0
 10
564.97438
 20
196.351957
 30
0.0
 11
562.47438
 21
198.851957
 31
0.0
  0
LINE
  8
0
 10
564.47438
 20
187.751957
 30
0.0
 11
576.47438
 21
187.751957
 31
0.0
  0
LINE
  8
0
 10
577.47438
 20
250.751957
 30
0.0
 11
563.47438
 21
250.751957
 31
0.0
  0
LINE
  8
0
 10
578.47438
 20
249.751957
 30
0.0
 11
577.47438
 21
250.751957
 31
0.0
  0
LINE
  8
0
 10
562.47438
 20
249.751957
 30
0.0
 11
563.47438
 21
250.751957
 31
0.0
  0
LINE
  8
0
 10
575.97438
 20
196.351957
 30
0.0
 11
575.97438
 21
190.751957
 31
0.0
  0
LINE
  8
0
 10
564.97438
 20
196.351957
 30
0.0
 11
564.97438
 21
190.751957
 31
0.0
  0
LINE
  8
0
 10
576.47438
 20
190.751957
 30
0.0
 11
564.47438
 21
190.751957
 31
0.0
  0
LINE
  8
0
 10
576.47438
 20
190.751957
 30
0.0
 11
576.47438
 21
187.751957
 31
0.0
  0
LINE
  8
0
 10
564.47438
 20
190.751957
 30
0.0
 11
564.47438
 21
187.751957
 31
0.0
  0
LINE
  8
0
 10
575.97438
 20
196.351957
 30
0.0
 11
564.97438
 21
196.351957
 31
0.0
  0
ARC
  8
0
 10
570.47438
 20
195.751957
 30
0.0
 40
10.0
 50
233.130102
 51
306.869898
  0
LINE
  8
0
 10
562.47438
 20
249.751957
 30
0.0
 11
578.47438
 21
249.751957
 31
0.0
  0
LINE
  8
0
 10
577.47438
 20
250.751957
 30
0.0
 11
577.47438
 21
197.851957
 31
0.0
  0
LINE
  8
0
 10
563.47438
 20
250.751957
 30
0.0
 11
563.47438
 21
197.851957
 31
0.0
  0
LINE
  8
0
 10
578.47438
 20
249.751957
 30
0.0
 11
578.47438
 21
198.851957
 31
0.0
  0
LINE
  8
0
 10
562.47438
 20
249.751957
 30
0.0
 11
562.47438
 21
198.851957
 31
0.0
  0
LINE
  8
0
 10
489.920251
 20
187.279821
 30
0.0
 11
497.920251
 21
187.279821
 31
0.0
  0
LINE
  8
0
 10
488.920251
 20
195.351957
 30
0.0
 11
498.920251
 21
195.351957
 31
0.0
  0
CIRCLE
  8
0
 10
530.106453
 20
169.626126
 30
0.0
 40
6.0
  0
LINE
  8
0
 10
524.106453
 20
244.851957
 30
0.0
 11
536.106453
 21
244.851957
 31
0.0
  0
LINE
  8
0
 10
535.206453
 20
245.751957
 30
0.0
 11
536.106453
 21
244.851957
 31
0.0
  0
LINE
  8
0
 10
525.006453
 20
245.751957
 30
0.0
 11
524.106453
 21
244.851957
 31
0.0
  0
LINE
  8
0
 10
524.106453
 20
244.851957
 30
0.0
 11
524.106453
 21
196.851957
 31
0.0
  0
LINE
  8
0
 10
536.106453
 20
244.851957
 30
0.0
 11
536.106453
 21
196.851957
 31
0.0
  0
LINE
  8
0
 10
524.106453
 20
196.851957
 30
0.0
 11
536.106453
 21
196.851957
 31
0.0
  0
LINE
  8
0
 10
525.006453
 20
195.951957
 30
0.0
 11
535.206453
 21
195.951957
 31
0.0
  0
LINE
  8
0
 10
533.606453
 20
194.351957
 30
0.0
 11
536.106453
 21
196.851957
 31
0.0
  0
LINE
  8
0
 10
526.606453
 20
194.351957
 30
0.0
 11
524.106453
 21
196.851957
 31
0.0
  0
LINE
  8
0
 10
526.106453
 20
189.751957
 30
0.0
 11
534.106453
 21
189.751957
 31
0.0
  0
LINE
  8
0
 10
533.606453
 20
194.351957
 30
0.0
 11
533.606453
 21
189.751957
 31
0.0
  0
LINE
  8
0
 10
526.606453
 20
194.351957
 30
0.0
 11
526.606453
 21
189.751957
 31
0.0
  0
LINE
  8
0
 10
526.106453
 20
187.279821
 30
0.0
 11
534.106453
 21
187.279821
 31
0.0
  0
ARC
  8
0
 10
530.106453
 20
191.751957
 30
0.0
 40
6.0
 50
228.189685
 51
311.810315
  0
LINE
  8
0
 10
534.106453
 20
189.751957
 30
0.0
 11
534.106453
 21
187.279821
 31
0.0
  0
LINE
  8
0
 10
526.106453
 20
189.751957
 30
0.0
 11
526.106453
 21
187.279821
 31
0.0
  0
LINE
  8
0
 10
526.606453
 20
194.351957
 30
0.0
 11
533.606453
 21
194.351957
 31
0.0
  0
LINE
  8
0
 10
525.006453
 20
245.751957
 30
0.0
 11
535.206453
 21
245.751957
 31
0.0
  0
LINE
  8
0
 10
525.006453
 20
245.751957
 30
0.0
 11
525.006453
 21
195.951957
 31
0.0
  0
LINE
  8
0
 10
535.206453
 20
245.751957
 30
0.0
 11
534.00991
 21
245.751957
 31
0.0
  0
LINE
  8
0
 10
535.206453
 20
245.751957
 30
0.0
 11
535.206453
 21
195.951957
 31
0.0
  0
CIRCLE
  8
0
 10
493.920251
 20
173.159175
 30
0.0
 40
5.0
  0
LINE
  8
0
 10
488.920251
 20
235.001957
 30
0.0
 11
498.920251
 21
235.001957
 31
0.0
  0
LINE
  8
0
 10
498.170251
 20
235.751957
 30
0.0
 11
498.920251
 21
235.001957
 31
0.0
  0
LINE
  8
0
 10
489.670251
 20
235.751957
 30
0.0
 11
488.920251
 21
235.001957
 31
0.0
  0
LINE
  8
0
 10
488.920251
 20
235.001957
 30
0.0
 11
488.920251
 21
195.351957
 31
0.0
  0
LINE
  8
0
 10
498.920251
 20
235.001957
 30
0.0
 11
498.920251
 21
195.351957
 31
0.0
  0
LINE
  8
0
 10
489.670251
 20
194.601957
 30
0.0
 11
498.170251
 21
194.601957
 31
0.0
  0
LINE
  8
0
 10
497.520251
 20
193.951957
 30
0.0
 11
498.920251
 21
195.351957
 31
0.0
  0
LINE
  8
0
 10
490.320251
 20
193.951957
 30
0.0
 11
488.920251
 21
195.351957
 31
0.0
  0
ARC
  8
0
 10
493.920251
 20
191.751957
 30
0.0
 40
6.0
 50
228.189685
 51
311.810315
  0
LINE
  8
0
 10
489.920251
 20
190.251957
 30
0.0
 11
497.920251
 21
190.251957
 31
0.0
  0
LINE
  8
0
 10
497.520251
 20
193.951957
 30
0.0
 11
497.520251
 21
190.251957
 31
0.0
  0
LINE
  8
0
 10
490.320251
 20
193.951957
 30
0.0
 11
490.320251
 21
190.251957
 31
0.0
  0
LINE
  8
0
 10
497.920251
 20
190.251957
 30
0.0
 11
497.920251
 21
187.279821
 31
0.0
  0
LINE
  8
0
 10
489.920251
 20
190.251957
 30
0.0
 11
489.920251
 21
187.279821
 31
0.0
  0
LINE
  8
0
 10
490.320251
 20
193.951957
 30
0.0
 11
497.520251
 21
193.951957
 31
0.0
  0
LINE
  8
0
 10
498.170251
 20
235.751957
 30
0.0
 11
498.170251
 21
194.601957
 31
0.0
  0
LINE
  8
0
 10
489.670251
 20
235.751957
 30
0.0
 11
489.670251
 21
194.601957
 31
0.0
  0
LINE
  8
0
 10
489.670251
 20
235.751957
 30
0.0
 11
498.170251
 21
235.751957
 31
0.0
  0
LINE
  8
0
 10
460.223222
 20
220.151957
 30
0.0
 11
468.223222
 21
220.151957
 31
0.0
  0
LINE
  8
0
 10
467.623222
 20
220.751957
 30
0.0
 11
468.223222
 21
220.151957
 31
0.0
  0
LINE
  8
0
 10
460.823222
 20
220.751957
 30
0.0
 11
460.223222
 21
220.151957
 31
0.0
  0
LINE
  8
0
 10
468.223222
 20
220.151957
 30
0.0
 11
468.223222
 21
193.851957
 31
0.0
  0
LINE
  8
0
 10
460.223222
 20
220.151957
 30
0.0
 11
460.223222
 21
193.851957
 31
0.0
  0
LINE
  8
0
 10
460.823222
 20
193.251957
 30
0.0
 11
467.623222
 21
193.251957
 31
0.0
  0
LINE
  8
0
 10
461.223222
 20
186.642184
 30
0.0
 11
467.223222
 21
186.642184
 31
0.0
  0
LINE
  8
0
 10
460.823222
 20
220.751957
 30
0.0
 11
467.623222
 21
220.751957
 31
0.0
  0
LINE
  8
0
 10
466.923222
 20
192.551957
 30
0.0
 11
468.223222
 21
193.851957
 31
0.0
  0
LINE
  8
0
 10
461.523222
 20
192.551957
 30
0.0
 11
460.223222
 21
193.851957
 31
0.0
  0
ARC
  8
0
 10
464.223222
 20
191.251957
 30
0.0
 40
5.5
 50
236.944269
 51
303.055731
  0
LINE
  8
0
 10
461.223222
 20
188.751957
 30
0.0
 11
467.223222
 21
188.751957
 31
0.0
  0
LINE
  8
0
 10
467.223222
 20
188.751957
 30
0.0
 11
467.223222
 21
186.642184
 31
0.0
  0
LINE
  8
0
 10
461.223222
 20
188.751957
 30
0.0
 11
461.223222
 21
186.642184
 31
0.0
  0
LINE
  8
0
 10
461.523222
 20
192.551957
 30
0.0
 11
461.523222
 21
188.751957
 31
0.0
  0
LINE
  8
0
 10
466.923222
 20
192.551957
 30
0.0
 11
466.923222
 21
188.751957
 31
0.0
  0
LINE
  8
0
 10
467.623222
 20
220.751957
 30
0.0
 11
467.623222
 21
193.251957
 31
0.0
  0
LINE
  8
0
 10
460.823222
 20
220.751957
 30
0.0
 11
460.823222
 21
193.251957
 31
0.0
  0
LINE
  8
0
 10
461.523222
 20
192.551957
 30
0.0
 11
466.923222
 21
192.551957
 31
0.0
  0
LINE
  8
0
 10
436.315986
 20
215.251957
 30
0.0
 11
442.315986
 21
215.251957
 31
0.0
  0
LINE
  8
0
 10
442.315986
 20
215.251957
 30
0.0
 11
441.815986
 21
215.751957
 31
0.0
  0
LINE
  8
0
 10
436.815986
 20
215.751957
 30
0.0
 11
436.315986
 21
215.251957
 31
0.0
  0
LINE
  8
0
 10
437.065986
 20
186.571005
 30
0.0
 11
441.565986
 21
186.571005
 31
0.0
  0
LINE
  8
0
 10
436.815986
 20
193.251957
 30
0.0
 11
441.815986
 21
193.251957
 31
0.0
  0
LINE
  8
0
 10
441.315986
 20
192.751957
 30
0.0
 11
442.315986
 21
193.751957
 31
0.0
  0
LINE
  8
0
 10
437.315986
 20
192.751957
 30
0.0
 11
436.315986
 21
193.751957
 31
0.0
  0
LINE
  8
0
 10
441.815986
 20
215.751957
 30
0.0
 11
441.815986
 21
193.251957
 31
0.0
  0
LINE
  8
0
 10
436.815986
 20
215.751957
 30
0.0
 11
436.815986
 21
193.251957
 31
0.0
  0
ARC
  8
0
 10
439.315986
 20
189.251957
 30
0.0
 40
3.5
 50
229.994799
 51
310.005201
  0
LINE
  8
0
 10
441.565986
 20
188.251957
 30
0.0
 11
441.565986
 21
186.571005
 31
0.0
  0
LINE
  8
0
 10
437.065986
 20
188.251957
 30
0.0
 11
437.065986
 21
186.571005
 31
0.0
  0
LINE
  8
0
 10
437.065986
 20
188.251957
 30
0.0
 11
441.565986
 21
188.251957
 31
0.0
  0
LINE
  8
0
 10
441.315986
 20
192.751957
 30
0.0
 11
441.315986
 21
188.251957
 31
0.0
  0
LINE
  8
0
 10
437.315986
 20
192.751957
 30
0.0
 11
437.315986
 21
188.251957
 31
0.0
  0
LINE
  8
0
 10
437.315986
 20
192.751957
 30
0.0
 11
441.315986
 21
192.751957
 31
0.0
  0
LINE
  8
0
 10
436.815986
 20
215.751957
 30
0.0
 11
441.815986
 21
215.751957
 31
0.0
  0
LINE
  8
0
 10
436.315986
 20
215.251957
 30
0.0
 11
436.315986
 21
193.751957
 31
0.0
  0
LINE
  8
0
 10
442.315986
 20
215.251957
 30
0.0
 11
442.315986
 21
193.751957
 31
0.0
  0
CIRCLE
  8
0
 10
439.315986
 20
178.490476
 30
0.0
 40
2.5
  0
POLYLINE
  8
0
 66
     1
 10
0.0
 20
0.0
 30
0.0
 70
     1
  0
VERTEX
  8
0
 10
438.465986
 20
179.962719
 30
0.0
  0
VERTEX
  8
0
 10
437.615986
 20
178.490476
 30
0.0
  0
VERTEX
  8
0
 10
438.465986
 20
177.018233
 30
0.0
  0
VERTEX
  8
0
 10
440.165986
 20
177.018233
 30
0.0
  0
VERTEX
  8
0
 10
441.015986
 20
178.490476
 30
0.0
  0
VERTEX
  8
0
 10
440.165986
 20
179.962719
 30
0.0
  0
SEQEND
  8
0
  0
LINE
  8
0
  6
DASHED
 10
437.615986
 20
215.751957
 30
0.0
 11
437.615986
 21
212.733452
 31
0.0
  0
LINE
  8
0
  6
DASHED
 10
438.465986
 20
215.751957
 30
0.0
 11
438.465986
 21
212.733452
 31
0.0
  0
LINE
  8
0
  6
DASHED
 10
440.165986
 20
215.751957
 30
0.0
 11
440.165986
 21
212.733452
 31
0.0
  0
LINE
  8
0
  6
DASHED
 10
441.015986
 20
215.751957
 30
0.0
 11
441.015986
 21
212.733452
 31
0.0
  0
LINE
  8
0
  6
DASHED
 10
439.315986
 20
211.751957
 30
0.0
 11
441.015986
 21
212.733452
 31
0.0
  0
LINE
  8
0
  6
DASHED
 10
439.315986
 20
211.751957
 30
0.0
 11
437.615986
 21
212.733452
 31
0.0
  0
ARC
  8
0
  6
DASHED
 10
437.640986
 20
213.968452
 30
0.0
 40
1.48521
 50
283.235516
 51
303.743565
  0
ARC
  8
0
  6
DASHED
 10
439.315986
 20
214.053452
 30
0.0
 40
1.57
 50
237.220919
 51
302.779081
  0
ARC
  8
0
  6
DASHED
 10
440.990986
 20
213.968452
 30
0.0
 40
1.48521
 50
236.256435
 51
256.764484
  0
CIRCLE
  8
0
 10
464.223222
 20
176.058652
 30
0.0
 40
3.4
  0
POLYLINE
  8
0
 66
     1
 10
0.0
 20
0.0
 30
0.0
 70
     1
  0
VERTEX
  8
0
 10
463.073222
 20
178.05051
 30
0.0
  0
VERTEX
  8
0
 10
461.923222
 20
176.058652
 30
0.0
  0
VERTEX
  8
0
 10
463.073222
 20
174.066793
 30
0.0
  0
VERTEX
  8
0
 10
465.373222
 20
174.066793
 30
0.0
  0
VERTEX
  8
0
 10
466.523222
 20
176.058652
 30
0.0
  0
VERTEX
  8
0
 10
465.373222
 20
178.05051
 30
0.0
  0
SEQEND
  8
0
  0
LINE
  8
0
  6
DASHED
 10
461.923222
 20
220.751957
 30
0.0
 11
461.923222
 21
217.079862
 31
0.0
  0
LINE
  8
0
  6
DASHED
 10
466.523222
 20
220.751957
 30
0.0
 11
466.523222
 21
217.079862
 31
0.0
  0
LINE
  8
0
  6
DASHED
 10
463.073222
 20
220.751957
 30
0.0
 11
463.073222
 21
217.079862
 31
0.0
  0
LINE
  8
0
  6
DASHED
 10
465.373222
 20
220.751957
 30
0.0
 11
465.373222
 21
217.079862
 31
0.0
  0
LINE
  8
0
  6
DASHED
 10
464.223222
 20
215.751957
 30
0.0
 11
466.523222
 21
217.079862
 31
0.0
  0
LINE
  8
0
  6
DASHED
 10
464.223222
 20
215.751957
 30
0.0
 11
461.923222
 21
217.079862
 31
0.0
  0
ARC
  8
0
  6
DASHED
 10
462.248222
 20
218.292779
 30
0.0
 40
1.466899
 50
274.222704
 51
304.222704
  0
ARC
  8
0
  6
DASHED
 10
464.223222
 20
219.599862
 30
0.0
 40
2.77
 50
245.470453
 51
294.529547
  0
ARC
  8
0
  6
DASHED
 10
466.198222
 20
218.292779
 30
0.0
 40
1.466899
 50
235.777296
 51
265.777296
  0
CIRCLE
  8
0
 10
493.920251
 20
173.159175
 30
0.0
 40
4.25
  0
POLYLINE
  8
0
 66
     1
 10
0.0
 20
0.0
 30
0.0
 70
     1
  0
VERTEX
  8
0
 10
492.470251
 20
175.670648
 30
0.0
  0
VERTEX
  8
0
 10
491.020251
 20
173.159175
 30
0.0
  0
VERTEX
  8
0
 10
492.470251
 20
170.647701
 30
0.0
  0
VERTEX
  8
0
 10
495.370251
 20
170.647701
 30
0.0
  0
VERTEX
  8
0
 10
496.820251
 20
173.159175
 30
0.0
  0
VERTEX
  8
0
 10
495.370251
 20
175.670648
 30
0.0
  0
SEQEND
  8
0
  0
LINE
  8
0
  6
DASHED
 10
491.020251
 20
235.751957
 30
0.0
 11
491.020251
 21
231.126272
 31
0.0
  0
LINE
  8
0
  6
DASHED
 10
496.820251
 20
235.751957
 30
0.0
 11
496.820251
 21
231.126272
 31
0.0
  0
LINE
  8
0
  6
DASHED
 10
492.470251
 20
235.751957
 30
0.0
 11
492.470251
 21
231.126272
 31
0.0
  0
LINE
  8
0
  6
DASHED
 10
495.370251
 20
235.751957
 30
0.0
 11
495.370251
 21
231.126272
 31
0.0
  0
LINE
  8
0
  6
DASHED
 10
493.920251
 20
229.451957
 30
0.0
 11
496.820251
 21
231.126272
 31
0.0
  0
LINE
  8
0
  6
DASHED
 10
493.920251
 20
229.451957
 30
0.0
 11
491.020251
 21
231.126272
 31
0.0
  0
ARC
  8
0
  6
DASHED
 10
493.920251
 20
233.554397
 30
0.0
 40
2.828125
 50
239.155677
 51
300.844323
  0
ARC
  8
0
  6
DASHED
 10
496.295251
 20
231.960599
 30
0.0
 40
1.245683
 50
222.049663
 51
262.257482
  0
ARC
  8
0
  6
DASHED
 10
491.545251
 20
231.960599
 30
0.0
 40
1.245683
 50
277.742518
 51
317.950337
  0
CIRCLE
  8
0
 10
530.106453
 20
169.626126
 30
0.0
 40
5.1
  0
POLYLINE
  8
0
 66
     1
 10
0.0
 20
0.0
 30
0.0
 70
     1
  0
VERTEX
  8
0
 10
528.381453
 20
172.613913
 30
0.0
  0
VERTEX
  8
0
 10
526.656453
 20
169.626126
 30
0.0
  0
VERTEX
  8
0
 10
528.381453
 20
166.638338
 30
0.0
  0
VERTEX
  8
0
 10
531.831453
 20
166.638338
 30
0.0
  0
VERTEX
  8
0
 10
533.556453
 20
169.626126
 30
0.0
  0
VERTEX
  8
0
 10
531.831453
 20
172.613913
 30
0.0
  0
SEQEND
  8
0
  0
LINE
  8
0
  6
DASHED
 10
528.381453
 20
245.751957
 30
0.0
 11
528.381453
 21
239.243815
 31
0.0
  0
LINE
  8
0
  6
DASHED
 10
531.831453
 20
245.751957
 30
0.0
 11
531.831453
 21
239.243815
 31
0.0
  0
LINE
  8
0
  6
DASHED
 10
526.656453
 20
245.751957
 30
0.0
 11
526.656453
 21
239.243815
 31
0.0
  0
LINE
  8
0
  6
DASHED
 10
533.556453
 20
245.751957
 30
0.0
 11
533.556453
 21
239.243815
 31
0.0
  0
LINE
  8
0
  6
DASHED
 10
530.106453
 20
237.251957
 30
0.0
 11
533.556453
 21
239.243815
 31
0.0
  0
LINE
  8
0
  6
DASHED
 10
530.106453
 20
237.251957
 30
0.0
 11
526.656453
 21
239.243815
 31
0.0
  0
ARC
  8
0
  6
DASHED
 10
530.106453
 20
242.763346
 30
0.0
 40
3.919531
 50
243.889506
 51
296.110494
  0
ARC
  8
0
  6
DASHED
 10
532.893953
 20
240.453799
 30
0.0
 40
1.610269
 50
228.713275
 51
268.921094
  0
ARC
  8
0
  6
DASHED
 10
527.318953
 20
240.453799
 30
0.0
 40
1.610269
 50
271.078906
 51
311.286725
  0
CIRCLE
  8
0
 10
570.47438
 20
165.684793
 30
0.0
 40
7.0
  0
POLYLINE
  8
0
 66
     1
 10
0.0
 20
0.0
 30
0.0
 70
     1
  0
VERTEX
  8
0
 10
568.22438
 20
169.581907
 30
0.0
  0
VERTEX
  8
0
 10
565.97438
 20
165.684793
 30
0.0
  0
VERTEX
  8
0
 10
568.22438
 20
161.787679
 30
0.0
  0
VERTEX
  8
0
 10
572.72438
 20
161.787679
 30
0.0
  0
VERTEX
  8
0
 10
574.97438
 20
165.684793
 30
0.0
  0
VERTEX
  8
0
 10
572.72438
 20
169.581907
 30
0.0
  0
SEQEND
  8
0
  0
LINE
  8
0
  6
DASHED
 10
568.22438
 20
250.751957
 30
0.0
 11
568.22438
 21
241.850033
 31
0.0
  0
LINE
  8
0
  6
DASHED
 10
574.97438
 20
250.751957
 30
0.0
 11
574.97438
 21
241.850033
 31
0.0
  0
LINE
  8
0
  6
DASHED
 10
572.72438
 20
250.751957
 30
0.0
 11
572.72438
 21
241.850033
 31
0.0
  0
LINE
  8
0
  6
DASHED
 10
565.97438
 20
250.751957
 30
0.0
 11
565.97438
 21
241.850033
 31
0.0
  0
LINE
  8
0
  6
DASHED
 10
570.47438
 20
239.251957
 30
0.0
 11
574.97438
 21
241.850033
 31
0.0
  0
LINE
  8
0
  6
DASHED
 10
570.47438
 20
239.251957
 30
0.0
 11
565.97438
 21
241.850033
 31
0.0
  0
ARC
  8
0
  6
DASHED
 10
570.47438
 20
246.662533
 30
0.0
 40
5.3125
 50
244.942385
 51
295.057615
  0
ARC
  8
0
  6
DASHED
 10
574.09938
 20
243.490577
 30
0.0
 40
2.140563
 50
230.032402
 51
270.240221
  0
ARC
  8
0
  6
DASHED
 10
566.84938
 20
243.490577
 30
0.0
 40
2.140563
 50
269.759779
 51
309.967598
  0
CIRCLE
  8
0
 10
617.966055
 20
161.047932
 30
0.0
 40
8.75
  0
POLYLINE
  8
0
 66
     1
 10
0.0
 20
0.0
 30
0.0
 70
     1
  0
VERTEX
  8
0
 10
615.066055
 20
166.070879
 30
0.0
  0
VERTEX
  8
0
 10
612.166055
 20
161.047932
 30
0.0
  0
VERTEX
  8
0
 10
615.066055
 20
156.024984
 30
0.0
  0
VERTEX
  8
0
 10
620.866055
 20
156.024984
 30
0.0
  0
VERTEX
  8
0
 10
623.766055
 20
161.047932
 30
0.0
  0
VERTEX
  8
0
 10
620.866055
 20
166.070879
 30
0.0
  0
SEQEND
  8
0
  0
LINE
  8
0
  6
DASHED
 10
612.166055
 20
265.751957
 30
0.0
 11
612.166055
 21
256.300588
 31
0.0
  0
LINE
  8
0
  6
DASHED
 10
615.066055
 20
265.751957
 30
0.0
 11
615.066055
 21
256.300588
 31
0.0
  0
LINE
  8
0
  6
DASHED
 10
620.866055
 20
265.751957
 30
0.0
 11
620.866055
 21
256.300588
 31
0.0
  0
LINE
  8
0
  6
DASHED
 10
623.766055
 20
265.751957
 30
0.0
 11
623.766055
 21
256.300588
 31
0.0
  0
LINE
  8
0
  6
DASHED
 10
617.966055
 20
252.951957
 30
0.0
 11
623.766055
 21
256.300588
 31
0.0
  0
LINE
  8
0
  6
DASHED
 10
617.966055
 20
252.951957
 30
0.0
 11
612.166055
 21
256.300588
 31
0.0
  0
ARC
  8
0
  6
DASHED
 10
613.366055
 20
258.829049
 30
0.0
 40
3.04682
 50
263.706927
 51
303.914746
  0
ARC
  8
0
  6
DASHED
 10
617.966055
 20
264.460588
 30
0.0
 40
8.66
 50
250.435186
 51
289.564814
  0
ARC
  8
0
  6
DASHED
 10
622.566055
 20
258.829049
 30
0.0
 40
3.04682
 50
236.085254
 51
276.293073
  0
ENDSEC
  0
EOF
