  0
SECTION
  2
HEADER
  9
$ACADVER
  1
AC1009
  9
$INSBASE
 10
0.0
 20
0.0
 30
0.0
  9
$EXTMIN
 10
-102.138005
 20
-182.968818
 30
0.0
  9
$EXTMAX
 10
131.587045
 20
47.042641
 30
0.0
  9
$LIMMIN
 10
0.0
 20
0.0
  9
$LIMMAX
 10
12.0
 20
9.0
  9
$ORTHOMODE
 70
     1
  9
$REGENMODE
 70
     1
  9
$FILLMODE
 70
     1
  9
$QTEXTMODE
 70
     0
  9
$MIRRTEXT
 70
     1
  9
$DRAGMODE
 70
     2
  9
$LTSCALE
 40
6.0
  9
$OSMODE
 70
     0
  9
$ATTMODE
 70
     1
  9
$TEXTSIZE
 40
0.2
  9
$TRACEWID
 40
0.05
  9
$TEXTSTYLE
  7
STANDARD
  9
$CLAYER
  8
0
  9
$CELTYPE
  6
BYLAYER
  9
$CECOLOR
 62
   256
  9
$DIMSCALE
 40
1.0
  9
$DIMASZ
 40
2.5
  9
$DIMEXO
 40
0.0
  9
$DIMDLI
 40
5.0
  9
$DIMRND
 40
0.0
  9
$DIMDLE
 40
0.0
  9
$DIMEXE
 40
1.0
  9
$DIMTP
 40
0.0
  9
$DIMTM
 40
0.0
  9
$DIMTXT
 40
2.5
  9
$DIMCEN
 40
0.09
  9
$DIMTSZ
 40
0.0
  9
$DIMTOL
 70
     0
  9
$DIMLIM
 70
     0
  9
$DIMTIH
 70
     0
  9
$DIMTOH
 70
     0
  9
$DIMSE1
 70
     0
  9
$DIMSE2
 70
     0
  9
$DIMTAD
 70
     1
  9
$DIMZIN
 70
     0
  9
$DIMBLK
  1

  9
$DIMASO
 70
     0
  9
$DIMSHO
 70
     0
  9
$DIMPOST
  1

  9
$DIMAPOST
  1

  9
$DIMALT
 70
     0
  9
$DIMALTD
 70
     2
  9
$DIMALTF
 40
25.4
  9
$DIMLFAC
 40
1.0
  9
$DIMTOFL
 70
     1
  9
$DIMTVP
 40
0.0
  9
$DIMTIX
 70
     0
  9
$DIMSOXD
 70
     0
  9
$DIMSAH
 70
     0
  9
$DIMBLK1
  1

  9
$DIMBLK2
  1

  9
$DIMSTYLE
  2
*UNNAMED
  9
$DIMCLRD
 70
     0
  9
$DIMCLRE
 70
     0
  9
$DIMCLRT
 70
     0
  9
$DIMTFAC
 40
1.0
  9
$DIMGAP
 40
0.09
  9
$LUNITS
 70
     2
  9
$LUPREC
 70
     4
  9
$SKETCHINC
 40
0.1
  9
$FILLETRAD
 40
0.0
  9
$AUNITS
 70
     0
  9
$AUPREC
 70
     0
  9
$MENU
  1
wiberger
  9
$ELEVATION
 40
0.0
  9
$PELEVATION
 40
0.0
  9
$THICKNESS
 40
0.0
  9
$LIMCHECK
 70
     0
  9
$BLIPMODE
 70
     1
  9
$CHAMFERA
 40
1.0
  9
$CHAMFERB
 40
1.0
  9
$SKPOLY
 70
     0
  9
$TDCREATE
 40
2450192.514923843
  9
$TDUPDATE
 40
2450218.629832638
  9
$TDINDWG
 40
0.0006381944
  9
$TDUSRTIMER
 40
0.0006381944
  9
$USRTIMER
 70
     1
  9
$ANGBASE
 50
0.0
  9
$ANGDIR
 70
     0
  9
$PDMODE
 70
     0
  9
$PDSIZE
 40
0.0
  9
$PLINEWID
 40
0.0
  9
$COORDS
 70
     0
  9
$SPLFRAME
 70
     0
  9
$SPLINETYPE
 70
     6
  9
$SPLINESEGS
 70
     8
  9
$ATTDIA
 70
     0
  9
$ATTREQ
 70
     1
  9
$HANDLING
 70
     0
  9
$HANDSEED
  5
0
  9
$SURFTAB1
 70
     6
  9
$SURFTAB2
 70
     6
  9
$SURFTYPE
 70
     6
  9
$SURFU
 70
     6
  9
$SURFV
 70
     6
  9
$UCSNAME
  2

  9
$UCSORG
 10
0.0
 20
0.0
 30
0.0
  9
$UCSXDIR
 10
1.0
 20
0.0
 30
0.0
  9
$UCSYDIR
 10
0.0
 20
1.0
 30
0.0
  9
$PUCSNAME
  2

  9
$PUCSORG
 10
0.0
 20
0.0
 30
0.0
  9
$PUCSXDIR
 10
1.0
 20
0.0
 30
0.0
  9
$PUCSYDIR
 10
0.0
 20
1.0
 30
0.0
  9
$USERI1
 70
     0
  9
$USERI2
 70
     0
  9
$USERI3
 70
     0
  9
$USERI4
 70
     0
  9
$USERI5
 70
     0
  9
$USERR1
 40
0.0
  9
$USERR2
 40
0.0
  9
$USERR3
 40
0.0
  9
$USERR4
 40
0.0
  9
$USERR5
 40
0.0
  9
$WORLDVIEW
 70
     1
  9
$SHADEDGE
 70
     3
  9
$SHADEDIF
 70
    70
  9
$TILEMODE
 70
     1
  9
$MAXACTVP
 70
    16
  9
$PINSBASE
 10
0.0
 20
0.0
 30
0.0
  9
$PLIMCHECK
 70
     0
  9
$PEXTMIN
 10
1.000000E+20
 20
1.000000E+20
 30
1.000000E+20
  9
$PEXTMAX
 10
-1.000000E+20
 20
-1.000000E+20
 30
-1.000000E+20
  9
$PLIMMIN
 10
0.0
 20
0.0
  9
$PLIMMAX
 10
12.0
 20
9.0
  9
$UNITMODE
 70
     0
  9
$VISRETAIN
 70
     0
  9
$PLINEGEN
 70
     0
  9
$PSLTSCALE
 70
     0
  9
$TREEDEPTH
 70
  3020
  9
$DWGCODEPAGE
  3
undefined
  0
ENDSEC
  0
SECTION
  2
TABLES
  0
TABLE
  2
VPORT
 70
     2
  0
VPORT
  2
*ACTIVE
 70
     0
 10
0.0
 20
0.0
 11
1.0
 21
1.0
 12
69.546325
 22
-67.963088
 13
0.0
 23
0.0
 14
1.0
 24
1.0
 15
0.0
 25
0.0
 16
0.0
 26
0.0
 36
1.0
 17
0.0
 27
0.0
 37
0.0
 40
255.568288
 41
1.767507
 42
50.0
 43
0.0
 44
0.0
 50
0.0
 51
0.0
 71
     0
 72
   100
 73
     1
 74
     0
 75
     0
 76
     0
 77
     0
 78
     0
  0
ENDTAB
  0
TABLE
  2
LTYPE
 70
     2
  0
LTYPE
  2
CONTINUOUS
 70
    64
  3
Solid line
 72
    65
 73
     0
 40
0.0
  0
LTYPE
  2
CENTER
 70
    64
  3
____ _ ____ _ ____ _ ____ _ ____ _ ____ _ ____
 72
    65
 73
     4
 40
2.0
 49
1.25
 49
-0.25
 49
0.25
 49
-0.25
  0
ENDTAB
  0
TABLE
  2
LAYER
 70
     1
  0
LAYER
  2
0
 70
    64
 62
     7
  6
CONTINUOUS
  0
ENDTAB
  0
TABLE
  2
STYLE
 70
     1
  0
STYLE
  2
STANDARD
 70
     0
 40
0.0
 41
1.0
 50
0.0
 71
     0
 42
0.2
  3
txt
  4

  0
ENDTAB
  0
TABLE
  2
VIEW
 70
     0
  0
ENDTAB
  0
TABLE
  2
UCS
 70
     0
  0
ENDTAB
  0
TABLE
  2
APPID
 70
     1
  0
APPID
  2
ACAD
 70
    64
  0
ENDTAB
  0
TABLE
  2
DIMSTYLE
 70
     0
  0
ENDTAB
  0
ENDSEC
  0
SECTION
  2
BLOCKS
  0
BLOCK
  8
0
  2
*X0
 70
    65
 10
0.0
 20
0.0
 30
0.0
  3
*X
  0
LINE
  8
0
 62
     0
 10
-100.422614
 20
14.482238
 30
0.0
 11
-95.922614
 21
18.982238
 31
0.0
  0
LINE
  8
0
 62
     0
 10
-100.422614
 20
16.250005
 30
0.0
 11
-99.759694
 21
16.912925
 31
0.0
  0
LINE
  8
0
 62
     0
 10
-99.196117
 20
17.476502
 30
0.0
 11
-95.922614
 21
20.750005
 31
0.0
  0
LINE
  8
0
 62
     0
 10
-99.196117
 20
19.244269
 30
0.0
 11
-96.025038
 21
22.415348
 31
0.0
  0
LINE
  8
0
 62
     0
 10
-99.196117
 20
21.012036
 30
0.0
 11
-97.395228
 21
22.812925
 31
0.0
  0
LINE
  8
0
 62
     0
 10
-99.32416
 20
13.812925
 30
0.0
 11
-95.922614
 21
17.214471
 31
0.0
  0
LINE
  8
0
 62
     0
 10
-97.556393
 20
13.812925
 30
0.0
 11
-95.922614
 21
15.446704
 31
0.0
  0
ENDBLK
  8
0
  0
BLOCK
  8
0
  2
*X1
 70
    65
 10
0.0
 20
0.0
 30
0.0
  3
*X
  0
LINE
  8
0
 62
     0
 10
-78.952089
 20
16.507326
 30
0.0
 11
-78.146491
 21
17.312925
 31
0.0
  0
LINE
  8
0
 62
     0
 10
-77.457643
 20
18.001773
 30
0.0
 11
-73.352089
 21
22.107326
 31
0.0
  0
LINE
  8
0
 62
     0
 10
-77.457643
 20
19.76954
 30
0.0
 11
-73.352089
 21
23.875093
 31
0.0
  0
LINE
  8
0
 62
     0
 10
-77.457643
 20
21.537307
 30
0.0
 11
-73.567057
 21
25.427892
 31
0.0
  0
LINE
  8
0
 62
     0
 10
-77.457643
 20
23.305074
 30
0.0
 11
-74.949792
 21
25.812925
 31
0.0
  0
LINE
  8
0
 62
     0
 10
-77.457643
 20
25.072841
 30
0.0
 11
-76.990988
 21
25.539495
 31
0.0
  0
LINE
  8
0
 62
     0
 10
-78.952089
 20
14.739559
 30
0.0
 11
-73.352089
 21
20.339559
 31
0.0
  0
LINE
  8
0
 62
     0
 10
-78.110957
 20
13.812925
 30
0.0
 11
-73.352089
 21
18.571792
 31
0.0
  0
LINE
  8
0
 62
     0
 10
-76.34319
 20
13.812925
 30
0.0
 11
-73.352089
 21
16.804025
 31
0.0
  0
LINE
  8
0
 62
     0
 10
-74.575423
 20
13.812925
 30
0.0
 11
-73.352089
 21
15.036258
 31
0.0
  0
ENDBLK
  8
0
  0
BLOCK
  8
0
  2
*X2
 70
    65
 10
0.0
 20
0.0
 30
0.0
  3
*X
  0
LINE
  8
0
 62
     0
 10
-53.541704
 20
17.168974
 30
0.0
 11
-52.897754
 21
17.812925
 31
0.0
  0
LINE
  8
0
 62
     0
 10
-52.356659
 20
18.35402
 30
0.0
 11
-46.791704
 21
23.918974
 31
0.0
  0
LINE
  8
0
 62
     0
 10
-52.356659
 20
20.121786
 30
0.0
 11
-46.791704
 21
25.686741
 31
0.0
  0
LINE
  8
0
 62
     0
 10
-52.356659
 20
21.889553
 30
0.0
 11
-46.791704
 21
27.454508
 31
0.0
  0
LINE
  8
0
 62
     0
 10
-52.356659
 20
23.65732
 30
0.0
 11
-47.371379
 21
28.6426
 31
0.0
  0
LINE
  8
0
 62
     0
 10
-52.356659
 20
25.425087
 30
0.0
 11
-48.968821
 21
28.812925
 31
0.0
  0
LINE
  8
0
 62
     0
 10
-52.356659
 20
27.192854
 30
0.0
 11
-50.873404
 21
28.676109
 31
0.0
  0
LINE
  8
0
 62
     0
 10
-53.541704
 20
15.401207
 30
0.0
 11
-46.791704
 21
22.151207
 31
0.0
  0
LINE
  8
0
 62
     0
 10
-53.201962
 20
13.973182
 30
0.0
 11
-46.791704
 21
20.38344
 31
0.0
  0
LINE
  8
0
 62
     0
 10
-51.594453
 20
13.812925
 30
0.0
 11
-46.791704
 21
18.615673
 31
0.0
  0
LINE
  8
0
 62
     0
 10
-49.826686
 20
13.812925
 30
0.0
 11
-46.791704
 21
16.847906
 31
0.0
  0
LINE
  8
0
 62
     0
 10
-48.058919
 20
13.812925
 30
0.0
 11
-46.791704
 21
15.080139
 31
0.0
  0
ENDBLK
  8
0
  0
BLOCK
  8
0
  2
*X3
 70
    65
 10
0.0
 20
0.0
 30
0.0
  3
*X
  0
LINE
  8
0
 62
     0
 10
-22.599182
 20
19.827225
 30
0.0
 11
-16.729527
 21
25.69688
 31
0.0
  0
LINE
  8
0
 62
     0
 10
-22.599182
 20
22.478875
 30
0.0
 11
-16.729527
 21
28.34853
 31
0.0
  0
LINE
  8
0
 62
     0
 10
-22.599182
 20
25.130525
 30
0.0
 11
-16.773155
 21
30.956553
 31
0.0
  0
LINE
  8
0
 62
     0
 10
-22.599182
 20
27.782176
 30
0.0
 11
-18.568434
 21
31.812925
 31
0.0
  0
LINE
  8
0
 62
     0
 10
-24.129527
 20
15.645229
 30
0.0
 11
-16.729527
 21
23.045229
 31
0.0
  0
LINE
  8
0
 62
     0
 10
-23.310181
 20
13.812925
 30
0.0
 11
-16.729527
 21
20.393579
 31
0.0
  0
LINE
  8
0
 62
     0
 10
-20.658531
 20
13.812925
 30
0.0
 11
-16.729527
 21
17.741928
 31
0.0
  0
LINE
  8
0
 62
     0
 10
-18.006881
 20
13.812925
 30
0.0
 11
-16.729527
 21
15.090278
 31
0.0
  0
ENDBLK
  8
0
  0
BLOCK
  8
0
  2
*X4
 70
    65
 10
0.0
 20
0.0
 30
0.0
  3
*X
  0
LINE
  8
0
 62
     0
 10
12.100155
 20
20.055106
 30
0.0
 11
18.801861
 21
26.756812
 31
0.0
  0
LINE
  8
0
 62
     0
 10
12.100155
 20
22.706757
 30
0.0
 11
18.801861
 21
29.408463
 31
0.0
  0
LINE
  8
0
 62
     0
 10
12.100155
 20
25.358407
 30
0.0
 11
18.801861
 21
32.060113
 31
0.0
  0
LINE
  8
0
 62
     0
 10
12.100155
 20
28.010058
 30
0.0
 11
18.352441
 21
34.262344
 31
0.0
  0
LINE
  8
0
 62
     0
 10
12.100155
 20
30.661708
 30
0.0
 11
16.251372
 21
34.812925
 31
0.0
  0
LINE
  8
0
 62
     0
 10
10.801861
 20
16.105162
 30
0.0
 11
18.801861
 21
24.105162
 31
0.0
  0
LINE
  8
0
 62
     0
 10
11.381568
 20
14.033218
 30
0.0
 11
18.801861
 21
21.453511
 31
0.0
  0
LINE
  8
0
 62
     0
 10
13.812925
 20
13.812925
 30
0.0
 11
18.801861
 21
18.801861
 31
0.0
  0
LINE
  8
0
 62
     0
 10
16.464575
 20
13.812925
 30
0.0
 11
18.801861
 21
16.150211
 31
0.0
  0
ENDBLK
  8
0
  0
BLOCK
  8
0
  2
*X5
 70
    65
 10
0.0
 20
0.0
 30
0.0
  3
*X
  0
LINE
  8
0
 62
     0
 10
52.19835
 20
25.681846
 30
0.0
 11
59.054757
 21
32.538252
 31
0.0
  0
LINE
  8
0
 62
     0
 10
52.19835
 20
28.333496
 30
0.0
 11
59.054757
 21
35.189903
 31
0.0
  0
LINE
  8
0
 62
     0
 10
52.19835
 20
30.985147
 30
0.0
 11
58.540442
 21
37.327239
 31
0.0
  0
LINE
  8
0
 62
     0
 10
52.19835
 20
33.636797
 30
0.0
 11
56.374478
 21
37.812925
 31
0.0
  0
LINE
  8
0
 62
     0
 10
52.19835
 20
23.030196
 30
0.0
 11
59.054757
 21
29.886602
 31
0.0
  0
LINE
  8
0
 62
     0
 10
52.19835
 20
20.378545
 30
0.0
 11
59.054757
 21
27.234952
 31
0.0
  0
LINE
  8
0
 62
     0
 10
50.554757
 20
16.083301
 30
0.0
 11
59.054757
 21
24.583301
 31
0.0
  0
LINE
  8
0
 62
     0
 10
51.245394
 20
14.122288
 30
0.0
 11
59.054757
 21
21.931651
 31
0.0
  0
LINE
  8
0
 62
     0
 10
53.587681
 20
13.812925
 30
0.0
 11
59.054757
 21
19.28
 31
0.0
  0
LINE
  8
0
 62
     0
 10
56.239331
 20
13.812925
 30
0.0
 11
59.054757
 21
16.62835
 31
0.0
  0
ENDBLK
  8
0
  0
BLOCK
  8
0
  2
*X6
 70
    65
 10
0.0
 20
0.0
 30
0.0
  3
*X
  0
LINE
  8
0
 62
     0
 10
95.766537
 20
26.823626
 30
0.0
 11
104.337045
 21
35.394134
 31
0.0
  0
LINE
  8
0
 62
     0
 10
95.766537
 20
29.475277
 30
0.0
 11
104.337045
 21
38.045785
 31
0.0
  0
LINE
  8
0
 62
     0
 10
95.766537
 20
32.126927
 30
0.0
 11
104.337045
 21
40.697435
 31
0.0
  0
LINE
  8
0
 62
     0
 10
95.766537
 20
34.778577
 30
0.0
 11
103.943965
 21
42.956005
 31
0.0
  0
LINE
  8
0
 62
     0
 10
95.766537
 20
37.430228
 30
0.0
 11
102.149234
 21
43.812925
 31
0.0
  0
LINE
  8
0
 62
     0
 10
95.766537
 20
40.081878
 30
0.0
 11
99.45847
 21
43.773811
 31
0.0
  0
LINE
  8
0
 62
     0
 10
95.766537
 20
24.171976
 30
0.0
 11
104.337045
 21
32.742484
 31
0.0
  0
LINE
  8
0
 62
     0
 10
95.766537
 20
21.520325
 30
0.0
 11
104.337045
 21
30.090833
 31
0.0
  0
LINE
  8
0
 62
     0
 10
94.587045
 20
17.689183
 30
0.0
 11
104.337045
 21
27.439183
 31
0.0
  0
LINE
  8
0
 62
     0
 10
94.587045
 20
15.037533
 30
0.0
 11
104.337045
 21
24.787533
 31
0.0
  0
LINE
  8
0
 62
     0
 10
96.014088
 20
13.812925
 30
0.0
 11
104.337045
 21
22.135882
 31
0.0
  0
LINE
  8
0
 62
     0
 10
98.665738
 20
13.812925
 30
0.0
 11
104.337045
 21
19.484232
 31
0.0
  0
LINE
  8
0
 62
     0
 10
101.317389
 20
13.812925
 30
0.0
 11
104.337045
 21
16.832581
 31
0.0
  0
ENDBLK
  8
0
  0
BLOCK
  8
0
  2
*X7
 70
    65
 10
0.0
 20
0.0
 30
0.0
  3
*X
  0
LINE
  8
0
 62
     0
 10
-100.422614
 20
-89.816013
 30
0.0
 11
-90.138005
 21
-79.531403
 31
0.0
  0
LINE
  8
0
 62
     0
 10
-100.422614
 20
-86.280479
 30
0.0
 11
-90.138005
 21
-75.995869
 31
0.0
  0
LINE
  8
0
 62
     0
 10
-100.422614
 20
-82.744945
 30
0.0
 11
-90.138005
 21
-72.460335
 31
0.0
  0
LINE
  8
0
 62
     0
 10
-100.422614
 20
-79.209411
 30
0.0
 11
-90.138005
 21
-68.924801
 31
0.0
  0
LINE
  8
0
 62
     0
 10
-100.422614
 20
-75.673877
 30
0.0
 11
-90.248063
 21
-65.499326
 31
0.0
  0
LINE
  8
0
 62
     0
 10
-100.422614
 20
-72.138343
 30
0.0
 11
-92.393655
 21
-64.109384
 31
0.0
  0
LINE
  8
0
 62
     0
 10
-100.422614
 20
-68.602809
 30
0.0
 11
-95.974299
 21
-64.154494
 31
0.0
  0
LINE
  8
0
 62
     0
 10
-100.422614
 20
-93.351547
 30
0.0
 11
-90.138005
 21
-83.066937
 31
0.0
  0
LINE
  8
0
 62
     0
 10
-102.138005
 20
-98.602471
 30
0.0
 11
-90.138005
 21
-86.602471
 31
0.0
  0
LINE
  8
0
 62
     0
 10
-100.109384
 20
-100.109384
 30
0.0
 11
-90.138005
 21
-90.138005
 31
0.0
  0
LINE
  8
0
 62
     0
 10
-96.57385
 20
-100.109384
 30
0.0
 11
-90.138005
 21
-93.673539
 31
0.0
  0
LINE
  8
0
 62
     0
 10
-93.038316
 20
-100.109384
 30
0.0
 11
-90.138005
 21
-97.209072
 31
0.0
  0
ENDBLK
  8
0
  0
BLOCK
  8
0
  2
*X8
 70
    65
 10
0.0
 20
0.0
 30
0.0
  3
*X
  0
LINE
  8
0
 62
     0
 10
-41.111765
 20
-80.002638
 30
0.0
 11
-27.803653
 21
-66.694526
 31
0.0
  0
LINE
  8
0
 62
     0
 10
-41.111765
 20
-76.467104
 30
0.0
 11
-27.803653
 21
-63.158992
 31
0.0
  0
LINE
  8
0
 62
     0
 10
-41.111765
 20
-72.93157
 30
0.0
 11
-27.803653
 21
-59.623458
 31
0.0
  0
LINE
  8
0
 62
     0
 10
-41.111765
 20
-69.396036
 30
0.0
 11
-28.189383
 21
-56.473654
 31
0.0
  0
LINE
  8
0
 62
     0
 10
-41.111765
 20
-65.860503
 30
0.0
 11
-30.360647
 21
-55.109384
 31
0.0
  0
LINE
  8
0
 62
     0
 10
-41.111765
 20
-62.324969
 30
0.0
 11
-33.896181
 21
-55.109384
 31
0.0
  0
LINE
  8
0
 62
     0
 10
-41.111765
 20
-58.789435
 30
0.0
 11
-38.579488
 21
-56.257157
 31
0.0
  0
LINE
  8
0
 62
     0
 10
-41.111765
 20
-83.538172
 30
0.0
 11
-27.803653
 21
-70.23006
 31
0.0
  0
LINE
  8
0
 62
     0
 10
-41.111765
 20
-87.073706
 30
0.0
 11
-27.803653
 21
-73.765594
 31
0.0
  0
LINE
  8
0
 62
     0
 10
-41.111765
 20
-90.60924
 30
0.0
 11
-27.803653
 21
-77.301127
 31
0.0
  0
LINE
  8
0
 62
     0
 10
-43.553653
 20
-96.586661
 30
0.0
 11
-27.803653
 21
-80.836661
 31
0.0
  0
LINE
  8
0
 62
     0
 10
-43.047247
 20
-99.61579
 30
0.0
 11
-27.803653
 21
-84.372195
 31
0.0
  0
LINE
  8
0
 62
     0
 10
-40.005308
 20
-100.109384
 30
0.0
 11
-27.803653
 21
-87.907729
 31
0.0
  0
LINE
  8
0
 62
     0
 10
-36.469774
 20
-100.109384
 30
0.0
 11
-27.803653
 21
-91.443263
 31
0.0
  0
LINE
  8
0
 62
     0
 10
-32.93424
 20
-100.109384
 30
0.0
 11
-27.803653
 21
-94.978797
 31
0.0
  0
ENDBLK
  8
0
  0
BLOCK
  8
0
  2
*X9
 70
    65
 10
0.0
 20
0.0
 30
0.0
  3
*X
  0
LINE
  8
0
 62
     0
 10
30.732771
 20
-78.868781
 30
0.0
 11
46.487035
 21
-63.114516
 31
0.0
  0
LINE
  8
0
 62
     0
 10
30.732771
 20
-75.333247
 30
0.0
 11
46.487035
 21
-59.578982
 31
0.0
  0
LINE
  8
0
 62
     0
 10
30.732771
 20
-71.797713
 30
0.0
 11
46.487035
 21
-56.043448
 31
0.0
  0
LINE
  8
0
 62
     0
 10
30.732771
 20
-68.262179
 30
0.0
 11
46.487035
 21
-52.507914
 31
0.0
  0
LINE
  8
0
 62
     0
 10
30.732771
 20
-64.726645
 30
0.0
 11
46.487035
 21
-48.97238
 31
0.0
  0
LINE
  8
0
 62
     0
 10
30.732771
 20
-61.191111
 30
0.0
 11
45.150766
 21
-46.773115
 31
0.0
  0
LINE
  8
0
 62
     0
 10
30.732771
 20
-57.655577
 30
0.0
 11
42.278964
 21
-46.109384
 31
0.0
  0
LINE
  8
0
 62
     0
 10
30.732771
 20
-54.120043
 30
0.0
 11
38.74343
 21
-46.109384
 31
0.0
  0
LINE
  8
0
 62
     0
 10
30.732771
 20
-50.584509
 30
0.0
 11
33.945902
 21
-47.371378
 31
0.0
  0
LINE
  8
0
 62
     0
 10
30.732771
 20
-82.404314
 30
0.0
 11
46.487035
 21
-66.65005
 31
0.0
  0
LINE
  8
0
 62
     0
 10
30.732771
 20
-85.939848
 30
0.0
 11
46.487035
 21
-70.185584
 31
0.0
  0
LINE
  8
0
 62
     0
 10
28.487035
 20
-91.721117
 30
0.0
 11
30.098769
 21
-90.109384
 31
0.0
  0
LINE
  8
0
 62
     0
 10
30.732771
 20
-89.475382
 30
0.0
 11
46.487035
 21
-73.721117
 31
0.0
  0
LINE
  8
0
 62
     0
 10
28.487035
 20
-95.256651
 30
0.0
 11
46.487035
 21
-77.256651
 31
0.0
  0
LINE
  8
0
 62
     0
 10
28.487035
 20
-98.792185
 30
0.0
 11
46.487035
 21
-80.792185
 31
0.0
  0
LINE
  8
0
 62
     0
 10
30.70537
 20
-100.109384
 30
0.0
 11
46.487035
 21
-84.327719
 31
0.0
  0
LINE
  8
0
 62
     0
 10
34.240904
 20
-100.109384
 30
0.0
 11
46.487035
 21
-87.863253
 31
0.0
  0
LINE
  8
0
 62
     0
 10
37.776438
 20
-100.109384
 30
0.0
 11
46.487035
 21
-91.398787
 31
0.0
  0
LINE
  8
0
 62
     0
 10
41.311972
 20
-100.109384
 30
0.0
 11
46.487035
 21
-94.934321
 31
0.0
  0
ENDBLK
  8
0
  0
ENDSEC
  0
SECTION
  2
ENTITIES
  0
CIRCLE
  8
0
 10
-69.952089
 20
-14.226248
 30
0.0
 40
9.0
  0
LINE
  8
0
 10
-66.199312
 20
-20.726248
 30
0.0
 11
-73.704866
 21
-20.726248
 31
0.0
  0
LINE
  8
0
 10
-62.446536
 20
-14.226248
 30
0.0
 11
-66.199312
 21
-20.726248
 31
0.0
  0
LINE
  8
0
 10
-66.199312
 20
-7.726248
 30
0.0
 11
-62.446536
 21
-14.226248
 31
0.0
  0
LINE
  8
0
 10
-73.704866
 20
-7.726248
 30
0.0
 11
-66.199312
 21
-7.726248
 31
0.0
  0
LINE
  8
0
 10
-77.457643
 20
-14.226248
 30
0.0
 11
-73.704866
 21
-7.726248
 31
0.0
  0
LINE
  8
0
 10
-73.704866
 20
-20.726248
 30
0.0
 11
-77.457643
 21
-14.226248
 31
0.0
  0
CIRCLE
  8
0
 10
-69.952089
 20
-14.226248
 30
0.0
 40
6.5
  0
CIRCLE
  8
0
 10
-69.952089
 20
-14.226248
 30
0.0
 40
8.5
  0
CIRCLE
  8
0
 10
-69.952089
 20
-14.226248
 30
0.0
 40
4.0
  0
CIRCLE
  8
0
 10
-69.952089
 20
-14.226248
 30
0.0
 40
3.4
  0
LINE
  8
0
 10
-86.722614
 20
13.812925
 30
0.0
 11
-100.122614
 21
13.812925
 31
0.0
  0
LINE
  8
0
 10
-86.422614
 20
14.112925
 30
0.0
 11
-86.422614
 21
16.612925
 31
0.0
  0
LINE
  8
0
 10
-100.422614
 20
14.112925
 30
0.0
 11
-100.422614
 21
16.612925
 31
0.0
  0
LINE
  8
0
 10
-86.722614
 20
16.912925
 30
0.0
 11
-93.422614
 21
16.912925
 31
0.0
  0
LINE
  8
0
 10
-100.122614
 20
16.912925
 30
0.0
 11
-100.422614
 21
16.612925
 31
0.0
  0
LINE
  8
0
 10
-100.422614
 20
14.112925
 30
0.0
 11
-100.122614
 21
13.812925
 31
0.0
  0
LINE
  8
0
 10
-86.722614
 20
13.812925
 30
0.0
 11
-86.422614
 21
14.112925
 31
0.0
  0
LINE
  8
0
 10
-86.422614
 20
16.612925
 30
0.0
 11
-86.722614
 21
16.912925
 31
0.0
  0
LINE
  8
0
 10
-86.422614
 20
16.612925
 30
0.0
 11
-93.422614
 21
16.612925
 31
0.0
  0
LINE
  8
0
 10
-86.422614
 20
14.112925
 30
0.0
 11
-93.422614
 21
14.112925
 31
0.0
  0
CIRCLE
  8
0
 10
-93.422614
 20
-14.226248
 30
0.0
 40
7.0
  0
LINE
  8
0
 10
-90.535863
 20
-19.226248
 30
0.0
 11
-96.309366
 21
-19.226248
 31
0.0
  0
LINE
  8
0
 10
-87.649112
 20
-14.226248
 30
0.0
 11
-90.535863
 21
-19.226248
 31
0.0
  0
LINE
  8
0
 10
-90.535863
 20
-9.226248
 30
0.0
 11
-87.649112
 21
-14.226248
 31
0.0
  0
LINE
  8
0
 10
-96.309366
 20
-9.226248
 30
0.0
 11
-90.535863
 21
-9.226248
 31
0.0
  0
LINE
  8
0
 10
-99.196117
 20
-14.226248
 30
0.0
 11
-96.309366
 21
-9.226248
 31
0.0
  0
LINE
  8
0
 10
-96.309366
 20
-19.226248
 30
0.0
 11
-99.196117
 21
-14.226248
 31
0.0
  0
LINE
  8
0
 10
-99.196117
 20
16.912925
 30
0.0
 11
-99.196117
 21
22.512925
 31
0.0
  0
LINE
  8
0
 10
-87.649112
 20
16.912925
 30
0.0
 11
-87.649112
 21
22.512925
 31
0.0
  0
LINE
  8
0
  6
CENTER
 10
-93.422614
 20
12.447707
 30
0.0
 11
-93.422614
 21
24.861563
 31
0.0
  0
CIRCLE
  8
0
 10
-93.422614
 20
-14.226248
 30
0.0
 40
5.0
  0
CIRCLE
  8
0
 10
-93.422614
 20
-14.226248
 30
0.0
 40
6.7
  0
LINE
  8
0
 10
-90.535863
 20
16.912925
 30
0.0
 11
-90.535863
 21
22.512925
 31
0.0
  0
CIRCLE
  8
0
 10
-93.422614
 20
-14.226248
 30
0.0
 40
3.0
  0
CIRCLE
  8
0
 10
-93.422614
 20
-14.226248
 30
0.0
 40
2.5
  0
LINE
  8
0
 10
-99.196117
 20
16.912925
 30
0.0
 11
-100.122614
 21
16.912925
 31
0.0
  0
LINE
  8
0
 10
-89.092487
 20
22.812925
 30
0.0
 11
-97.752742
 21
22.812925
 31
0.0
  0
ARC
  8
0
 10
-97.752741
 20
19.190702
 30
0.0
 40
3.622222
 50
90.000013
 51
113.483062
  0
ARC
  8
0
 10
-89.092487
 20
19.190702
 30
0.0
 40
3.622222
 50
66.516938
 51
113.483062
  0
ARC
  8
0
 10
-93.422614
 20
8.774036
 30
0.0
 40
14.038889
 50
78.133892
 51
90.0
  0
LINE
  8
0
 10
-95.922614
 20
14.312925
 30
0.0
 11
-95.922614
 21
22.312925
 31
0.0
  0
LINE
  8
0
 10
-96.422614
 20
13.812925
 30
0.0
 11
-96.422614
 21
22.812925
 31
0.0
  0
LINE
  8
0
 10
-96.422614
 20
22.812925
 30
0.0
 11
-95.922614
 21
22.312925
 31
0.0
  0
LINE
  8
0
 10
-96.422614
 20
13.812925
 30
0.0
 11
-95.922614
 21
14.312925
 31
0.0
  0
LINE
  8
0
 10
-95.922614
 20
22.312925
 30
0.0
 11
-93.422614
 21
22.312925
 31
0.0
  0
LINE
  8
0
 10
-95.922614
 20
14.312925
 30
0.0
 11
-93.422614
 21
14.312925
 31
0.0
  0
LINE
  8
0
 10
-60.952089
 20
14.312925
 30
0.0
 11
-69.952089
 21
14.312925
 31
0.0
  0
LINE
  8
0
 10
-60.952089
 20
16.812925
 30
0.0
 11
-69.952089
 21
16.812925
 31
0.0
  0
LINE
  8
0
 10
-60.952089
 20
16.812925
 30
0.0
 11
-61.452089
 21
17.312925
 31
0.0
  0
LINE
  8
0
 10
-61.452089
 20
13.812925
 30
0.0
 11
-60.952089
 21
14.312925
 31
0.0
  0
LINE
  8
0
 10
-78.952089
 20
14.312925
 30
0.0
 11
-78.452089
 21
13.812925
 31
0.0
  0
LINE
  8
0
 10
-78.452089
 20
17.312925
 30
0.0
 11
-78.952089
 21
16.812925
 31
0.0
  0
ARC
  8
0
 10
-69.952089
 20
11.479591
 30
0.0
 40
14.333333
 50
74.821821
 51
90.0
  0
ARC
  8
0
 10
-64.322924
 20
22.042091
 30
0.0
 40
3.770833
 50
60.158276
 51
119.841724
  0
ARC
  8
0
 10
-75.581254
 20
22.042091
 30
0.0
 40
3.770833
 50
90.0
 51
119.841724
  0
LINE
  8
0
 10
-66.199312
 20
17.312925
 30
0.0
 11
-66.199312
 21
25.312925
 31
0.0
  0
LINE
  8
0
 10
-62.446536
 20
17.312925
 30
0.0
 11
-62.446536
 21
25.312925
 31
0.0
  0
LINE
  8
0
 10
-77.457643
 20
17.312925
 30
0.0
 11
-77.457643
 21
25.312925
 31
0.0
  0
LINE
  8
0
  6
CENTER
 10
-69.952089
 20
11.843327
 30
0.0
 11
-69.952089
 21
27.626258
 31
0.0
  0
LINE
  8
0
 10
-78.452089
 20
17.312925
 30
0.0
 11
-77.457643
 21
17.312925
 31
0.0
  0
LINE
  8
0
 10
-75.581255
 20
25.812925
 30
0.0
 11
-64.322925
 21
25.812925
 31
0.0
  0
LINE
  8
0
 10
-60.952089
 20
14.312925
 30
0.0
 11
-60.952089
 21
16.812925
 31
0.0
  0
LINE
  8
0
 10
-78.952089
 20
14.312925
 30
0.0
 11
-78.952089
 21
16.812925
 31
0.0
  0
LINE
  8
0
 10
-78.452089
 20
13.812925
 30
0.0
 11
-61.452089
 21
13.812925
 31
0.0
  0
LINE
  8
0
 10
-69.952089
 20
17.312925
 30
0.0
 11
-61.452089
 21
17.312925
 31
0.0
  0
LINE
  8
0
  6
CONTINUOUS
 10
-73.952089
 20
13.812925
 30
0.0
 11
-73.952089
 21
25.812925
 31
0.0
  0
LINE
  8
0
  6
CONTINUOUS
 10
-73.352089
 20
14.412925
 30
0.0
 11
-73.352089
 21
25.212925
 31
0.0
  0
LINE
  8
0
 10
-73.952089
 20
13.812925
 30
0.0
 11
-73.352089
 21
14.412925
 31
0.0
  0
LINE
  8
0
 10
-73.952089
 20
25.812925
 30
0.0
 11
-73.352089
 21
25.212925
 31
0.0
  0
LINE
  8
0
 10
-73.352089
 20
25.212925
 30
0.0
 11
-69.952089
 21
25.212925
 31
0.0
  0
LINE
  8
0
 10
-73.352089
 20
14.412925
 30
0.0
 11
-69.952089
 21
14.412925
 31
0.0
  0
CIRCLE
  8
0
 10
-42.541704
 20
-14.226248
 30
0.0
 40
5.0
  0
CIRCLE
  8
0
 10
-42.541704
 20
-14.226248
 30
0.0
 40
4.25
  0
CIRCLE
  8
0
 10
-42.541704
 20
-14.226248
 30
0.0
 40
8.5
  0
CIRCLE
  8
0
 10
-42.541704
 20
-14.226248
 30
0.0
 40
11.0
  0
CIRCLE
  8
0
 10
-42.541704
 20
-14.226248
 30
0.0
 40
10.5
  0
LINE
  8
0
 10
-47.449181
 20
-22.726248
 30
0.0
 11
-37.634227
 21
-22.726248
 31
0.0
  0
LINE
  8
0
 10
-37.634227
 20
-22.726248
 30
0.0
 11
-32.726749
 21
-14.226248
 31
0.0
  0
LINE
  8
0
 10
-32.726749
 20
-14.226248
 30
0.0
 11
-37.634227
 21
-5.726248
 31
0.0
  0
LINE
  8
0
 10
-37.634227
 20
-5.726248
 30
0.0
 11
-47.449181
 21
-5.726248
 31
0.0
  0
LINE
  8
0
 10
-47.449181
 20
-5.726248
 30
0.0
 11
-52.356659
 21
-14.226248
 31
0.0
  0
LINE
  8
0
 10
-52.356659
 20
-14.226248
 30
0.0
 11
-47.449181
 21
-22.726248
 31
0.0
  0
LINE
  8
0
  6
CENTER
 10
-42.541704
 20
12.314613
 30
0.0
 11
-42.541704
 21
30.19728
 31
0.0
  0
LINE
  8
0
 10
-52.356659
 20
17.812925
 30
0.0
 11
-52.356659
 21
27.812925
 31
0.0
  0
LINE
  8
0
 10
-32.726749
 20
17.812925
 30
0.0
 11
-32.726749
 21
27.812925
 31
0.0
  0
LINE
  8
0
 10
-53.041704
 20
13.812925
 30
0.0
 11
-32.041704
 21
13.812925
 31
0.0
  0
LINE
  8
0
 10
-53.041704
 20
17.812925
 30
0.0
 11
-52.356659
 21
17.812925
 31
0.0
  0
LINE
  8
0
 10
-53.541704
 20
14.312925
 30
0.0
 11
-53.541704
 21
17.312925
 31
0.0
  0
LINE
  8
0
 10
-31.541704
 20
14.312925
 30
0.0
 11
-31.541704
 21
17.312925
 31
0.0
  0
LINE
  8
0
 10
-37.634227
 20
17.812925
 30
0.0
 11
-37.634227
 21
27.812925
 31
0.0
  0
LINE
  8
0
 10
-49.90292
 20
28.812925
 30
0.0
 11
-35.180488
 21
28.812925
 31
0.0
  0
ARC
  8
0
 10
-49.90292
 20
25.302508
 30
0.0
 40
3.510417
 50
90.000007
 51
134.345856
  0
ARC
  8
0
 10
-35.180488
 20
25.302508
 30
0.0
 40
3.510417
 50
45.654144
 51
134.345856
  0
ARC
  8
0
 10
-42.541704
 20
16.271258
 30
0.0
 40
12.541667
 50
66.964968
 51
90.0
  0
LINE
  8
0
 10
-32.041704
 20
17.812925
 30
0.0
 11
-31.541704
 21
17.312925
 31
0.0
  0
LINE
  8
0
 10
-31.541704
 20
14.312925
 30
0.0
 11
-32.041704
 21
13.812925
 31
0.0
  0
LINE
  8
0
 10
-53.041704
 20
13.812925
 30
0.0
 11
-53.541704
 21
14.312925
 31
0.0
  0
LINE
  8
0
 10
-53.541704
 20
17.312925
 30
0.0
 11
-53.041704
 21
17.812925
 31
0.0
  0
LINE
  8
0
 10
-31.541704
 20
17.312925
 30
0.0
 11
-42.541704
 21
17.312925
 31
0.0
  0
LINE
  8
0
 10
-31.541704
 20
14.312925
 30
0.0
 11
-42.541704
 21
14.312925
 31
0.0
  0
LINE
  8
0
 10
-42.541704
 20
17.812925
 30
0.0
 11
-32.041704
 21
17.812925
 31
0.0
  0
LINE
  8
0
 10
-46.791704
 20
14.562925
 30
0.0
 11
-46.791704
 21
28.062925
 31
0.0
  0
LINE
  8
0
 10
-47.541704
 20
13.812925
 30
0.0
 11
-47.541704
 21
28.812925
 31
0.0
  0
LINE
  8
0
 10
-47.541704
 20
13.812925
 30
0.0
 11
-46.791704
 21
14.562925
 31
0.0
  0
LINE
  8
0
 10
-47.541704
 20
28.812925
 30
0.0
 11
-46.791704
 21
28.062925
 31
0.0
  0
LINE
  8
0
 10
-46.791704
 20
14.562925
 30
0.0
 11
-42.541704
 21
14.562925
 31
0.0
  0
LINE
  8
0
 10
-46.791704
 20
28.062925
 30
0.0
 11
-42.541704
 21
28.062925
 31
0.0
  0
CIRCLE
  8
0
 10
-11.629527
 20
-14.226248
 30
0.0
 40
6.0
  0
CIRCLE
  8
0
 10
-11.629527
 20
-14.226248
 30
0.0
 40
5.1
  0
CIRCLE
  8
0
 10
-11.629527
 20
-14.226248
 30
0.0
 40
12.5
  0
CIRCLE
  8
0
 10
-11.629527
 20
-14.226248
 30
0.0
 40
11.8
  0
CIRCLE
  8
0
 10
-11.629527
 20
-14.226248
 30
0.0
 40
9.5
  0
LINE
  8
0
 10
-17.114355
 20
-4.726248
 30
0.0
 11
-22.599182
 21
-14.226248
 31
0.0
  0
LINE
  8
0
 10
-22.599182
 20
-14.226248
 30
0.0
 11
-17.114355
 21
-23.726248
 31
0.0
  0
LINE
  8
0
 10
-17.114355
 20
-23.726248
 30
0.0
 11
-6.1447
 21
-23.726248
 31
0.0
  0
LINE
  8
0
 10
-6.1447
 20
-23.726248
 30
0.0
 11
-0.659872
 21
-14.226248
 31
0.0
  0
LINE
  8
0
 10
-0.659872
 20
-14.226248
 30
0.0
 11
-6.1447
 21
-4.726248
 31
0.0
  0
LINE
  8
0
 10
-6.1447
 20
-4.726248
 30
0.0
 11
-17.114355
 21
-4.726248
 31
0.0
  0
LINE
  8
0
 10
0.870473
 20
14.512925
 30
0.0
 11
0.870473
 21
17.112925
 31
0.0
  0
LINE
  8
0
 10
-0.659872
 20
17.812925
 30
0.0
 11
-0.659872
 21
30.312925
 31
0.0
  0
LINE
  8
0
 10
-6.1447
 20
17.812925
 30
0.0
 11
-6.1447
 21
30.312925
 31
0.0
  0
LINE
  8
0
 10
-16.729527
 20
14.712925
 30
0.0
 11
-16.729527
 21
30.912925
 31
0.0
  0
LINE
  8
0
 10
-17.629527
 20
13.812925
 30
0.0
 11
-17.629527
 21
31.812925
 31
0.0
  0
LINE
  8
0
 10
-22.599182
 20
17.812925
 30
0.0
 11
-22.599182
 21
30.312925
 31
0.0
  0
LINE
  8
0
 10
-24.129527
 20
14.512925
 30
0.0
 11
-24.129527
 21
17.112925
 31
0.0
  0
LINE
  8
0
 10
-23.429527
 20
13.812925
 30
0.0
 11
0.170473
 21
13.812925
 31
0.0
  0
LINE
  8
0
 10
-23.429527
 20
17.812925
 30
0.0
 11
-22.599182
 21
17.812925
 31
0.0
  0
LINE
  8
0
 10
-19.856769
 20
31.812925
 30
0.0
 11
-3.402286
 21
31.812925
 31
0.0
  0
LINE
  8
0
 10
0.170473
 20
17.812925
 30
0.0
 11
0.870473
 21
17.112925
 31
0.0
  0
LINE
  8
0
 10
0.170473
 20
13.812925
 30
0.0
 11
0.870473
 21
14.512925
 31
0.0
  0
LINE
  8
0
 10
0.870473
 20
17.112925
 30
0.0
 11
-11.629527
 21
17.112925
 31
0.0
  0
LINE
  8
0
 10
0.870473
 20
14.512925
 30
0.0
 11
-11.629527
 21
14.512925
 31
0.0
  0
LINE
  8
0
 10
-23.429527
 20
17.812925
 30
0.0
 11
-24.129527
 21
17.112925
 31
0.0
  0
LINE
  8
0
 10
-23.429527
 20
13.812925
 30
0.0
 11
-24.129527
 21
14.512925
 31
0.0
  0
ARC
  8
0
 10
-3.402286
 20
28.55598
 30
0.0
 40
3.256944
 50
32.645908
 51
147.354092
  0
ARC
  8
0
 10
-19.856768
 20
28.55598
 30
0.0
 40
3.256944
 50
90.000001
 51
147.354092
  0
ARC
  8
0
 10
-11.629527
 20
21.035147
 30
0.0
 40
10.777778
 50
59.409311
 51
90.0
  0
LINE
  8
0
 10
-11.629527
 20
17.812925
 30
0.0
 11
0.170473
 21
17.812925
 31
0.0
  0
LINE
  8
0
 10
-17.629527
 20
13.812925
 30
0.0
 11
-16.729527
 21
14.712925
 31
0.0
  0
LINE
  8
0
 10
-16.729527
 20
14.712925
 30
0.0
 11
-11.629527
 21
14.712925
 31
0.0
  0
LINE
  8
0
 10
-17.629527
 20
31.812925
 30
0.0
 11
-16.729527
 21
30.912925
 31
0.0
  0
LINE
  8
0
 10
-16.729527
 20
30.912925
 30
0.0
 11
-11.629527
 21
30.912925
 31
0.0
  0
LINE
  8
0
  6
CENTER
 10
-11.629527
 20
10.863133
 30
0.0
 11
-11.629527
 21
34.537099
 31
0.0
  0
CIRCLE
  8
0
 10
24.801861
 20
-14.226248
 30
0.0
 40
7.0
  0
CIRCLE
  8
0
 10
24.801861
 20
-14.226248
 30
0.0
 40
6.0
  0
CIRCLE
  8
0
 10
24.801861
 20
-14.226248
 30
0.0
 40
14.0
  0
CIRCLE
  8
0
 10
24.801861
 20
-14.226248
 30
0.0
 40
11.0
  0
LINE
  8
0
 10
31.152714
 20
-3.226248
 30
0.0
 11
18.451008
 21
-3.226248
 31
0.0
  0
LINE
  8
0
 10
18.451008
 20
-3.226248
 30
0.0
 11
12.100155
 21
-14.226248
 31
0.0
  0
LINE
  8
0
 10
12.100155
 20
-14.226248
 30
0.0
 11
18.451008
 21
-25.226248
 31
0.0
  0
LINE
  8
0
 10
18.451008
 20
-25.226248
 30
0.0
 11
31.152714
 21
-25.226248
 31
0.0
  0
LINE
  8
0
 10
31.152714
 20
-25.226248
 30
0.0
 11
37.503567
 21
-14.226248
 31
0.0
  0
LINE
  8
0
 10
37.503567
 20
-14.226248
 30
0.0
 11
31.152714
 21
-3.226248
 31
0.0
  0
LINE
  8
0
 10
38.801861
 20
14.612925
 30
0.0
 11
38.801861
 21
17.012925
 31
0.0
  0
LINE
  8
0
 10
37.503567
 20
17.812925
 30
0.0
 11
37.503567
 21
33.112925
 31
0.0
  0
LINE
  8
0
 10
31.152714
 20
17.812925
 30
0.0
 11
31.152714
 21
33.112925
 31
0.0
  0
LINE
  8
0
 10
18.801861
 20
14.812925
 30
0.0
 11
18.801861
 21
33.812925
 31
0.0
  0
LINE
  8
0
 10
17.801861
 20
13.812925
 30
0.0
 11
17.801861
 21
34.812925
 31
0.0
  0
LINE
  8
0
 10
12.100155
 20
17.812925
 30
0.0
 11
12.100155
 21
33.112925
 31
0.0
  0
LINE
  8
0
 10
15.275582
 20
34.812925
 30
0.0
 11
34.328141
 21
34.812925
 31
0.0
  0
LINE
  8
0
 10
10.801861
 20
14.612925
 30
0.0
 11
10.801861
 21
17.012925
 31
0.0
  0
LINE
  8
0
 10
11.601861
 20
13.812925
 30
0.0
 11
38.001861
 21
13.812925
 31
0.0
  0
LINE
  8
0
 10
11.601861
 20
17.812925
 30
0.0
 11
12.100155
 21
17.812925
 31
0.0
  0
ARC
  8
0
 10
34.32814
 20
30.997238
 30
0.0
 40
3.815686
 50
33.674266
 51
146.325734
  0
ARC
  8
0
 10
15.275582
 20
30.997238
 30
0.0
 40
3.815686
 50
90.0
 51
146.325734
  0
ARC
  8
0
 10
24.801861
 20
22.100179
 30
0.0
 40
12.712745
 50
60.028721
 51
89.999998
  0
LINE
  8
0
  6
CENTER
 10
24.801861
 20
12.23813
 30
0.0
 11
24.801861
 21
38.092337
 31
0.0
  0
LINE
  8
0
 10
38.001861
 20
17.812925
 30
0.0
 11
38.801861
 21
17.012925
 31
0.0
  0
LINE
  8
0
 10
38.801861
 20
14.612925
 30
0.0
 11
38.001861
 21
13.812925
 31
0.0
  0
LINE
  8
0
 10
11.601861
 20
17.812925
 30
0.0
 11
10.801861
 21
17.012925
 31
0.0
  0
LINE
  8
0
 10
10.801861
 20
14.612925
 30
0.0
 11
11.601861
 21
13.812925
 31
0.0
  0
LINE
  8
0
 10
38.801861
 20
17.012925
 30
0.0
 11
24.801861
 21
17.012925
 31
0.0
  0
LINE
  8
0
 10
38.801861
 20
14.612925
 30
0.0
 11
24.801861
 21
14.612925
 31
0.0
  0
LINE
  8
0
 10
24.801861
 20
17.812925
 30
0.0
 11
38.001861
 21
17.812925
 31
0.0
  0
LINE
  8
0
 10
17.801861
 20
13.812925
 30
0.0
 11
18.801861
 21
14.812925
 31
0.0
  0
LINE
  8
0
 10
17.801861
 20
34.812925
 30
0.0
 11
18.801861
 21
33.812925
 31
0.0
  0
LINE
  8
0
 10
18.801861
 20
33.812925
 30
0.0
 11
24.801861
 21
33.812925
 31
0.0
  0
LINE
  8
0
 10
18.801861
 20
14.812925
 30
0.0
 11
24.801861
 21
14.812925
 31
0.0
  0
CIRCLE
  8
0
 10
24.801861
 20
-14.226248
 30
0.0
 40
13.2
  0
CIRCLE
  8
0
 10
66.054757
 20
-14.226248
 30
0.0
 40
8.0
  0
CIRCLE
  8
0
 10
66.054757
 20
-14.226248
 30
0.0
 40
7.0
  0
CIRCLE
  8
0
 10
66.054757
 20
-14.226248
 30
0.0
 40
15.5
  0
CIRCLE
  8
0
 10
66.054757
 20
-14.226248
 30
0.0
 40
14.5
  0
CIRCLE
  8
0
 10
66.054757
 20
-14.226248
 30
0.0
 40
12.0
  0
LINE
  8
0
 10
59.126554
 20
-26.226248
 30
0.0
 11
72.98296
 21
-26.226248
 31
0.0
  0
LINE
  8
0
 10
72.98296
 20
-26.226248
 30
0.0
 11
79.911163
 21
-14.226248
 31
0.0
  0
LINE
  8
0
 10
79.911163
 20
-14.226248
 30
0.0
 11
72.98296
 21
-2.226248
 31
0.0
  0
LINE
  8
0
 10
72.98296
 20
-2.226248
 30
0.0
 11
59.126554
 21
-2.226248
 31
0.0
  0
LINE
  8
0
 10
59.126554
 20
-2.226248
 30
0.0
 11
52.19835
 21
-14.226248
 31
0.0
  0
LINE
  8
0
 10
52.19835
 20
-14.226248
 30
0.0
 11
59.126554
 21
-26.226248
 31
0.0
  0
LINE
  8
0
 10
81.554757
 20
14.812925
 30
0.0
 11
81.554757
 21
17.812925
 31
0.0
  0
LINE
  8
0
 10
79.911163
 20
18.812925
 30
0.0
 11
79.911163
 21
35.912925
 31
0.0
  0
LINE
  8
0
 10
72.98296
 20
18.812925
 30
0.0
 11
72.98296
 21
35.912925
 31
0.0
  0
LINE
  8
0
 10
59.054757
 20
14.812925
 30
0.0
 11
59.054757
 21
36.812925
 31
0.0
  0
LINE
  8
0
 10
58.054757
 20
13.812925
 30
0.0
 11
58.054757
 21
37.812925
 31
0.0
  0
LINE
  8
0
 10
50.554757
 20
14.812925
 30
0.0
 11
50.554757
 21
17.812925
 31
0.0
  0
LINE
  8
0
 10
55.662453
 20
37.812925
 30
0.0
 11
76.447062
 21
37.812925
 31
0.0
  0
LINE
  8
0
 10
51.554757
 20
13.812925
 30
0.0
 11
80.554757
 21
13.812925
 31
0.0
  0
LINE
  8
0
 10
51.554757
 20
18.812925
 30
0.0
 11
52.19835
 21
18.812925
 31
0.0
  0
LINE
  8
0
 10
52.19835
 20
18.812925
 30
0.0
 11
52.19835
 21
35.912925
 31
0.0
  0
LINE
  8
0
 10
51.554757
 20
18.812925
 30
0.0
 11
50.554757
 21
17.812925
 31
0.0
  0
LINE
  8
0
 10
50.554757
 20
14.812925
 30
0.0
 11
51.554757
 21
13.812925
 31
0.0
  0
LINE
  8
0
 10
80.554757
 20
13.812925
 30
0.0
 11
81.554757
 21
14.812925
 31
0.0
  0
LINE
  8
0
 10
81.554757
 20
17.812925
 30
0.0
 11
80.554757
 21
18.812925
 31
0.0
  0
LINE
  8
0
  6
CENTER
 10
66.054757
 20
10.67167
 30
0.0
 11
66.054757
 21
40.26176
 31
0.0
  0
LINE
  8
0
 10
81.554757
 20
17.812925
 30
0.0
 11
66.054757
 21
17.812925
 31
0.0
  0
LINE
  8
0
 10
81.554757
 20
14.812925
 30
0.0
 11
66.054757
 21
14.812925
 31
0.0
  0
ARC
  8
0
 10
76.447062
 20
33.70503
 30
0.0
 40
4.107895
 50
32.511982
 51
147.488018
  0
ARC
  8
0
 10
55.662452
 20
33.70503
 30
0.0
 40
4.107895
 50
89.999991
 51
147.488018
  0
ARC
  8
0
 10
66.054757
 20
24.231346
 30
0.0
 40
13.581579
 50
59.328333
 51
89.999995
  0
LINE
  8
0
 10
66.054757
 20
18.812925
 30
0.0
 11
80.554757
 21
18.812925
 31
0.0
  0
LINE
  8
0
 10
58.054757
 20
13.812925
 30
0.0
 11
59.054757
 21
14.812925
 31
0.0
  0
LINE
  8
0
 10
58.054757
 20
37.812925
 30
0.0
 11
59.054757
 21
36.812925
 31
0.0
  0
LINE
  8
0
 10
59.054757
 20
36.812925
 30
0.0
 11
66.054757
 21
36.812925
 31
0.0
  0
LINE
  8
0
 10
66.054757
 20
36.812925
 30
0.0
 11
66.054757
 21
34.773969
 31
0.0
  0
LINE
  8
0
 10
59.054757
 20
14.812925
 30
0.0
 11
66.054757
 21
14.812925
 31
0.0
  0
CIRCLE
  8
0
 10
113.087045
 20
-14.226248
 30
0.0
 40
10.0
  0
CIRCLE
  8
0
 10
113.087045
 20
-14.226248
 30
0.0
 40
8.75
  0
CIRCLE
  8
0
 10
113.087045
 20
-14.226248
 30
0.0
 40
18.5
  0
CIRCLE
  8
0
 10
113.087045
 20
-14.226248
 30
0.0
 40
17.5
  0
CIRCLE
  8
0
 10
113.087045
 20
-14.226248
 30
0.0
 40
15.0
  0
LINE
  8
0
 10
104.426791
 20
-29.226248
 30
0.0
 11
121.747299
 21
-29.226248
 31
0.0
  0
LINE
  8
0
 10
121.747299
 20
-29.226248
 30
0.0
 11
130.407553
 21
-14.226248
 31
0.0
  0
LINE
  8
0
 10
130.407553
 20
-14.226248
 30
0.0
 11
121.747299
 21
0.773752
 31
0.0
  0
LINE
  8
0
 10
104.456491
 20
0.773752
 30
0.0
 11
104.447791
 21
0.773752
 31
0.0
  0
LINE
  8
0
 10
104.426791
 20
0.773752
 30
0.0
 11
95.766537
 21
-14.226248
 31
0.0
  0
LINE
  8
0
 10
95.766537
 20
-14.226248
 30
0.0
 11
104.426791
 21
-29.226248
 31
0.0
  0
LINE
  8
0
 10
131.587045
 20
14.812925
 30
0.0
 11
131.587045
 21
18.812925
 31
0.0
  0
LINE
  8
0
 10
121.747299
 20
19.812925
 30
0.0
 11
121.747299
 21
41.512925
 31
0.0
  0
LINE
  8
0
 10
104.337045
 20
15.062925
 30
0.0
 11
104.337045
 21
42.562925
 31
0.0
  0
LINE
  8
0
 10
94.587045
 20
14.812925
 30
0.0
 11
94.587045
 21
18.812925
 31
0.0
  0
LINE
  8
0
 10
100.096666
 20
43.812925
 30
0.0
 11
126.077428
 21
43.812925
 31
0.0
  0
LINE
  8
0
 10
95.587045
 20
13.812925
 30
0.0
 11
130.587045
 21
13.812925
 31
0.0
  0
LINE
  8
0
 10
95.587045
 20
19.812925
 30
0.0
 11
95.766537
 21
19.812925
 31
0.0
  0
LINE
  8
0
 10
130.407553
 20
19.812925
 30
0.0
 11
130.407553
 21
41.512925
 31
0.0
  0
LINE
  8
0
 10
95.766537
 20
19.812925
 30
0.0
 11
95.766537
 21
41.512925
 31
0.0
  0
ARC
  8
0
 10
126.077426
 20
38.586838
 30
0.0
 40
5.226087
 50
34.048894
 51
145.951106
  0
ARC
  8
0
 10
100.096664
 20
38.586838
 30
0.0
 40
5.226087
 50
89.999983
 51
145.951106
  0
ARC
  8
0
 10
113.087045
 20
26.358577
 30
0.0
 40
17.454348
 50
60.253333
 51
89.999996
  0
LINE
  8
0
  6
CENTER
 10
113.087045
 20
10.016248
 30
0.0
 11
113.087045
 21
47.042641
 31
0.0
  0
LINE
  8
0
 10
113.087045
 20
19.812925
 30
0.0
 11
130.587045
 21
19.812925
 31
0.0
  0
LINE
  8
0
 10
130.587045
 20
19.812925
 30
0.0
 11
131.587045
 21
18.812925
 31
0.0
  0
LINE
  8
0
 10
131.587045
 20
14.812925
 30
0.0
 11
130.587045
 21
13.812925
 31
0.0
  0
LINE
  8
0
 10
95.587045
 20
13.812925
 30
0.0
 11
94.587045
 21
14.812925
 31
0.0
  0
LINE
  8
0
 10
94.587045
 20
18.812925
 30
0.0
 11
95.587045
 21
19.812925
 31
0.0
  0
LINE
  8
0
 10
103.087045
 20
43.812925
 30
0.0
 11
104.337045
 21
42.562925
 31
0.0
  0
LINE
  8
0
 10
104.337045
 20
42.562925
 30
0.0
 11
113.087045
 21
42.562925
 31
0.0
  0
LINE
  8
0
 10
103.087045
 20
13.812925
 30
0.0
 11
104.337045
 21
15.062925
 31
0.0
  0
LINE
  8
0
 10
104.337045
 20
15.062925
 30
0.0
 11
113.087045
 21
15.062925
 31
0.0
  0
LINE
  8
0
 10
131.587045
 20
18.812925
 30
0.0
 11
113.087045
 21
18.812925
 31
0.0
  0
LINE
  8
0
 10
131.587045
 20
14.812925
 30
0.0
 11
113.087045
 21
14.812925
 31
0.0
  0
CIRCLE
  8
0
 10
-79.638005
 20
-148.968818
 30
0.0
 40
12.0
  0
CIRCLE
  8
0
 10
-79.638005
 20
-148.968818
 30
0.0
 40
10.5
  0
CIRCLE
  8
0
 10
-79.638005
 20
-148.968818
 30
0.0
 40
22.5
  0
CIRCLE
  8
0
 10
-79.638005
 20
-148.968818
 30
0.0
 40
21.5
  0
CIRCLE
  8
0
 10
-79.638005
 20
-148.968818
 30
0.0
 40
18.0
  0
LINE
  8
0
 10
-90.03031
 20
-166.968818
 30
0.0
 11
-69.2457
 21
-166.968818
 31
0.0
  0
LINE
  8
0
 10
-69.2457
 20
-166.968818
 30
0.0
 11
-58.853395
 21
-148.968818
 31
0.0
  0
LINE
  8
0
 10
-58.853395
 20
-148.968818
 30
0.0
 11
-69.2457
 21
-130.968818
 31
0.0
  0
LINE
  8
0
 10
-69.2457
 20
-130.968818
 30
0.0
 11
-90.03031
 21
-130.968818
 31
0.0
  0
LINE
  8
0
 10
-90.03031
 20
-130.968818
 30
0.0
 11
-100.422614
 21
-148.968818
 31
0.0
  0
LINE
  8
0
 10
-100.422614
 20
-148.968818
 30
0.0
 11
-90.03031
 21
-166.968818
 31
0.0
  0
LINE
  8
0
 10
-57.138005
 20
-99.109384
 30
0.0
 11
-57.138005
 21
-95.109384
 31
0.0
  0
LINE
  8
0
 10
-58.853395
 20
-94.109384
 30
0.0
 11
-58.853395
 21
-66.909384
 31
0.0
  0
LINE
  8
0
 10
-69.2457
 20
-94.109384
 30
0.0
 11
-69.2457
 21
-66.909384
 31
0.0
  0
LINE
  8
0
 10
-90.138005
 20
-98.609384
 30
0.0
 11
-90.138005
 21
-65.609384
 31
0.0
  0
LINE
  8
0
 10
-91.638005
 20
-100.109384
 30
0.0
 11
-91.638005
 21
-64.109384
 31
0.0
  0
LINE
  8
0
 10
-100.422614
 20
-94.109384
 30
0.0
 11
-100.422614
 21
-66.909384
 31
0.0
  0
LINE
  8
0
 10
-102.138005
 20
-99.109384
 30
0.0
 11
-102.138005
 21
-95.109384
 31
0.0
  0
LINE
  8
0
 10
-95.226462
 20
-64.109384
 30
0.0
 11
-64.049547
 21
-64.109384
 31
0.0
  0
LINE
  8
0
 10
-101.138005
 20
-100.109384
 30
0.0
 11
-58.138005
 21
-100.109384
 31
0.0
  0
LINE
  8
0
 10
-101.138005
 20
-94.109384
 30
0.0
 11
-100.422614
 21
-94.109384
 31
0.0
  0
ARC
  8
0
 10
-64.049547
 20
-70.330813
 30
0.0
 40
6.221429
 50
33.363075
 51
146.636925
  0
ARC
  8
0
 10
-95.226462
 20
-70.330813
 30
0.0
 40
6.221429
 50
90.0
 51
146.636925
  0
ARC
  8
0
 10
-79.638005
 20
-84.795098
 30
0.0
 40
20.685714
 50
59.841724
 51
90.0
  0
LINE
  8
0
  6
CENTER
 10
-79.638005
 20
-104.496481
 30
0.0
 11
-79.638005
 21
-59.980352
 31
0.0
  0
LINE
  8
0
 10
-79.638005
 20
-94.109384
 30
0.0
 11
-58.138005
 21
-94.109384
 31
0.0
  0
LINE
  8
0
 10
-91.638005
 20
-64.109384
 30
0.0
 11
-90.138005
 21
-65.609384
 31
0.0
  0
LINE
  8
0
 10
-90.138005
 20
-65.609384
 30
0.0
 11
-79.638005
 21
-65.609384
 31
0.0
  0
LINE
  8
0
 10
-91.638005
 20
-100.109384
 30
0.0
 11
-90.138005
 21
-98.609384
 31
0.0
  0
LINE
  8
0
 10
-90.138005
 20
-98.609384
 30
0.0
 11
-79.638005
 21
-98.609384
 31
0.0
  0
LINE
  8
0
 10
-58.138005
 20
-94.109384
 30
0.0
 11
-57.138005
 21
-95.109384
 31
0.0
  0
LINE
  8
0
 10
-57.138005
 20
-99.109384
 30
0.0
 11
-58.138005
 21
-100.109384
 31
0.0
  0
LINE
  8
0
 10
-101.138005
 20
-100.109384
 30
0.0
 11
-102.138005
 21
-99.109384
 31
0.0
  0
LINE
  8
0
 10
-102.138005
 20
-95.109384
 30
0.0
 11
-101.138005
 21
-94.109384
 31
0.0
  0
LINE
  8
0
 10
-57.138005
 20
-95.109384
 30
0.0
 11
-79.638005
 21
-95.109384
 31
0.0
  0
LINE
  8
0
 10
-57.138005
 20
-99.109384
 30
0.0
 11
-79.638005
 21
-99.109384
 31
0.0
  0
CIRCLE
  8
0
 10
-14.553653
 20
-148.968818
 30
0.0
 40
15.0
  0
CIRCLE
  8
0
 10
-14.553653
 20
-148.968818
 30
0.0
 40
13.25
  0
CIRCLE
  8
0
 10
-14.553653
 20
-148.968818
 30
0.0
 40
29.0
  0
CIRCLE
  8
0
 10
-14.553653
 20
-148.968818
 30
0.0
 40
28.0
  0
CIRCLE
  8
0
 10
-14.553653
 20
-148.968818
 30
0.0
 40
23.0
  0
LINE
  8
0
 10
-1.274597
 20
-125.968818
 30
0.0
 11
-27.832709
 21
-125.968818
 31
0.0
  0
LINE
  8
0
 10
-27.832709
 20
-125.968818
 30
0.0
 11
-41.111765
 21
-148.968818
 31
0.0
  0
LINE
  8
0
 10
-41.111765
 20
-148.968818
 30
0.0
 11
-27.832709
 21
-171.968818
 31
0.0
  0
LINE
  8
0
 10
-27.832709
 20
-171.968818
 30
0.0
 11
-1.274597
 21
-171.968818
 31
0.0
  0
LINE
  8
0
 10
-1.274597
 20
-171.968818
 30
0.0
 11
12.00446
 21
-148.968818
 31
0.0
  0
LINE
  8
0
 10
12.00446
 20
-148.968818
 30
0.0
 11
-1.274597
 21
-125.968818
 31
0.0
  0
LINE
  8
0
 10
14.446347
 20
-99.109384
 30
0.0
 11
14.446347
 21
-93.109384
 31
0.0
  0
LINE
  8
0
 10
12.00446
 20
-92.109384
 30
0.0
 11
12.00446
 21
-58.709384
 31
0.0
  0
LINE
  8
0
 10
-1.274597
 20
-92.109384
 30
0.0
 11
-1.274597
 21
-58.709384
 31
0.0
  0
LINE
  8
0
 10
-27.803653
 20
-98.359384
 30
0.0
 11
-27.803653
 21
-56.859384
 31
0.0
  0
LINE
  8
0
 10
-29.553653
 20
-100.109384
 30
0.0
 11
-29.553653
 21
-55.109384
 31
0.0
  0
LINE
  8
0
 10
-41.111765
 20
-92.109384
 30
0.0
 11
-41.111765
 21
-58.709384
 31
0.0
  0
LINE
  8
0
 10
-43.553653
 20
-99.109384
 30
0.0
 11
-43.553653
 21
-93.109384
 31
0.0
  0
LINE
  8
0
 10
-34.472237
 20
-55.109384
 30
0.0
 11
5.364931
 21
-55.109384
 31
0.0
  0
LINE
  8
0
 10
-42.553653
 20
-100.109384
 30
0.0
 11
13.446347
 21
-100.109384
 31
0.0
  0
LINE
  8
0
 10
-42.553653
 20
-92.109384
 30
0.0
 11
-41.111765
 21
-92.109384
 31
0.0
  0
ARC
  8
0
 10
5.364931
 20
-63.032069
 30
0.0
 40
7.922685
 50
33.066263
 51
146.933737
  0
ARC
  8
0
 10
-34.472237
 20
-63.032069
 30
0.0
 40
7.922685
 50
90.0
 51
146.933737
  0
ARC
  8
0
 10
-14.553653
 20
-81.400125
 30
0.0
 40
26.290741
 50
59.663012
 51
90.0
  0
LINE
  8
0
 10
-42.553653
 20
-92.109384
 30
0.0
 11
-43.553653
 21
-93.109384
 31
0.0
  0
LINE
  8
0
 10
-43.553653
 20
-99.109384
 30
0.0
 11
-42.553653
 21
-100.109384
 31
0.0
  0
LINE
  8
0
 10
13.446347
 20
-100.109384
 30
0.0
 11
14.446347
 21
-99.109384
 31
0.0
  0
LINE
  8
0
 10
13.446347
 20
-92.109384
 30
0.0
 11
14.446347
 21
-93.109384
 31
0.0
  0
LINE
  8
0
 10
14.446347
 20
-93.109384
 30
0.0
 11
-14.553653
 21
-93.109384
 31
0.0
  0
LINE
  8
0
 10
14.446347
 20
-99.109384
 30
0.0
 11
-14.553653
 21
-99.109384
 31
0.0
  0
LINE
  8
0
 10
-14.553653
 20
-92.109384
 30
0.0
 11
13.446347
 21
-92.109384
 31
0.0
  0
LINE
  8
0
 10
-29.553653
 20
-55.109384
 30
0.0
 11
-27.803653
 21
-56.859384
 31
0.0
  0
LINE
  8
0
 10
-27.803653
 20
-56.859384
 30
0.0
 11
-14.553653
 21
-56.859384
 31
0.0
  0
LINE
  8
0
 10
-29.553653
 20
-100.109384
 30
0.0
 11
-27.803653
 21
-98.359384
 31
0.0
  0
LINE
  8
0
 10
-27.803653
 20
-98.359384
 30
0.0
 11
-14.553653
 21
-98.359384
 31
0.0
  0
LINE
  8
0
  6
CENTER
 10
-14.553653
 20
-107.212349
 30
0.0
 11
-14.553653
 21
-50.354741
 31
0.0
  0
CIRCLE
  8
0
 10
62.487035
 20
-148.968818
 30
0.0
 40
18.0
  0
CIRCLE
  8
0
 10
62.487035
 20
-148.968818
 30
0.0
 40
16.0
  0
CIRCLE
  8
0
 10
62.487035
 20
-148.968818
 30
0.0
 40
34.0
  0
CIRCLE
  8
0
 10
62.487035
 20
-148.968818
 30
0.0
 40
33.0
  0
CIRCLE
  8
0
 10
62.487035
 20
-148.968818
 30
0.0
 40
27.5
  0
LINE
  8
0
 10
46.609903
 20
-176.468818
 30
0.0
 11
78.364168
 21
-176.468818
 31
0.0
  0
LINE
  8
0
 10
78.364168
 20
-176.468818
 30
0.0
 11
94.2413
 21
-148.968818
 31
0.0
  0
LINE
  8
0
 10
94.2413
 20
-148.968818
 30
0.0
 11
78.364168
 21
-121.468818
 31
0.0
  0
LINE
  8
0
 10
78.364168
 20
-121.468818
 30
0.0
 11
46.609903
 21
-121.468818
 31
0.0
  0
LINE
  8
0
 10
46.609903
 20
-121.468818
 30
0.0
 11
30.732771
 21
-148.968818
 31
0.0
  0
LINE
  8
0
 10
30.732771
 20
-148.968818
 30
0.0
 11
46.609903
 21
-176.468818
 31
0.0
  0
LINE
  8
0
 10
96.487035
 20
-99.109384
 30
0.0
 11
96.487035
 21
-91.109384
 31
0.0
  0
LINE
  8
0
 10
94.2413
 20
-90.109384
 30
0.0
 11
94.2413
 21
-50.409384
 31
0.0
  0
LINE
  8
0
 10
78.364168
 20
-90.109384
 30
0.0
 11
78.364168
 21
-50.409384
 31
0.0
  0
LINE
  8
0
 10
46.487035
 20
-98.109384
 30
0.0
 11
46.487035
 21
-48.109384
 31
0.0
  0
LINE
  8
0
 10
44.487035
 20
-100.109384
 30
0.0
 11
44.487035
 21
-46.109384
 31
0.0
  0
LINE
  8
0
 10
30.732771
 20
-90.109384
 30
0.0
 11
30.732771
 21
-50.409384
 31
0.0
  0
LINE
  8
0
 10
28.487035
 20
-99.109384
 30
0.0
 11
28.487035
 21
-91.109384
 31
0.0
  0
LINE
  8
0
 10
38.671337
 20
-46.109384
 30
0.0
 11
86.302734
 21
-46.109384
 31
0.0
  0
LINE
  8
0
 10
29.487035
 20
-100.109384
 30
0.0
 11
95.487035
 21
-100.109384
 31
0.0
  0
LINE
  8
0
 10
29.487035
 20
-90.109384
 30
0.0
 11
30.732771
 21
-90.109384
 31
0.0
  0
ARC
  8
0
 10
86.302734
 20
-55.587388
 30
0.0
 40
9.478004
 50
33.114775
 51
146.885225
  0
ARC
  8
0
 10
38.671337
 20
-55.587388
 30
0.0
 40
9.478004
 50
90.0
 51
146.885225
  0
ARC
  8
0
 10
62.487035
 20
-77.5714
 30
0.0
 40
31.462016
 50
59.692245
 51
90.0
  0
LINE
  8
0
 10
95.487035
 20
-90.109384
 30
0.0
 11
96.487035
 21
-91.109384
 31
0.0
  0
LINE
  8
0
 10
96.487035
 20
-99.109384
 30
0.0
 11
95.487035
 21
-100.109384
 31
0.0
  0
LINE
  8
0
 10
29.487035
 20
-100.109384
 30
0.0
 11
28.487035
 21
-99.109384
 31
0.0
  0
LINE
  8
0
 10
28.487035
 20
-91.109384
 30
0.0
 11
29.487035
 21
-90.109384
 31
0.0
  0
LINE
  8
0
  6
CENTER
 10
62.487035
 20
-106.464385
 30
0.0
 11
62.487035
 21
-39.643639
 31
0.0
  0
LINE
  8
0
 10
96.487035
 20
-91.109384
 30
0.0
 11
62.487035
 21
-91.109384
 31
0.0
  0
LINE
  8
0
 10
96.487035
 20
-99.109384
 30
0.0
 11
62.487035
 21
-99.109384
 31
0.0
  0
LINE
  8
0
 10
62.487035
 20
-90.109384
 30
0.0
 11
95.487035
 21
-90.109384
 31
0.0
  0
LINE
  8
0
 10
44.487035
 20
-46.109384
 30
0.0
 11
46.487035
 21
-48.109384
 31
0.0
  0
LINE
  8
0
 10
44.487035
 20
-100.109384
 30
0.0
 11
46.487035
 21
-98.109384
 31
0.0
  0
LINE
  8
0
 10
46.487035
 20
-48.109384
 30
0.0
 11
62.487035
 21
-48.109384
 31
0.0
  0
LINE
  8
0
 10
46.487035
 20
-98.109384
 30
0.0
 11
62.487035
 21
-98.109384
 31
0.0
  0
LINE
  8
0
 10
121.747299
 20
0.773752
 30
0.0
 11
104.426791
 21
0.773752
 31
0.0
  0
LINE
  8
0
 10
104.444791
 20
0.773752
 30
0.0
 11
104.436791
 21
0.773752
 31
0.0
  0
LINE
  8
0
 10
104.433791
 20
0.773752
 30
0.0
 11
104.429791
 21
0.773752
 31
0.0
  0
ARC
  8
0
 10
-89.092487
 20
19.190702
 30
0.0
 40
3.622222
 50
66.516938
 51
89.999987
  0
ARC
  8
0
 10
-64.322924
 20
22.042091
 30
0.0
 40
3.770833
 50
60.158276
 51
90.0
  0
INSERT
  8
0
  2
*X0
 10
0.0
 20
0.0
 30
0.0
1001
ACAD
1000
HATCH
1002
{
1070
    16
1000
ANSI31
1040
10.0
1040
0.0
1002
}
  0
INSERT
  8
0
  2
*X1
 10
0.0
 20
0.0
 30
0.0
1001
ACAD
1000
HATCH
1002
{
1070
    16
1000
ANSI31
1040
10.0
1040
0.0
1002
}
  0
INSERT
  8
0
  2
*X2
 10
0.0
 20
0.0
 30
0.0
1001
ACAD
1000
HATCH
1002
{
1070
    16
1000
ANSI31
1040
10.0
1040
0.0
1002
}
  0
INSERT
  8
0
  2
*X3
 10
0.0
 20
0.0
 30
0.0
1001
ACAD
1000
HATCH
1002
{
1070
    16
1000
ANSI31
1040
15.0
1040
0.0
1002
}
  0
INSERT
  8
0
  2
*X4
 10
0.0
 20
0.0
 30
0.0
1001
ACAD
1000
HATCH
1002
{
1070
    16
1000
ANSI31
1040
15.0
1040
0.0
1002
}
  0
INSERT
  8
0
  2
*X5
 10
0.0
 20
0.0
 30
0.0
1001
ACAD
1000
HATCH
1002
{
1070
    16
1000
ANSI31
1040
15.0
1040
0.0
1002
}
  0
INSERT
  8
0
  2
*X6
 10
0.0
 20
0.0
 30
0.0
1001
ACAD
1000
HATCH
1002
{
1070
    16
1000
ANSI31
1040
15.0
1040
0.0
1002
}
  0
LINE
  8
0
 10
103.087045
 20
43.812925
 30
0.0
 11
103.087045
 21
13.812925
 31
0.0
  0
INSERT
  8
0
  2
*X7
 10
0.0
 20
0.0
 30
0.0
1001
ACAD
1000
HATCH
1002
{
1070
    16
1000
ANSI31
1040
20.0
1040
0.0
1002
}
  0
INSERT
  8
0
  2
*X8
 10
0.0
 20
0.0
 30
0.0
1001
ACAD
1000
HATCH
1002
{
1070
    16
1000
ANSI31
1040
20.0
1040
0.0
1002
}
  0
INSERT
  8
0
  2
*X9
 10
0.0
 20
0.0
 30
0.0
1001
ACAD
1000
HATCH
1002
{
1070
    16
1000
ANSI31
1040
20.0
1040
0.0
1002
}
  0
ENDSEC
  0
EOF
