  0
SECTION
  2
HEADER
  9
$ACADVER
  1
AC1009
  9
$INSBASE
 10
0.0
 20
0.0
 30
0.0
  9
$EXTMIN
 10
-47.788866
 20
-155.376469
 30
0.0
  9
$EXTMAX
 10
152.558195
 20
60.242179
 30
0.0
  9
$LIMMIN
 10
0.0
 20
0.0
  9
$LIMMAX
 10
12.0
 20
9.0
  9
$ORTHOMODE
 70
     1
  9
$REGENMODE
 70
     1
  9
$FILLMODE
 70
     1
  9
$QTEXTMODE
 70
     0
  9
$MIRRTEXT
 70
     1
  9
$DRAGMODE
 70
     2
  9
$LTSCALE
 40
5.0
  9
$OSMODE
 70
     0
  9
$ATTMODE
 70
     1
  9
$TEXTSIZE
 40
0.2
  9
$TRACEWID
 40
0.05
  9
$TEXTSTYLE
  7
STANDARD
  9
$CLAYER
  8
0
  9
$CELTYPE
  6
BYLAYER
  9
$CECOLOR
 62
   256
  9
$DIMSCALE
 40
1.0
  9
$DIMASZ
 40
2.5
  9
$DIMEXO
 40
0.0
  9
$DIMDLI
 40
5.0
  9
$DIMRND
 40
0.0
  9
$DIMDLE
 40
0.0
  9
$DIMEXE
 40
1.0
  9
$DIMTP
 40
0.0
  9
$DIMTM
 40
0.0
  9
$DIMTXT
 40
2.5
  9
$DIMCEN
 40
0.09
  9
$DIMTSZ
 40
0.0
  9
$DIMTOL
 70
     0
  9
$DIMLIM
 70
     0
  9
$DIMTIH
 70
     0
  9
$DIMTOH
 70
     0
  9
$DIMSE1
 70
     0
  9
$DIMSE2
 70
     0
  9
$DIMTAD
 70
     1
  9
$DIMZIN
 70
     0
  9
$DIMBLK
  1

  9
$DIMASO
 70
     0
  9
$DIMSHO
 70
     0
  9
$DIMPOST
  1

  9
$DIMAPOST
  1

  9
$DIMALT
 70
     0
  9
$DIMALTD
 70
     2
  9
$DIMALTF
 40
25.4
  9
$DIMLFAC
 40
1.0
  9
$DIMTOFL
 70
     1
  9
$DIMTVP
 40
0.0
  9
$DIMTIX
 70
     0
  9
$DIMSOXD
 70
     0
  9
$DIMSAH
 70
     0
  9
$DIMBLK1
  1

  9
$DIMBLK2
  1

  9
$DIMSTYLE
  2
*UNNAMED
  9
$DIMCLRD
 70
     0
  9
$DIMCLRE
 70
     0
  9
$DIMCLRT
 70
     0
  9
$DIMTFAC
 40
1.0
  9
$DIMGAP
 40
0.09
  9
$LUNITS
 70
     2
  9
$LUPREC
 70
     4
  9
$SKETCHINC
 40
0.1
  9
$FILLETRAD
 40
0.0
  9
$AUNITS
 70
     0
  9
$AUPREC
 70
     0
  9
$MENU
  1
wiberger
  9
$ELEVATION
 40
0.0
  9
$PELEVATION
 40
0.0
  9
$THICKNESS
 40
0.0
  9
$LIMCHECK
 70
     0
  9
$BLIPMODE
 70
     1
  9
$CHAMFERA
 40
0.0
  9
$CHAMFERB
 40
0.0
  9
$SKPOLY
 70
     0
  9
$TDCREATE
 40
2450192.504978819
  9
$TDUPDATE
 40
2450218.629471528
  9
$TDINDWG
 40
0.0006674769
  9
$TDUSRTIMER
 40
0.0006674769
  9
$USRTIMER
 70
     1
  9
$ANGBASE
 50
0.0
  9
$ANGDIR
 70
     0
  9
$PDMODE
 70
     0
  9
$PDSIZE
 40
0.0
  9
$PLINEWID
 40
0.0
  9
$COORDS
 70
     0
  9
$SPLFRAME
 70
     0
  9
$SPLINETYPE
 70
     6
  9
$SPLINESEGS
 70
     8
  9
$ATTDIA
 70
     0
  9
$ATTREQ
 70
     1
  9
$HANDLING
 70
     0
  9
$HANDSEED
  5
0
  9
$SURFTAB1
 70
     6
  9
$SURFTAB2
 70
     6
  9
$SURFTYPE
 70
     6
  9
$SURFU
 70
     6
  9
$SURFV
 70
     6
  9
$UCSNAME
  2

  9
$UCSORG
 10
0.0
 20
0.0
 30
0.0
  9
$UCSXDIR
 10
1.0
 20
0.0
 30
0.0
  9
$UCSYDIR
 10
0.0
 20
1.0
 30
0.0
  9
$PUCSNAME
  2

  9
$PUCSORG
 10
0.0
 20
0.0
 30
0.0
  9
$PUCSXDIR
 10
1.0
 20
0.0
 30
0.0
  9
$PUCSYDIR
 10
0.0
 20
1.0
 30
0.0
  9
$USERI1
 70
     0
  9
$USERI2
 70
     0
  9
$USERI3
 70
     0
  9
$USERI4
 70
     0
  9
$USERI5
 70
     0
  9
$USERR1
 40
0.0
  9
$USERR2
 40
0.0
  9
$USERR3
 40
0.0
  9
$USERR4
 40
0.0
  9
$USERR5
 40
0.0
  9
$WORLDVIEW
 70
     1
  9
$SHADEDGE
 70
     3
  9
$SHADEDIF
 70
    70
  9
$TILEMODE
 70
     1
  9
$MAXACTVP
 70
    16
  9
$PINSBASE
 10
0.0
 20
0.0
 30
0.0
  9
$PLIMCHECK
 70
     0
  9
$PEXTMIN
 10
1.000000E+20
 20
1.000000E+20
 30
1.000000E+20
  9
$PEXTMAX
 10
-1.000000E+20
 20
-1.000000E+20
 30
-1.000000E+20
  9
$PLIMMIN
 10
0.0
 20
0.0
  9
$PLIMMAX
 10
12.0
 20
9.0
  9
$UNITMODE
 70
     0
  9
$VISRETAIN
 70
     0
  9
$PLINEGEN
 70
     0
  9
$PSLTSCALE
 70
     0
  9
$TREEDEPTH
 70
  3020
  9
$DWGCODEPAGE
  3
undefined
  0
ENDSEC
  0
SECTION
  2
TABLES
  0
TABLE
  2
VPORT
 70
     2
  0
VPORT
  2
*ACTIVE
 70
     0
 10
0.0
 20
0.0
 11
1.0
 21
1.0
 12
106.782583
 22
-47.567145
 13
0.0
 23
0.0
 14
1.0
 24
1.0
 15
0.0
 25
0.0
 16
0.0
 26
0.0
 36
1.0
 17
0.0
 27
0.0
 37
0.0
 40
239.576276
 41
1.767507
 42
50.0
 43
0.0
 44
0.0
 50
0.0
 51
0.0
 71
     0
 72
   100
 73
     1
 74
     0
 75
     0
 76
     0
 77
     0
 78
     0
  0
ENDTAB
  0
TABLE
  2
LTYPE
 70
     2
  0
LTYPE
  2
CONTINUOUS
 70
    64
  3
Solid line
 72
    65
 73
     0
 40
0.0
  0
LTYPE
  2
CENTER
 70
    64
  3
____ _ ____ _ ____ _ ____ _ ____ _ ____ _ ____
 72
    65
 73
     4
 40
2.0
 49
1.25
 49
-0.25
 49
0.25
 49
-0.25
  0
ENDTAB
  0
TABLE
  2
LAYER
 70
     1
  0
LAYER
  2
0
 70
    64
 62
     7
  6
CONTINUOUS
  0
ENDTAB
  0
TABLE
  2
STYLE
 70
     1
  0
STYLE
  2
STANDARD
 70
     0
 40
0.0
 41
1.0
 50
0.0
 71
     0
 42
0.2
  3
txt
  4

  0
ENDTAB
  0
TABLE
  2
VIEW
 70
     0
  0
ENDTAB
  0
TABLE
  2
UCS
 70
     0
  0
ENDTAB
  0
TABLE
  2
APPID
 70
     1
  0
APPID
  2
ACAD
 70
    64
  0
ENDTAB
  0
TABLE
  2
DIMSTYLE
 70
     0
  0
ENDTAB
  0
ENDSEC
  0
SECTION
  2
BLOCKS
  0
BLOCK
  8
0
  2
*X0
 70
    65
 10
0.0
 20
0.0
 30
0.0
  3
*X
  0
LINE
  8
0
 62
     0
 10
-47.435671
 20
30.346075
 30
0.0
 11
-43.330118
 21
34.451628
 31
0.0
  0
LINE
  8
0
 62
     0
 10
-47.435671
 20
32.113842
 30
0.0
 11
-43.330118
 21
36.219395
 31
0.0
  0
LINE
  8
0
 62
     0
 10
-47.435671
 20
33.881609
 30
0.0
 11
-43.330118
 21
37.987162
 31
0.0
  0
LINE
  8
0
 62
     0
 10
-47.435671
 20
35.649376
 30
0.0
 11
-44.072584
 21
39.012462
 31
0.0
  0
LINE
  8
0
 62
     0
 10
-47.435671
 20
37.417143
 30
0.0
 11
-45.851707
 21
39.001107
 31
0.0
  0
LINE
  8
0
 62
     0
 10
-47.435671
 20
28.578308
 30
0.0
 11
-43.330118
 21
32.683861
 31
0.0
  0
LINE
  8
0
 62
     0
 10
-46.429344
 20
27.816868
 30
0.0
 11
-43.330118
 21
30.916094
 31
0.0
  0
LINE
  8
0
 62
     0
 10
-45.303615
 20
27.174831
 30
0.0
 11
-43.330118
 21
29.148327
 31
0.0
  0
ENDBLK
  8
0
  0
BLOCK
  8
0
  2
*X1
 70
    65
 10
0.0
 20
0.0
 30
0.0
  3
*X
  0
LINE
  8
0
 62
     0
 10
-24.984377
 20
31.584165
 30
0.0
 11
-19.419423
 21
37.14912
 31
0.0
  0
LINE
  8
0
 62
     0
 10
-24.984377
 20
33.351932
 30
0.0
 11
-19.419423
 21
38.916887
 31
0.0
  0
LINE
  8
0
 62
     0
 10
-24.984377
 20
35.119699
 30
0.0
 11
-19.419423
 21
40.684654
 31
0.0
  0
LINE
  8
0
 62
     0
 10
-24.984377
 20
36.887466
 30
0.0
 11
-20.014402
 21
41.857442
 31
0.0
  0
LINE
  8
0
 62
     0
 10
-24.984377
 20
38.655233
 30
0.0
 11
-21.627148
 21
42.012462
 31
0.0
  0
LINE
  8
0
 62
     0
 10
-24.984377
 20
40.423
 30
0.0
 11
-23.544517
 21
41.862861
 31
0.0
  0
LINE
  8
0
 62
     0
 10
-24.984377
 20
29.816398
 30
0.0
 11
-19.419423
 21
35.381353
 31
0.0
  0
LINE
  8
0
 62
     0
 10
-24.277526
 20
28.755483
 30
0.0
 11
-19.419423
 21
33.613586
 31
0.0
  0
LINE
  8
0
 62
     0
 10
-23.237196
 20
28.028046
 30
0.0
 11
-19.419423
 21
31.845819
 31
0.0
  0
LINE
  8
0
 62
     0
 10
-22.117567
 20
27.379908
 30
0.0
 11
-19.419423
 21
30.078052
 31
0.0
  0
LINE
  8
0
 62
     0
 10
-20.717245
 20
27.012462
 30
0.0
 11
-19.419423
 21
28.310285
 31
0.0
  0
ENDBLK
  8
0
  0
BLOCK
  8
0
  2
*X2
 70
    65
 10
0.0
 20
0.0
 30
0.0
  3
*X
  0
LINE
  8
0
 62
     0
 10
5.69644
 20
32.212945
 30
0.0
 11
11.566095
 21
38.0826
 31
0.0
  0
LINE
  8
0
 62
     0
 10
5.69644
 20
33.980711
 30
0.0
 11
11.566095
 21
39.850367
 31
0.0
  0
LINE
  8
0
 62
     0
 10
5.69644
 20
35.748478
 30
0.0
 11
11.566095
 21
41.618134
 31
0.0
  0
LINE
  8
0
 62
     0
 10
5.69644
 20
37.516245
 30
0.0
 11
11.566095
 21
43.385901
 31
0.0
  0
LINE
  8
0
 62
     0
 10
5.69644
 20
39.284012
 30
0.0
 11
11.045493
 21
44.633065
 31
0.0
  0
LINE
  8
0
 62
     0
 10
5.69644
 20
41.051779
 30
0.0
 11
9.657123
 21
45.012462
 31
0.0
  0
LINE
  8
0
 62
     0
 10
5.69644
 20
42.819546
 30
0.0
 11
7.832396
 21
44.955502
 31
0.0
  0
LINE
  8
0
 62
     0
 10
5.69644
 20
30.445178
 30
0.0
 11
11.566095
 21
36.314833
 31
0.0
  0
LINE
  8
0
 62
     0
 10
6.067076
 20
29.048046
 30
0.0
 11
11.566095
 21
34.547066
 31
0.0
  0
LINE
  8
0
 62
     0
 10
7.084012
 20
28.297215
 30
0.0
 11
11.566095
 21
32.779299
 31
0.0
  0
LINE
  8
0
 62
     0
 10
8.169559
 20
27.614995
 30
0.0
 11
11.566095
 21
31.011532
 31
0.0
  0
LINE
  8
0
 62
     0
 10
9.334793
 20
27.012462
 30
0.0
 11
11.566095
 21
29.243765
 31
0.0
  0
ENDBLK
  8
0
  0
BLOCK
  8
0
  2
*X3
 70
    65
 10
0.0
 20
0.0
 30
0.0
  3
*X
  0
LINE
  8
0
 62
     0
 10
38.785448
 20
36.133798
 30
0.0
 11
45.487154
 21
42.835504
 31
0.0
  0
LINE
  8
0
 62
     0
 10
38.785448
 20
38.785448
 30
0.0
 11
45.487154
 21
45.487154
 31
0.0
  0
LINE
  8
0
 62
     0
 10
38.785448
 20
41.437099
 30
0.0
 11
44.923983
 21
47.575634
 31
0.0
  0
LINE
  8
0
 62
     0
 10
38.785448
 20
44.088749
 30
0.0
 11
42.709162
 21
48.012462
 31
0.0
  0
LINE
  8
0
 62
     0
 10
38.785448
 20
33.482147
 30
0.0
 11
45.487154
 21
40.183853
 31
0.0
  0
LINE
  8
0
 62
     0
 10
38.785448
 20
30.830497
 30
0.0
 11
45.487154
 21
37.532203
 31
0.0
  0
LINE
  8
0
 62
     0
 10
39.606009
 20
28.999408
 30
0.0
 11
45.487154
 21
34.880552
 31
0.0
  0
LINE
  8
0
 62
     0
 10
41.196625
 20
27.938373
 30
0.0
 11
45.487154
 21
32.228902
 31
0.0
  0
LINE
  8
0
 62
     0
 10
42.923786
 20
27.013884
 30
0.0
 11
45.487154
 21
29.577252
 31
0.0
  0
ENDBLK
  8
0
  0
BLOCK
  8
0
  2
*X4
 70
    65
 10
0.0
 20
0.0
 30
0.0
  3
*X
  0
LINE
  8
0
 62
     0
 10
77.273313
 20
37.498556
 30
0.0
 11
84.129719
 21
44.354963
 31
0.0
  0
LINE
  8
0
 62
     0
 10
77.273313
 20
40.150207
 30
0.0
 11
84.129719
 21
47.006613
 31
0.0
  0
LINE
  8
0
 62
     0
 10
77.273313
 20
42.801857
 30
0.0
 11
84.129719
 21
49.658264
 31
0.0
  0
LINE
  8
0
 62
     0
 10
77.273313
 20
45.453508
 30
0.0
 11
82.832268
 21
51.012462
 31
0.0
  0
LINE
  8
0
 62
     0
 10
77.273313
 20
48.105158
 30
0.0
 11
80.136415
 21
50.968261
 31
0.0
  0
LINE
  8
0
 62
     0
 10
77.273313
 20
34.846906
 30
0.0
 11
84.129719
 21
41.703312
 31
0.0
  0
LINE
  8
0
 62
     0
 10
77.273313
 20
32.195256
 30
0.0
 11
84.129719
 21
39.051662
 31
0.0
  0
LINE
  8
0
 62
     0
 10
77.394613
 20
29.664906
 30
0.0
 11
84.129719
 21
36.400012
 31
0.0
  0
LINE
  8
0
 62
     0
 10
78.926616
 20
28.545258
 30
0.0
 11
84.129719
 21
33.748361
 31
0.0
  0
LINE
  8
0
 62
     0
 10
80.578736
 20
27.545727
 30
0.0
 11
84.129719
 21
31.096711
 31
0.0
  0
LINE
  8
0
 62
     0
 10
82.697122
 20
27.012462
 30
0.0
 11
84.129719
 21
28.44506
 31
0.0
  0
ENDBLK
  8
0
  0
BLOCK
  8
0
  2
*X5
 70
    65
 10
0.0
 20
0.0
 30
0.0
  3
*X
  0
LINE
  8
0
 62
     0
 10
117.791087
 20
38.241574
 30
0.0
 11
126.361595
 21
46.812082
 31
0.0
  0
LINE
  8
0
 62
     0
 10
117.791087
 20
40.893225
 30
0.0
 11
126.361595
 21
49.463733
 31
0.0
  0
LINE
  8
0
 62
     0
 10
117.791087
 20
43.544875
 30
0.0
 11
126.361595
 21
52.115383
 31
0.0
  0
LINE
  8
0
 62
     0
 10
117.791087
 20
46.196526
 30
0.0
 11
126.361595
 21
54.767034
 31
0.0
  0
LINE
  8
0
 62
     0
 10
117.791087
 20
48.848176
 30
0.0
 11
125.533484
 21
56.590573
 31
0.0
  0
LINE
  8
0
 62
     0
 10
117.791087
 20
51.499826
 30
0.0
 11
123.303723
 21
57.012462
 31
0.0
  0
LINE
  8
0
 62
     0
 10
117.791087
 20
54.151477
 30
0.0
 11
120.338679
 21
56.699069
 31
0.0
  0
LINE
  8
0
 62
     0
 10
117.791087
 20
35.589924
 30
0.0
 11
126.361595
 21
44.160432
 31
0.0
  0
LINE
  8
0
 62
     0
 10
117.791087
 20
32.938273
 30
0.0
 11
126.361595
 21
41.508781
 31
0.0
  0
LINE
  8
0
 62
     0
 10
118.083665
 20
30.579201
 30
0.0
 11
126.361595
 21
38.857131
 31
0.0
  0
LINE
  8
0
 62
     0
 10
119.593695
 20
29.437581
 30
0.0
 11
126.361595
 21
36.205481
 31
0.0
  0
LINE
  8
0
 62
     0
 10
121.20019
 20
28.392425
 30
0.0
 11
126.361595
 21
33.55383
 31
0.0
  0
LINE
  8
0
 62
     0
 10
122.907626
 20
27.448211
 30
0.0
 11
126.361595
 21
30.90218
 31
0.0
  0
ENDBLK
  8
0
  0
BLOCK
  8
0
  2
*X6
 70
    65
 10
0.0
 20
0.0
 30
0.0
  3
*X
  0
LINE
  8
0
 62
     0
 10
-47.435671
 20
-68.648875
 30
0.0
 11
-37.151062
 21
-58.364265
 31
0.0
  0
LINE
  8
0
 62
     0
 10
-47.435671
 20
-65.113341
 30
0.0
 11
-37.151062
 21
-54.828731
 31
0.0
  0
LINE
  8
0
 62
     0
 10
-47.435671
 20
-61.577807
 30
0.0
 11
-37.151062
 21
-51.293197
 31
0.0
  0
LINE
  8
0
 62
     0
 10
-47.435671
 20
-58.042273
 30
0.0
 11
-37.646975
 21
-48.253576
 31
0.0
  0
LINE
  8
0
 62
     0
 10
-47.435671
 20
-54.506739
 30
0.0
 11
-40.178422
 21
-47.24949
 31
0.0
  0
LINE
  8
0
 62
     0
 10
-47.435671
 20
-50.971205
 30
0.0
 11
-43.955199
 21
-47.490733
 31
0.0
  0
LINE
  8
0
 62
     0
 10
-47.435671
 20
-72.184409
 30
0.0
 11
-37.151062
 21
-61.899799
 31
0.0
  0
LINE
  8
0
 62
     0
 10
-47.435671
 20
-75.719942
 30
0.0
 11
-37.151062
 21
-65.435333
 31
0.0
  0
LINE
  8
0
 62
     0
 10
-47.179676
 20
-78.999481
 30
0.0
 11
-37.151062
 21
-68.970867
 31
0.0
  0
LINE
  8
0
 62
     0
 10
-45.18382
 20
-80.539159
 30
0.0
 11
-37.151062
 21
-72.506401
 31
0.0
  0
LINE
  8
0
 62
     0
 10
-43.043617
 20
-81.93449
 30
0.0
 11
-37.151062
 21
-76.041934
 31
0.0
  0
LINE
  8
0
 62
     0
 10
-40.751537
 20
-83.177944
 30
0.0
 11
-37.151062
 21
-79.577468
 31
0.0
  0
ENDBLK
  8
0
  0
BLOCK
  8
0
  2
*X7
 70
    65
 10
0.0
 20
0.0
 30
0.0
  3
*X
  0
LINE
  8
0
 62
     0
 10
4.493712
 20
-66.216966
 30
0.0
 11
17.801824
 21
-52.908854
 31
0.0
  0
LINE
  8
0
 62
     0
 10
4.493712
 20
-62.681432
 30
0.0
 11
17.801824
 21
-49.37332
 31
0.0
  0
LINE
  8
0
 62
     0
 10
4.493712
 20
-59.145898
 30
0.0
 11
17.801824
 21
-45.837786
 31
0.0
  0
LINE
  8
0
 62
     0
 10
4.493712
 20
-55.610365
 30
0.0
 11
17.801824
 21
-42.302252
 31
0.0
  0
LINE
  8
0
 62
     0
 10
4.493712
 20
-52.074831
 30
0.0
 11
17.185439
 21
-39.383104
 31
0.0
  0
LINE
  8
0
 62
     0
 10
4.493712
 20
-48.539297
 30
0.0
 11
14.783519
 21
-38.24949
 31
0.0
  0
LINE
  8
0
 62
     0
 10
4.493712
 20
-45.003763
 30
0.0
 11
11.247985
 21
-38.24949
 31
0.0
  0
LINE
  8
0
 62
     0
 10
4.493712
 20
-69.7525
 30
0.0
 11
17.801824
 21
-56.444388
 31
0.0
  0
LINE
  8
0
 62
     0
 10
4.493712
 20
-73.288034
 30
0.0
 11
17.801824
 21
-59.979922
 31
0.0
  0
LINE
  8
0
 62
     0
 10
4.493712
 20
-76.823568
 30
0.0
 11
17.801824
 21
-63.515456
 31
0.0
  0
LINE
  8
0
 62
     0
 10
6.104767
 20
-78.748047
 30
0.0
 11
17.801824
 21
-67.050989
 31
0.0
  0
LINE
  8
0
 62
     0
 10
8.161755
 20
-80.226592
 30
0.0
 11
17.801824
 21
-70.586523
 31
0.0
  0
LINE
  8
0
 62
     0
 10
10.332905
 20
-81.590977
 30
0.0
 11
17.801824
 21
-74.122057
 31
0.0
  0
LINE
  8
0
 62
     0
 10
12.623233
 20
-82.836183
 30
0.0
 11
17.801824
 21
-77.657591
 31
0.0
  0
LINE
  8
0
 62
     0
 10
15.74546
 20
-83.24949
 30
0.0
 11
17.801824
 21
-81.193125
 31
0.0
  0
ENDBLK
  8
0
  0
BLOCK
  8
0
  2
*X8
 70
    65
 10
0.0
 20
0.0
 30
0.0
  3
*X
  0
LINE
  8
0
 62
     0
 10
73.699698
 20
-60.650591
 30
0.0
 11
89.453963
 21
-44.896326
 31
0.0
  0
LINE
  8
0
 62
     0
 10
73.699698
 20
-57.115057
 30
0.0
 11
89.453963
 21
-41.360792
 31
0.0
  0
LINE
  8
0
 62
     0
 10
73.699698
 20
-53.579523
 30
0.0
 11
89.453963
 21
-37.825258
 31
0.0
  0
LINE
  8
0
 62
     0
 10
73.699698
 20
-50.043989
 30
0.0
 11
89.453963
 21
-34.289724
 31
0.0
  0
LINE
  8
0
 62
     0
 10
73.699698
 20
-46.508455
 30
0.0
 11
89.206313
 21
-31.00184
 31
0.0
  0
LINE
  8
0
 62
     0
 10
73.699698
 20
-42.972921
 30
0.0
 11
87.423129
 21
-29.24949
 31
0.0
  0
LINE
  8
0
 62
     0
 10
73.699698
 20
-39.437387
 30
0.0
 11
83.887595
 21
-29.24949
 31
0.0
  0
LINE
  8
0
 62
     0
 10
73.699698
 20
-35.901853
 30
0.0
 11
80.249811
 21
-29.35174
 31
0.0
  0
LINE
  8
0
 62
     0
 10
73.699698
 20
-64.186125
 30
0.0
 11
89.453963
 21
-48.43186
 31
0.0
  0
LINE
  8
0
 62
     0
 10
73.699698
 20
-67.721659
 30
0.0
 11
89.453963
 21
-51.967394
 31
0.0
  0
LINE
  8
0
 62
     0
 10
73.699698
 20
-71.257192
 30
0.0
 11
89.453963
 21
-55.502928
 31
0.0
  0
LINE
  8
0
 62
     0
 10
73.699698
 20
-74.792726
 30
0.0
 11
89.453963
 21
-59.038462
 31
0.0
  0
LINE
  8
0
 62
     0
 10
74.60757
 20
-77.420388
 30
0.0
 11
89.453963
 21
-62.573995
 31
0.0
  0
LINE
  8
0
 62
     0
 10
76.634985
 20
-78.928507
 30
0.0
 11
89.453963
 21
-66.109529
 31
0.0
  0
LINE
  8
0
 62
     0
 10
78.754844
 20
-80.344182
 30
0.0
 11
89.453963
 21
-69.645063
 31
0.0
  0
LINE
  8
0
 62
     0
 10
80.970016
 20
-81.664543
 30
0.0
 11
89.453963
 21
-73.180597
 31
0.0
  0
LINE
  8
0
 62
     0
 10
83.284322
 20
-82.885772
 30
0.0
 11
89.453963
 21
-76.716131
 31
0.0
  0
LINE
  8
0
 62
     0
 10
86.456138
 20
-83.24949
 30
0.0
 11
89.453963
 21
-80.251665
 31
0.0
  0
ENDBLK
  8
0
  0
ENDSEC
  0
SECTION
  2
ENTITIES
  0
LINE
  8
0
 10
-36.177341
 20
5.077134
 30
0.0
 11
-43.682894
 21
5.077134
 31
0.0
  0
LINE
  8
0
 10
-32.424564
 20
11.577134
 30
0.0
 11
-36.177341
 21
5.077134
 31
0.0
  0
LINE
  8
0
 10
-36.177341
 20
18.077134
 30
0.0
 11
-32.424564
 21
11.577134
 31
0.0
  0
LINE
  8
0
 10
-43.682894
 20
18.077134
 30
0.0
 11
-36.177341
 21
18.077134
 31
0.0
  0
LINE
  8
0
 10
-47.435671
 20
11.577134
 30
0.0
 11
-43.682894
 21
18.077134
 31
0.0
  0
LINE
  8
0
 10
-43.682894
 20
5.077134
 30
0.0
 11
-47.435671
 21
11.577134
 31
0.0
  0
CIRCLE
  8
0
 10
-39.930118
 20
11.577134
 30
0.0
 40
6.5
  0
CIRCLE
  8
0
 10
-39.930118
 20
11.577134
 30
0.0
 40
4.0
  0
CIRCLE
  8
0
 10
-39.930118
 20
11.577134
 30
0.0
 40
3.4
  0
ARC
  8
0
 10
-39.930118
 20
24.679129
 30
0.0
 40
14.333333
 50
74.821821
 51
90.0
  0
ARC
  8
0
 10
-34.300953
 20
35.241629
 30
0.0
 40
3.770833
 50
60.158276
 51
119.841724
  0
ARC
  8
0
 10
-45.559283
 20
35.241629
 30
0.0
 40
3.770833
 50
90.0
 51
119.841724
  0
LINE
  8
0
 10
-36.177341
 20
28.541439
 30
0.0
 11
-36.177341
 21
38.512462
 31
0.0
  0
LINE
  8
0
 10
-32.424564
 20
28.541439
 30
0.0
 11
-32.424564
 21
38.512462
 31
0.0
  0
LINE
  8
0
 10
-47.435671
 20
28.541439
 30
0.0
 11
-47.435671
 21
38.512462
 31
0.0
  0
LINE
  8
0
  6
CENTER
 10
-39.930118
 20
25.042865
 30
0.0
 11
-39.930118
 21
40.825796
 31
0.0
  0
LINE
  8
0
 10
-45.559284
 20
39.012462
 30
0.0
 11
-34.300953
 21
39.012462
 31
0.0
  0
LINE
  8
0
 10
-44.966366
 20
27.012462
 30
0.0
 11
-34.893869
 21
27.012462
 31
0.0
  0
LINE
  8
0
  6
CONTINUOUS
 10
-43.930118
 20
27.012462
 30
0.0
 11
-43.930118
 21
39.012462
 31
0.0
  0
LINE
  8
0
  6
CONTINUOUS
 10
-43.330118
 20
27.612462
 30
0.0
 11
-43.330118
 21
38.412462
 31
0.0
  0
LINE
  8
0
 10
-43.930118
 20
27.012462
 30
0.0
 11
-43.330118
 21
27.612462
 31
0.0
  0
LINE
  8
0
 10
-43.930118
 20
39.012462
 30
0.0
 11
-43.330118
 21
38.412462
 31
0.0
  0
LINE
  8
0
 10
-43.330118
 20
38.412462
 30
0.0
 11
-39.930118
 21
38.412462
 31
0.0
  0
LINE
  8
0
 10
-43.330118
 20
27.612462
 30
0.0
 11
-39.930118
 21
27.612462
 31
0.0
  0
CIRCLE
  8
0
 10
-15.169423
 20
9.607071
 30
0.0
 40
5.0
  0
CIRCLE
  8
0
 10
-15.169423
 20
9.607071
 30
0.0
 40
4.25
  0
CIRCLE
  8
0
 10
-15.169423
 20
9.607071
 30
0.0
 40
8.5
  0
LINE
  8
0
 10
-20.0769
 20
1.107071
 30
0.0
 11
-10.261945
 21
1.107071
 31
0.0
  0
LINE
  8
0
 10
-10.261945
 20
1.107071
 30
0.0
 11
-5.354468
 21
9.607071
 31
0.0
  0
LINE
  8
0
 10
-5.354468
 20
9.607071
 30
0.0
 11
-10.261945
 21
18.107071
 31
0.0
  0
LINE
  8
0
 10
-10.261945
 20
18.107071
 30
0.0
 11
-20.0769
 21
18.107071
 31
0.0
  0
LINE
  8
0
 10
-20.0769
 20
18.107071
 30
0.0
 11
-24.984377
 21
9.607071
 31
0.0
  0
LINE
  8
0
 10
-24.984377
 20
9.607071
 30
0.0
 11
-20.0769
 21
1.107071
 31
0.0
  0
LINE
  8
0
  6
CENTER
 10
-15.169423
 20
25.514151
 30
0.0
 11
-15.169423
 21
43.396818
 31
0.0
  0
LINE
  8
0
 10
-24.984377
 20
29.330506
 30
0.0
 11
-24.984377
 21
41.012462
 31
0.0
  0
LINE
  8
0
 10
-5.354468
 20
29.330506
 30
0.0
 11
-5.354468
 21
41.012462
 31
0.0
  0
LINE
  8
0
 10
-21.363957
 20
27.012462
 30
0.0
 11
-8.974888
 21
27.012462
 31
0.0
  0
LINE
  8
0
 10
-10.261945
 20
29.330506
 30
0.0
 11
-10.261945
 21
41.012462
 31
0.0
  0
LINE
  8
0
 10
-22.530639
 20
42.012462
 30
0.0
 11
-7.808207
 21
42.012462
 31
0.0
  0
ARC
  8
0
 10
-22.530639
 20
38.502046
 30
0.0
 40
3.510417
 50
90.000007
 51
134.345856
  0
ARC
  8
0
 10
-7.808207
 20
38.502046
 30
0.0
 40
3.510417
 50
45.654144
 51
134.345856
  0
ARC
  8
0
 10
-15.169423
 20
29.470796
 30
0.0
 40
12.541667
 50
66.964968
 51
90.0
  0
LINE
  8
0
 10
-19.419423
 20
27.762462
 30
0.0
 11
-19.419423
 21
41.262462
 31
0.0
  0
LINE
  8
0
 10
-20.169423
 20
27.012462
 30
0.0
 11
-20.169423
 21
42.012462
 31
0.0
  0
LINE
  8
0
 10
-20.169423
 20
27.012462
 30
0.0
 11
-19.419423
 21
27.762462
 31
0.0
  0
LINE
  8
0
 10
-20.169423
 20
42.012462
 30
0.0
 11
-19.419423
 21
41.262462
 31
0.0
  0
LINE
  8
0
 10
-19.419423
 20
27.762462
 30
0.0
 11
-15.169423
 21
27.762462
 31
0.0
  0
LINE
  8
0
 10
-19.419423
 20
41.262462
 30
0.0
 11
-15.169423
 21
41.262462
 31
0.0
  0
CIRCLE
  8
0
 10
16.666095
 20
8.861191
 30
0.0
 40
6.0
  0
CIRCLE
  8
0
 10
16.666095
 20
8.861191
 30
0.0
 40
5.1
  0
CIRCLE
  8
0
 10
16.666095
 20
8.861191
 30
0.0
 40
9.5
  0
LINE
  8
0
 10
11.181268
 20
18.361191
 30
0.0
 11
5.69644
 21
8.861191
 31
0.0
  0
LINE
  8
0
 10
5.69644
 20
8.861191
 30
0.0
 11
11.181268
 21
-0.638809
 31
0.0
  0
LINE
  8
0
 10
11.181268
 20
-0.638809
 30
0.0
 11
22.150923
 21
-0.638809
 31
0.0
  0
LINE
  8
0
 10
22.150923
 20
-0.638809
 30
0.0
 11
27.63575
 21
8.861191
 31
0.0
  0
LINE
  8
0
 10
27.63575
 20
8.861191
 30
0.0
 11
22.150923
 21
18.361191
 31
0.0
  0
LINE
  8
0
 10
22.150923
 20
18.361191
 30
0.0
 11
11.181268
 21
18.361191
 31
0.0
  0
LINE
  8
0
 10
27.63575
 20
29.352253
 30
0.0
 11
27.63575
 21
43.512462
 31
0.0
  0
LINE
  8
0
 10
22.150923
 20
29.352253
 30
0.0
 11
22.150923
 21
43.512462
 31
0.0
  0
LINE
  8
0
 10
11.566095
 20
27.912462
 30
0.0
 11
11.566095
 21
44.112462
 31
0.0
  0
LINE
  8
0
 10
10.666095
 20
27.012462
 30
0.0
 11
10.666095
 21
45.012462
 31
0.0
  0
LINE
  8
0
 10
5.69644
 20
29.352253
 30
0.0
 11
5.69644
 21
43.512462
 31
0.0
  0
LINE
  8
0
 10
9.3119
 20
27.012462
 30
0.0
 11
24.020291
 21
27.012462
 31
0.0
  0
LINE
  8
0
 10
8.438854
 20
45.012462
 30
0.0
 11
24.893337
 21
45.012462
 31
0.0
  0
ARC
  8
0
 10
24.893337
 20
41.755518
 30
0.0
 40
3.256944
 50
32.645908
 51
147.354092
  0
ARC
  8
0
 10
8.438854
 20
41.755518
 30
0.0
 40
3.256944
 50
90.000001
 51
147.354092
  0
ARC
  8
0
 10
16.666095
 20
34.234685
 30
0.0
 40
10.777778
 50
59.409311
 51
90.0
  0
LINE
  8
0
 10
10.666095
 20
27.012462
 30
0.0
 11
11.566095
 21
27.912462
 31
0.0
  0
LINE
  8
0
 10
11.566095
 20
27.912462
 30
0.0
 11
16.666095
 21
27.912462
 31
0.0
  0
LINE
  8
0
 10
10.666095
 20
45.012462
 30
0.0
 11
11.566095
 21
44.112462
 31
0.0
  0
LINE
  8
0
 10
11.566095
 20
44.112462
 30
0.0
 11
16.666095
 21
44.112462
 31
0.0
  0
LINE
  8
0
  6
CENTER
 10
16.666095
 20
24.062671
 30
0.0
 11
16.666095
 21
47.736637
 31
0.0
  0
CIRCLE
  8
0
 10
51.487154
 20
7.384676
 30
0.0
 40
7.0
  0
CIRCLE
  8
0
 10
51.487154
 20
7.384676
 30
0.0
 40
6.0
  0
CIRCLE
  8
0
 10
51.487154
 20
7.384676
 30
0.0
 40
11.0
  0
LINE
  8
0
 10
57.838007
 20
18.384676
 30
0.0
 11
45.136301
 21
18.384676
 31
0.0
  0
LINE
  8
0
 10
45.136301
 20
18.384676
 30
0.0
 11
38.785448
 21
7.384676
 31
0.0
  0
LINE
  8
0
 10
38.785448
 20
7.384676
 30
0.0
 11
45.136301
 21
-3.615324
 31
0.0
  0
LINE
  8
0
 10
45.136301
 20
-3.615324
 30
0.0
 11
57.838007
 21
-3.615324
 31
0.0
  0
LINE
  8
0
 10
57.838007
 20
-3.615324
 30
0.0
 11
64.18886
 21
7.384676
 31
0.0
  0
LINE
  8
0
 10
64.18886
 20
7.384676
 30
0.0
 11
57.838007
 21
18.384676
 31
0.0
  0
LINE
  8
0
 10
64.18886
 20
29.639023
 30
0.0
 11
64.18886
 21
46.312462
 31
0.0
  0
LINE
  8
0
 10
57.838007
 20
29.639023
 30
0.0
 11
57.838007
 21
46.312462
 31
0.0
  0
LINE
  8
0
 10
45.487154
 20
28.012462
 30
0.0
 11
45.487154
 21
47.012462
 31
0.0
  0
LINE
  8
0
 10
44.487154
 20
27.012462
 30
0.0
 11
44.487154
 21
48.012462
 31
0.0
  0
LINE
  8
0
 10
38.785448
 20
29.639023
 30
0.0
 11
38.785448
 21
46.312462
 31
0.0
  0
LINE
  8
0
 10
41.960875
 20
48.012462
 30
0.0
 11
61.013434
 21
48.012462
 31
0.0
  0
LINE
  8
0
 10
42.926786
 20
27.012462
 30
0.0
 11
60.047522
 21
27.012462
 31
0.0
  0
ARC
  8
0
 10
61.013434
 20
44.196776
 30
0.0
 40
3.815686
 50
33.674266
 51
146.325734
  0
ARC
  8
0
 10
41.960875
 20
44.196776
 30
0.0
 40
3.815686
 50
90.0
 51
146.325734
  0
ARC
  8
0
 10
51.487154
 20
35.299717
 30
0.0
 40
12.712745
 50
60.028721
 51
89.999998
  0
LINE
  8
0
  6
CENTER
 10
51.487154
 20
25.437668
 30
0.0
 11
51.487154
 21
51.291875
 31
0.0
  0
LINE
  8
0
 10
44.487154
 20
27.012462
 30
0.0
 11
45.487154
 21
28.012462
 31
0.0
  0
LINE
  8
0
 10
44.487154
 20
48.012462
 30
0.0
 11
45.487154
 21
47.012462
 31
0.0
  0
LINE
  8
0
 10
45.487154
 20
47.012462
 30
0.0
 11
51.487154
 21
47.012462
 31
0.0
  0
LINE
  8
0
 10
45.487154
 20
28.012462
 30
0.0
 11
51.487154
 21
28.012462
 31
0.0
  0
CIRCLE
  8
0
 10
91.129719
 20
6.127996
 30
0.0
 40
8.0
  0
CIRCLE
  8
0
 10
91.129719
 20
6.127996
 30
0.0
 40
7.0
  0
CIRCLE
  8
0
 10
91.129719
 20
6.127996
 30
0.0
 40
12.0
  0
LINE
  8
0
 10
84.201516
 20
-5.872004
 30
0.0
 11
98.057923
 21
-5.872004
 31
0.0
  0
LINE
  8
0
 10
98.057923
 20
-5.872004
 30
0.0
 11
104.986126
 21
6.127996
 31
0.0
  0
LINE
  8
0
 10
104.986126
 20
6.127996
 30
0.0
 11
98.057923
 21
18.127996
 31
0.0
  0
LINE
  8
0
 10
98.057923
 20
18.127996
 30
0.0
 11
84.201516
 21
18.127996
 31
0.0
  0
LINE
  8
0
 10
84.201516
 20
18.127996
 30
0.0
 11
77.273313
 21
6.127996
 31
0.0
  0
LINE
  8
0
 10
77.273313
 20
6.127996
 30
0.0
 11
84.201516
 21
-5.872004
 31
0.0
  0
LINE
  8
0
 10
104.986126
 20
29.762557
 30
0.0
 11
104.986126
 21
49.112462
 31
0.0
  0
LINE
  8
0
 10
98.057923
 20
29.762557
 30
0.0
 11
98.057923
 21
49.112462
 31
0.0
  0
LINE
  8
0
 10
84.129719
 20
28.012462
 30
0.0
 11
84.129719
 21
50.012462
 31
0.0
  0
LINE
  8
0
 10
83.129719
 20
27.012462
 30
0.0
 11
83.129719
 21
51.012462
 31
0.0
  0
LINE
  8
0
 10
80.737415
 20
51.012462
 30
0.0
 11
101.522025
 21
51.012462
 31
0.0
  0
LINE
  8
0
 10
81.619214
 20
27.012462
 30
0.0
 11
100.640225
 21
27.012462
 31
0.0
  0
LINE
  8
0
 10
77.273313
 20
29.762557
 30
0.0
 11
77.273313
 21
49.112462
 31
0.0
  0
LINE
  8
0
  6
CENTER
 10
91.129719
 20
23.871208
 30
0.0
 11
91.129719
 21
53.461298
 31
0.0
  0
ARC
  8
0
 10
101.522024
 20
46.904568
 30
0.0
 40
4.107895
 50
32.511982
 51
147.488018
  0
ARC
  8
0
 10
80.737414
 20
46.904568
 30
0.0
 40
4.107895
 50
89.999991
 51
147.488018
  0
ARC
  8
0
 10
91.129719
 20
37.430884
 30
0.0
 40
13.581579
 50
59.328333
 51
89.999995
  0
LINE
  8
0
 10
83.129719
 20
27.012462
 30
0.0
 11
84.129719
 21
28.012462
 31
0.0
  0
LINE
  8
0
 10
83.129719
 20
51.012462
 30
0.0
 11
84.129719
 21
50.012462
 31
0.0
  0
LINE
  8
0
 10
84.129719
 20
50.012462
 30
0.0
 11
91.129719
 21
50.012462
 31
0.0
  0
LINE
  8
0
 10
91.129719
 20
50.012462
 30
0.0
 11
91.129719
 21
47.973507
 31
0.0
  0
LINE
  8
0
 10
84.129719
 20
28.012462
 30
0.0
 11
91.129719
 21
28.012462
 31
0.0
  0
CIRCLE
  8
0
 10
135.111595
 20
3.274308
 30
0.0
 40
10.0
  0
CIRCLE
  8
0
 10
135.111595
 20
3.274308
 30
0.0
 40
8.75
  0
CIRCLE
  8
0
 10
135.111595
 20
3.274308
 30
0.0
 40
15.0
  0
LINE
  8
0
 10
126.451341
 20
-11.725692
 30
0.0
 11
143.771849
 21
-11.725692
 31
0.0
  0
LINE
  8
0
 10
143.771849
 20
-11.725692
 30
0.0
 11
152.432103
 21
3.274308
 31
0.0
  0
LINE
  8
0
 10
152.432103
 20
3.274308
 30
0.0
 11
143.771849
 21
18.274308
 31
0.0
  0
LINE
  8
0
 10
126.451341
 20
18.274308
 30
0.0
 11
117.791087
 21
3.274308
 31
0.0
  0
LINE
  8
0
 10
117.791087
 20
3.274308
 30
0.0
 11
126.451341
 21
-11.725692
 31
0.0
  0
LINE
  8
0
 10
143.771849
 20
30.820396
 30
0.0
 11
143.771849
 21
54.712462
 31
0.0
  0
LINE
  8
0
 10
126.361595
 20
28.262462
 30
0.0
 11
126.361595
 21
55.762462
 31
0.0
  0
LINE
  8
0
 10
125.111595
 20
27.012462
 30
0.0
 11
125.111595
 21
57.012462
 31
0.0
  0
LINE
  8
0
 10
122.121216
 20
57.012462
 30
0.0
 11
148.101978
 21
57.012462
 31
0.0
  0
LINE
  8
0
 10
123.808612
 20
27.012462
 30
0.0
 11
146.414578
 21
27.012462
 31
0.0
  0
LINE
  8
0
 10
152.432103
 20
30.820396
 30
0.0
 11
152.432103
 21
54.712462
 31
0.0
  0
LINE
  8
0
 10
117.791087
 20
30.820396
 30
0.0
 11
117.791087
 21
54.712462
 31
0.0
  0
ARC
  8
0
 10
148.101976
 20
51.786376
 30
0.0
 40
5.226087
 50
34.048894
 51
145.951106
  0
ARC
  8
0
 10
122.121214
 20
51.786376
 30
0.0
 40
5.226087
 50
89.999983
 51
145.951106
  0
ARC
  8
0
 10
135.111595
 20
39.558115
 30
0.0
 40
17.454348
 50
60.253333
 51
89.999996
  0
LINE
  8
0
  6
CENTER
 10
135.111595
 20
23.215786
 30
0.0
 11
135.111595
 21
60.242179
 31
0.0
  0
LINE
  8
0
 10
125.111595
 20
57.012462
 30
0.0
 11
126.361595
 21
55.762462
 31
0.0
  0
LINE
  8
0
 10
126.361595
 20
55.762462
 30
0.0
 11
135.111595
 21
55.762462
 31
0.0
  0
LINE
  8
0
 10
125.111595
 20
27.012462
 30
0.0
 11
126.361595
 21
28.262462
 31
0.0
  0
LINE
  8
0
 10
126.361595
 20
28.262462
 30
0.0
 11
135.111595
 21
28.262462
 31
0.0
  0
CIRCLE
  8
0
 10
-26.651062
 20
-118.374571
 30
0.0
 40
12.0
  0
CIRCLE
  8
0
 10
-26.651062
 20
-118.374571
 30
0.0
 40
10.5
  0
CIRCLE
  8
0
 10
-26.651062
 20
-118.374571
 30
0.0
 40
18.0
  0
LINE
  8
0
 10
-37.043366
 20
-136.374571
 30
0.0
 11
-16.258757
 21
-136.374571
 31
0.0
  0
LINE
  8
0
 10
-16.258757
 20
-136.374571
 30
0.0
 11
-5.866452
 21
-118.374571
 31
0.0
  0
LINE
  8
0
 10
-5.866452
 20
-118.374571
 30
0.0
 11
-16.258757
 21
-100.374571
 31
0.0
  0
LINE
  8
0
 10
-16.258757
 20
-100.374571
 30
0.0
 11
-37.043366
 21
-100.374571
 31
0.0
  0
LINE
  8
0
 10
-37.043366
 20
-100.374571
 30
0.0
 11
-47.435671
 21
-118.374571
 31
0.0
  0
LINE
  8
0
 10
-47.435671
 20
-118.374571
 30
0.0
 11
-37.043366
 21
-136.374571
 31
0.0
  0
LINE
  8
0
 10
-5.866452
 20
-78.783107
 30
0.0
 11
-5.866452
 21
-50.04949
 31
0.0
  0
LINE
  8
0
 10
-16.258757
 20
-83.24949
 30
0.0
 11
-16.258757
 21
-50.04949
 31
0.0
  0
LINE
  8
0
 10
-37.151062
 20
-81.74949
 30
0.0
 11
-37.151062
 21
-48.74949
 31
0.0
  0
LINE
  8
0
 10
-38.651062
 20
-83.24949
 30
0.0
 11
-38.651062
 21
-47.24949
 31
0.0
  0
LINE
  8
0
 10
-47.435671
 20
-78.783107
 30
0.0
 11
-47.435671
 21
-50.04949
 31
0.0
  0
LINE
  8
0
 10
-42.239519
 20
-47.24949
 30
0.0
 11
-11.062604
 21
-47.24949
 31
0.0
  0
LINE
  8
0
 10
-40.604838
 20
-83.24949
 30
0.0
 11
-12.697285
 21
-83.24949
 31
0.0
  0
ARC
  8
0
 10
-11.062604
 20
-53.470918
 30
0.0
 40
6.221429
 50
33.363075
 51
146.636925
  0
ARC
  8
0
 10
-42.239519
 20
-53.470918
 30
0.0
 40
6.221429
 50
90.0
 51
146.636925
  0
ARC
  8
0
 10
-26.651062
 20
-67.935204
 30
0.0
 40
20.685714
 50
59.841724
 51
90.0
  0
LINE
  8
0
  6
CENTER
 10
-26.651062
 20
-87.636586
 30
0.0
 11
-26.651062
 21
-43.120457
 31
0.0
  0
LINE
  8
0
 10
-38.651062
 20
-47.24949
 30
0.0
 11
-37.151062
 21
-48.74949
 31
0.0
  0
LINE
  8
0
 10
-37.151062
 20
-48.74949
 30
0.0
 11
-26.651062
 21
-48.74949
 31
0.0
  0
LINE
  8
0
 10
-38.651062
 20
-83.24949
 30
0.0
 11
-37.151062
 21
-81.74949
 31
0.0
  0
LINE
  8
0
 10
-37.151062
 20
-81.74949
 30
0.0
 11
-26.651062
 21
-81.74949
 31
0.0
  0
CIRCLE
  8
0
 10
31.051824
 20
-123.570707
 30
0.0
 40
15.0
  0
CIRCLE
  8
0
 10
31.051824
 20
-123.570707
 30
0.0
 40
13.25
  0
CIRCLE
  8
0
 10
31.051824
 20
-123.570707
 30
0.0
 40
23.0
  0
LINE
  8
0
 10
44.33088
 20
-100.570707
 30
0.0
 11
17.772768
 21
-100.570707
 31
0.0
  0
LINE
  8
0
 10
17.772768
 20
-100.570707
 30
0.0
 11
4.493712
 21
-123.570707
 31
0.0
  0
LINE
  8
0
 10
4.493712
 20
-123.570707
 30
0.0
 11
17.772768
 21
-146.570707
 31
0.0
  0
LINE
  8
0
 10
17.772768
 20
-146.570707
 30
0.0
 11
44.33088
 21
-146.570707
 31
0.0
  0
LINE
  8
0
 10
44.33088
 20
-146.570707
 30
0.0
 11
57.609937
 21
-123.570707
 31
0.0
  0
LINE
  8
0
 10
57.609937
 20
-123.570707
 30
0.0
 11
44.33088
 21
-100.570707
 31
0.0
  0
LINE
  8
0
 10
57.609937
 20
-77.446895
 30
0.0
 11
57.609937
 21
-41.84949
 31
0.0
  0
LINE
  8
0
 10
44.33088
 20
-77.446895
 30
0.0
 11
44.33088
 21
-41.84949
 31
0.0
  0
LINE
  8
0
 10
17.801824
 20
-81.49949
 30
0.0
 11
17.801824
 21
-39.99949
 31
0.0
  0
LINE
  8
0
 10
16.051824
 20
-83.24949
 30
0.0
 11
16.051824
 21
-38.24949
 31
0.0
  0
LINE
  8
0
 10
4.493712
 20
-77.446895
 30
0.0
 11
4.493712
 21
-41.84949
 31
0.0
  0
LINE
  8
0
 10
11.13324
 20
-38.24949
 30
0.0
 11
50.970408
 21
-38.24949
 31
0.0
  0
LINE
  8
0
 10
13.468666
 20
-83.24949
 30
0.0
 11
48.634983
 21
-83.24949
 31
0.0
  0
ARC
  8
0
 10
50.970409
 20
-46.172175
 30
0.0
 40
7.922685
 50
33.066263
 51
146.933737
  0
ARC
  8
0
 10
11.13324
 20
-46.172175
 30
0.0
 40
7.922685
 50
90.0
 51
146.933737
  0
ARC
  8
0
 10
31.051824
 20
-64.54023
 30
0.0
 40
26.290741
 50
59.663012
 51
90.0
  0
LINE
  8
0
 10
16.051824
 20
-38.24949
 30
0.0
 11
17.801824
 21
-39.99949
 31
0.0
  0
LINE
  8
0
 10
17.801824
 20
-39.99949
 30
0.0
 11
31.051824
 21
-39.99949
 31
0.0
  0
LINE
  8
0
 10
16.051824
 20
-83.24949
 30
0.0
 11
17.801824
 21
-81.49949
 31
0.0
  0
LINE
  8
0
 10
17.801824
 20
-81.49949
 30
0.0
 11
31.051824
 21
-81.49949
 31
0.0
  0
LINE
  8
0
  6
CENTER
 10
31.051824
 20
-90.352455
 30
0.0
 11
31.051824
 21
-33.494846
 31
0.0
  0
CIRCLE
  8
0
 10
105.453963
 20
-127.876469
 30
0.0
 40
18.0
  0
CIRCLE
  8
0
 10
105.453963
 20
-127.876469
 30
0.0
 40
16.0
  0
CIRCLE
  8
0
 10
105.453963
 20
-127.876469
 30
0.0
 40
27.5
  0
LINE
  8
0
 10
89.57683
 20
-155.376469
 30
0.0
 11
121.331095
 21
-155.376469
 31
0.0
  0
LINE
  8
0
 10
121.331095
 20
-155.376469
 30
0.0
 11
137.208227
 21
-127.876469
 31
0.0
  0
LINE
  8
0
 10
137.208227
 20
-127.876469
 30
0.0
 11
121.331095
 21
-100.376469
 31
0.0
  0
LINE
  8
0
 10
121.331095
 20
-100.376469
 30
0.0
 11
89.57683
 21
-100.376469
 31
0.0
  0
LINE
  8
0
 10
89.57683
 20
-100.376469
 30
0.0
 11
73.699698
 21
-127.876469
 31
0.0
  0
LINE
  8
0
 10
73.699698
 20
-127.876469
 30
0.0
 11
89.57683
 21
-155.376469
 31
0.0
  0
LINE
  8
0
 10
137.208227
 20
-76.691502
 30
0.0
 11
137.208227
 21
-33.54949
 31
0.0
  0
LINE
  8
0
 10
121.331095
 20
-76.691502
 30
0.0
 11
121.331095
 21
-33.54949
 31
0.0
  0
LINE
  8
0
 10
89.453963
 20
-81.24949
 30
0.0
 11
89.453963
 21
-31.24949
 31
0.0
  0
LINE
  8
0
 10
87.453963
 20
-83.24949
 30
0.0
 11
87.453963
 21
-29.24949
 31
0.0
  0
LINE
  8
0
 10
73.699698
 20
-76.691502
 30
0.0
 11
73.699698
 21
-33.54949
 31
0.0
  0
LINE
  8
0
 10
81.638264
 20
-29.24949
 30
0.0
 11
129.269661
 21
-29.24949
 31
0.0
  0
LINE
  8
0
 10
84.035287
 20
-83.24949
 30
0.0
 11
126.872638
 21
-83.24949
 31
0.0
  0
ARC
  8
0
 10
129.269661
 20
-38.727493
 30
0.0
 40
9.478004
 50
33.114775
 51
146.885225
  0
ARC
  8
0
 10
81.638264
 20
-38.727493
 30
0.0
 40
9.478004
 50
90.0
 51
146.885225
  0
ARC
  8
0
 10
105.453963
 20
-60.711505
 30
0.0
 40
31.462016
 50
59.692245
 51
90.0
  0
LINE
  8
0
  6
CENTER
 10
105.453963
 20
-89.604491
 30
0.0
 11
105.453963
 21
-22.783745
 31
0.0
  0
LINE
  8
0
 10
87.453963
 20
-29.24949
 30
0.0
 11
89.453963
 21
-31.24949
 31
0.0
  0
LINE
  8
0
 10
87.453963
 20
-83.24949
 30
0.0
 11
89.453963
 21
-81.24949
 31
0.0
  0
LINE
  8
0
 10
89.453963
 20
-31.24949
 30
0.0
 11
105.453963
 21
-31.24949
 31
0.0
  0
LINE
  8
0
 10
89.453963
 20
-81.24949
 30
0.0
 11
105.453963
 21
-81.24949
 31
0.0
  0
LINE
  8
0
 10
143.771849
 20
18.274308
 30
0.0
 11
126.451341
 21
18.274308
 31
0.0
  0
ARC
  8
0
 10
-39.930118
 20
37.904487
 30
0.0
 40
12.0
 50
294.814851
 51
308.716163
  0
ARC
  8
0
 10
-39.930118
 20
42.374773
 30
0.0
 40
14.333333
 50
270.0
 51
285.178179
  0
ARC
  8
0
 10
-34.300953
 20
31.812273
 30
0.0
 40
3.770833
 50
240.158276
 51
299.841724
  0
ARC
  8
0
 10
-39.930118
 20
37.904487
 30
0.0
 40
12.0
 50
231.283837
 51
245.185149
  0
ARC
  8
0
 10
-15.169423
 20
40.673639
 30
0.0
 40
15.0
 50
294.391478
 51
310.86889
  0
ARC
  8
0
 10
-15.169423
 20
40.673639
 30
0.0
 40
15.0
 50
229.13111
 51
245.608522
  0
ARC
  8
0
 10
-15.169423
 20
40.872173
 30
0.0
 40
12.541667
 50
270.0
 51
293.035032
  0
ARC
  8
0
 10
-7.808207
 20
31.840923
 30
0.0
 40
3.510417
 50
225.654144
 51
314.345856
  0
ARC
  8
0
 10
16.666095
 20
42.339426
 30
0.0
 40
17.0
 50
229.813791
 51
244.36734
  0
ARC
  8
0
 10
16.666095
 20
42.339426
 30
0.0
 40
17.0
 50
295.63266
 51
310.186209
  0
ARC
  8
0
 10
24.893337
 20
33.69999
 30
0.0
 40
5.140394
 50
237.757581
 51
302.242419
  0
ARC
  8
0
 10
17.184768
 20
43.028319
 30
0.0
 40
14.549828
 50
267.957085
 51
289.957347
  0
ARC
  8
0
 10
51.487154
 20
45.087863
 30
0.0
 40
20.0
 50
230.573689
 51
244.658131
  0
ARC
  8
0
 10
51.487154
 20
45.087863
 30
0.0
 40
20.0
 50
295.341869
 51
309.426311
  0
ARC
  8
0
 10
61.013434
 20
32.931581
 30
0.0
 40
4.574306
 50
226.037483
 51
313.962517
  0
ARC
  8
0
 10
50.88255
 20
47.728724
 30
0.0
 40
19.380807
 50
271.78769
 51
291.03166
  0
ARC
  8
0
 10
91.129719
 20
46.850565
 30
0.0
 40
22.0
 50
230.961928
 51
244.386661
  0
ARC
  8
0
 10
91.129719
 20
46.850565
 30
0.0
 40
22.0
 50
295.613339
 51
309.038072
  0
ARC
  8
0
 10
101.522024
 20
34.325924
 30
0.0
 40
5.729251
 50
232.797471
 51
307.202529
  0
ARC
  8
0
 10
91.089131
 20
45.053202
 30
0.0
 40
16.803805
 50
270.138395
 51
294.501376
  0
ARC
  8
0
 10
135.111595
 20
51.532711
 30
0.0
 40
27.0
 50
230.096216
 51
245.25194
  0
ARC
  8
0
 10
135.111595
 20
51.532711
 30
0.0
 40
27.0
 50
294.74806
 51
309.903784
  0
ARC
  8
0
 10
148.101976
 20
37.450087
 30
0.0
 40
7.91851
 50
236.849777
 51
303.150223
  0
ARC
  8
0
 10
135.661106
 20
53.517482
 30
0.0
 40
24.102736
 50
268.693617
 51
289.664213
  0
ARC
  8
0
 10
-26.651062
 20
-54.452057
 30
0.0
 40
32.0
 50
295.852478
 51
310.50535
  0
ARC
  8
0
 10
-26.651062
 20
-54.452057
 30
0.0
 40
32.0
 50
229.49465
 51
244.147522
  0
ARC
  8
0
 10
-11.062604
 20
-70.232756
 30
0.0
 40
10.005424
 50
238.712443
 51
301.287557
  0
ARC
  8
0
 10
-25.944299
 20
-47.446872
 30
0.0
 40
32.798923
 50
268.765276
 51
287.175565
  0
ARC
  8
0
 10
31.051824
 20
-46.211232
 30
0.0
 40
41.0
 50
295.395077
 51
310.37284
  0
ARC
  8
0
 10
31.051824
 20
-46.211232
 30
0.0
 40
41.0
 50
229.62716
 51
244.604923
  0
ARC
  8
0
 10
50.970409
 20
-67.477023
 30
0.0
 40
11.978384
 50
236.338005
 51
303.661995
  0
ARC
  8
0
 10
31.537019
 20
-36.533058
 30
0.0
 40
42.867528
 50
269.351486
 51
287.364598
  0
ARC
  8
0
 10
105.453963
 20
-38.069402
 30
0.0
 40
50.0
 50
230.573689
 51
244.635617
  0
ARC
  8
0
 10
105.453963
 20
-38.069402
 30
0.0
 40
50.0
 50
295.364383
 51
309.426311
  0
ARC
  8
0
 10
129.269661
 20
-63.222906
 30
0.0
 40
15.634063
 50
239.484349
 51
300.515651
  0
ARC
  8
0
 10
106.807599
 20
-29.493735
 30
0.0
 40
49.38179
 50
268.429232
 51
287.103956
  0
ARC
  8
0
 10
-34.300953
 20
35.241629
 30
0.0
 40
3.770833
 50
60.158276
 51
90.0
  0
INSERT
  8
0
  2
*X0
 10
0.0
 20
0.0
 30
0.0
1001
ACAD
1000
HATCH
1002
{
1070
    16
1000
ANSI31
1040
10.0
1040
0.0
1002
}
  0
INSERT
  8
0
  2
*X1
 10
0.0
 20
0.0
 30
0.0
1001
ACAD
1000
HATCH
1002
{
1070
    16
1000
ANSI31
1040
10.0
1040
0.0
1002
}
  0
INSERT
  8
0
  2
*X2
 10
0.0
 20
0.0
 30
0.0
1001
ACAD
1000
HATCH
1002
{
1070
    16
1000
ANSI31
1040
10.0
1040
0.0
1002
}
  0
INSERT
  8
0
  2
*X3
 10
0.0
 20
0.0
 30
0.0
1001
ACAD
1000
HATCH
1002
{
1070
    16
1000
ANSI31
1040
15.0
1040
0.0
1002
}
  0
INSERT
  8
0
  2
*X4
 10
0.0
 20
0.0
 30
0.0
1001
ACAD
1000
HATCH
1002
{
1070
    16
1000
ANSI31
1040
15.0
1040
0.0
1002
}
  0
INSERT
  8
0
  2
*X5
 10
0.0
 20
0.0
 30
0.0
1001
ACAD
1000
HATCH
1002
{
1070
    16
1000
ANSI31
1040
15.0
1040
0.0
1002
}
  0
INSERT
  8
0
  2
*X6
 10
0.0
 20
0.0
 30
0.0
1001
ACAD
1000
HATCH
1002
{
1070
    16
1000
ANSI31
1040
20.0
1040
0.0
1002
}
  0
INSERT
  8
0
  2
*X7
 10
0.0
 20
0.0
 30
0.0
1001
ACAD
1000
HATCH
1002
{
1070
    16
1000
ANSI31
1040
20.0
1040
0.0
1002
}
  0
INSERT
  8
0
  2
*X8
 10
0.0
 20
0.0
 30
0.0
1001
ACAD
1000
HATCH
1002
{
1070
    16
1000
ANSI31
1040
20.0
1040
0.0
1002
}
  0
ENDSEC
  0
EOF
