  0
SECTION
  2
HEADER
  9
$ACADVER
  1
AC1009
  9
$INSBASE
 10
-413.684994
 20
123.937271
 30
0.0
  9
$EXTMIN
 10
-434.063512
 20
134.098962
 30
0.0
  9
$EXTMAX
 10
-329.981234
 20
172.67765
 30
0.0
  9
$LIMMIN
 10
0.0
 20
0.0
  9
$LIMMAX
 10
12.0
 20
9.0
  9
$ORTHOMODE
 70
     1
  9
$REGENMODE
 70
     1
  9
$FILLMODE
 70
     1
  9
$QTEXTMODE
 70
     0
  9
$MIRRTEXT
 70
     1
  9
$DRAGMODE
 70
     2
  9
$LTSCALE
 40
4.0
  9
$OSMODE
 70
     0
  9
$ATTMODE
 70
     1
  9
$TEXTSIZE
 40
0.2
  9
$TRACEWID
 40
0.05
  9
$TEXTSTYLE
  7
STANDARD
  9
$CLAYER
  8
0
  9
$CELTYPE
  6
BYLAYER
  9
$CECOLOR
 62
   256
  9
$DIMSCALE
 40
1.0
  9
$DIMASZ
 40
2.5
  9
$DIMEXO
 40
0.0
  9
$DIMDLI
 40
5.0
  9
$DIMRND
 40
0.0
  9
$DIMDLE
 40
0.0
  9
$DIMEXE
 40
1.0
  9
$DIMTP
 40
0.0
  9
$DIMTM
 40
0.0
  9
$DIMTXT
 40
2.5
  9
$DIMCEN
 40
0.09
  9
$DIMTSZ
 40
0.0
  9
$DIMTOL
 70
     0
  9
$DIMLIM
 70
     0
  9
$DIMTIH
 70
     0
  9
$DIMTOH
 70
     0
  9
$DIMSE1
 70
     0
  9
$DIMSE2
 70
     0
  9
$DIMTAD
 70
     1
  9
$DIMZIN
 70
     0
  9
$DIMBLK
  1

  9
$DIMASO
 70
     0
  9
$DIMSHO
 70
     0
  9
$DIMPOST
  1

  9
$DIMAPOST
  1

  9
$DIMALT
 70
     0
  9
$DIMALTD
 70
     2
  9
$DIMALTF
 40
25.4
  9
$DIMLFAC
 40
1.0
  9
$DIMTOFL
 70
     1
  9
$DIMTVP
 40
0.0
  9
$DIMTIX
 70
     0
  9
$DIMSOXD
 70
     0
  9
$DIMSAH
 70
     0
  9
$DIMBLK1
  1

  9
$DIMBLK2
  1

  9
$DIMSTYLE
  2
*UNNAMED
  9
$DIMCLRD
 70
     0
  9
$DIMCLRE
 70
     0
  9
$DIMCLRT
 70
     0
  9
$DIMTFAC
 40
1.0
  9
$DIMGAP
 40
0.09
  9
$LUNITS
 70
     2
  9
$LUPREC
 70
     4
  9
$SKETCHINC
 40
0.1
  9
$FILLETRAD
 40
0.0
  9
$AUNITS
 70
     0
  9
$AUPREC
 70
     0
  9
$MENU
  1
wiberger
  9
$ELEVATION
 40
0.0
  9
$PELEVATION
 40
0.0
  9
$THICKNESS
 40
0.0
  9
$LIMCHECK
 70
     0
  9
$BLIPMODE
 70
     1
  9
$CHAMFERA
 40
0.0
  9
$CHAMFERB
 40
0.0
  9
$SKPOLY
 70
     0
  9
$TDCREATE
 40
2450192.418991203
  9
$TDUPDATE
 40
2450211.518349074
  9
$TDINDWG
 40
0.0008746528
  9
$TDUSRTIMER
 40
0.0008746528
  9
$USRTIMER
 70
     1
  9
$ANGBASE
 50
0.0
  9
$ANGDIR
 70
     0
  9
$PDMODE
 70
     0
  9
$PDSIZE
 40
0.0
  9
$PLINEWID
 40
0.0
  9
$COORDS
 70
     0
  9
$SPLFRAME
 70
     0
  9
$SPLINETYPE
 70
     6
  9
$SPLINESEGS
 70
     8
  9
$ATTDIA
 70
     0
  9
$ATTREQ
 70
     1
  9
$HANDLING
 70
     0
  9
$HANDSEED
  5
0
  9
$SURFTAB1
 70
     6
  9
$SURFTAB2
 70
     6
  9
$SURFTYPE
 70
     6
  9
$SURFU
 70
     6
  9
$SURFV
 70
     6
  9
$UCSNAME
  2

  9
$UCSORG
 10
0.0
 20
0.0
 30
0.0
  9
$UCSXDIR
 10
1.0
 20
0.0
 30
0.0
  9
$UCSYDIR
 10
0.0
 20
1.0
 30
0.0
  9
$PUCSNAME
  2

  9
$PUCSORG
 10
0.0
 20
0.0
 30
0.0
  9
$PUCSXDIR
 10
1.0
 20
0.0
 30
0.0
  9
$PUCSYDIR
 10
0.0
 20
1.0
 30
0.0
  9
$USERI1
 70
     0
  9
$USERI2
 70
     0
  9
$USERI3
 70
     0
  9
$USERI4
 70
     0
  9
$USERI5
 70
     0
  9
$USERR1
 40
0.0
  9
$USERR2
 40
0.0
  9
$USERR3
 40
0.0
  9
$USERR4
 40
0.0
  9
$USERR5
 40
0.0
  9
$WORLDVIEW
 70
     1
  9
$SHADEDGE
 70
     3
  9
$SHADEDIF
 70
    70
  9
$TILEMODE
 70
     1
  9
$MAXACTVP
 70
    16
  9
$PINSBASE
 10
0.0
 20
0.0
 30
0.0
  9
$PLIMCHECK
 70
     0
  9
$PEXTMIN
 10
1.000000E+20
 20
1.000000E+20
 30
1.000000E+20
  9
$PEXTMAX
 10
-1.000000E+20
 20
-1.000000E+20
 30
-1.000000E+20
  9
$PLIMMIN
 10
0.0
 20
0.0
  9
$PLIMMAX
 10
12.0
 20
9.0
  9
$UNITMODE
 70
     0
  9
$VISRETAIN
 70
     0
  9
$PLINEGEN
 70
     0
  9
$PSLTSCALE
 70
     0
  9
$TREEDEPTH
 70
  3020
  9
$DWGCODEPAGE
  3
undefined
  0
ENDSEC
  0
SECTION
  2
TABLES
  0
TABLE
  2
VPORT
 70
     2
  0
VPORT
  2
*ACTIVE
 70
     0
 10
0.0
 20
0.0
 11
1.0
 21
1.0
 12
-364.190341
 22
159.883685
 13
0.0
 23
0.0
 14
1.0
 24
1.0
 15
0.0
 25
0.0
 16
0.0
 26
0.0
 36
1.0
 17
0.0
 27
0.0
 37
0.0
 40
88.684194
 41
1.767507
 42
50.0
 43
0.0
 44
0.0
 50
0.0
 51
0.0
 71
     0
 72
   100
 73
     1
 74
     0
 75
     0
 76
     0
 77
     0
 78
     0
  0
ENDTAB
  0
TABLE
  2
LTYPE
 70
     1
  0
LTYPE
  2
CONTINUOUS
 70
    64
  3
Solid line
 72
    65
 73
     0
 40
0.0
  0
ENDTAB
  0
TABLE
  2
LAYER
 70
     1
  0
LAYER
  2
0
 70
    64
 62
     7
  6
CONTINUOUS
  0
ENDTAB
  0
TABLE
  2
STYLE
 70
     1
  0
STYLE
  2
STANDARD
 70
     0
 40
0.0
 41
1.0
 50
0.0
 71
     0
 42
0.2
  3
txt
  4

  0
ENDTAB
  0
TABLE
  2
VIEW
 70
     0
  0
ENDTAB
  0
TABLE
  2
UCS
 70
     0
  0
ENDTAB
  0
TABLE
  2
APPID
 70
     1
  0
APPID
  2
ACAD
 70
    64
  0
ENDTAB
  0
TABLE
  2
DIMSTYLE
 70
     0
  0
ENDTAB
  0
ENDSEC
  0
SECTION
  2
BLOCKS
  0
ENDSEC
  0
SECTION
  2
ENTITIES
  0
LINE
  8
0
 10
-433.563512
 20
161.999825
 30
0.0
 11
-422.563512
 21
161.999825
 31
0.0
  0
LINE
  8
0
 10
-386.071291
 20
135.598962
 30
0.0
 11
-346.071291
 21
135.598962
 31
0.0
  0
LINE
  8
0
 10
-386.071291
 20
141.598962
 30
0.0
 11
-346.071291
 21
141.598962
 31
0.0
  0
LINE
  8
0
 10
-380.071291
 20
148.598962
 30
0.0
 11
-352.071291
 21
148.598962
 31
0.0
  0
LINE
  8
0
 10
-384.571291
 20
143.098962
 30
0.0
 11
-347.571291
 21
143.098962
 31
0.0
  0
ARC
  8
0
 10
-350.071291
 20
145.098962
 30
0.0
 40
2.0
 50
180.0
 51
270.0
  0
ARC
  8
0
 10
-382.071291
 20
145.098962
 30
0.0
 40
2.0
 50
270.0
 51
360.0
  0
LINE
  8
0
 10
-352.071291
 20
148.598962
 30
0.0
 11
-352.071291
 21
145.098962
 31
0.0
  0
LINE
  8
0
 10
-386.071291
 20
141.598962
 30
0.0
 11
-384.571291
 21
143.098962
 31
0.0
  0
LINE
  8
0
 10
-384.571291
 20
134.098962
 30
0.0
 11
-386.071291
 21
135.598962
 31
0.0
  0
LINE
  8
0
 10
-346.071291
 20
135.598962
 30
0.0
 11
-347.571291
 21
134.098962
 31
0.0
  0
LINE
  8
0
 10
-347.571291
 20
143.098962
 30
0.0
 11
-346.071291
 21
141.598962
 31
0.0
  0
LINE
  8
0
 10
-353.571291
 20
150.098962
 30
0.0
 11
-352.071291
 21
148.598962
 31
0.0
  0
LINE
  8
0
 10
-378.571291
 20
150.098962
 30
0.0
 11
-380.071291
 21
148.598962
 31
0.0
  0
LINE
  8
0
 10
-380.071291
 20
148.598962
 30
0.0
 11
-380.071291
 21
145.098962
 31
0.0
  0
LINE
  8
0
 10
-378.571291
 20
150.098962
 30
0.0
 11
-353.571291
 21
150.098962
 31
0.0
  0
LINE
  8
0
 10
-384.571291
 20
134.098962
 30
0.0
 11
-347.571291
 21
134.098962
 31
0.0
  0
LINE
  8
0
 10
-346.071291
 20
141.598962
 30
0.0
 11
-346.071291
 21
135.598962
 31
0.0
  0
LINE
  8
0
 10
-386.071291
 20
141.598962
 30
0.0
 11
-386.071291
 21
135.598962
 31
0.0
  0
LINE
  8
0
 10
-429.063512
 20
148.098962
 30
0.0
 11
-407.063512
 21
148.098962
 31
0.0
  0
LINE
  8
0
 10
-434.063512
 20
135.098962
 30
0.0
 11
-402.063512
 21
135.098962
 31
0.0
  0
LINE
  8
0
 10
-434.063512
 20
140.098962
 30
0.0
 11
-402.063512
 21
140.098962
 31
0.0
  0
LINE
  8
0
 10
-434.063512
 20
140.098962
 30
0.0
 11
-433.063512
 21
141.098962
 31
0.0
  0
LINE
  8
0
 10
-433.063512
 20
134.098962
 30
0.0
 11
-434.063512
 21
135.098962
 31
0.0
  0
LINE
  8
0
 10
-402.063512
 20
135.098962
 30
0.0
 11
-403.063512
 21
134.098962
 31
0.0
  0
LINE
  8
0
 10
-403.063512
 20
141.098962
 30
0.0
 11
-402.063512
 21
140.098962
 31
0.0
  0
LINE
  8
0
 10
-408.063512
 20
149.098962
 30
0.0
 11
-407.063512
 21
148.098962
 31
0.0
  0
LINE
  8
0
 10
-428.063512
 20
149.098962
 30
0.0
 11
-429.063512
 21
148.098962
 31
0.0
  0
ARC
  8
0
 10
-405.563512
 20
142.598962
 30
0.0
 40
1.5
 50
180.0
 51
270.0
  0
ARC
  8
0
 10
-430.563512
 20
142.598962
 30
0.0
 40
1.5
 50
270.0
 51
0.0
  0
LINE
  8
0
 10
-430.560512
 20
141.098962
 30
0.0
 11
-430.556512
 21
141.098962
 31
0.0
  0
LINE
  8
0
 10
-402.063512
 20
140.098962
 30
0.0
 11
-402.063512
 21
135.098962
 31
0.0
  0
LINE
  8
0
 10
-434.063512
 20
140.098962
 30
0.0
 11
-434.063512
 21
135.098962
 31
0.0
  0
LINE
  8
0
 10
-407.063512
 20
148.098962
 30
0.0
 11
-407.063512
 21
142.598962
 31
0.0
  0
LINE
  8
0
 10
-429.063512
 20
148.098962
 30
0.0
 11
-429.063512
 21
142.598962
 31
0.0
  0
LINE
  8
0
 10
-428.063512
 20
149.098962
 30
0.0
 11
-408.063512
 21
149.098962
 31
0.0
  0
LINE
  8
0
 10
-433.063512
 20
134.098962
 30
0.0
 11
-403.063512
 21
134.098962
 31
0.0
  0
LINE
  8
0
 10
-354.981234
 20
164.67765
 30
0.0
 11
-329.981234
 21
164.67765
 31
0.0
  0
LINE
  8
0
 10
-351.481234
 20
171.67765
 30
0.0
 11
-333.481234
 21
171.67765
 31
0.0
  0
LINE
  8
0
 10
-354.981234
 20
160.67765
 30
0.0
 11
-329.981234
 21
160.67765
 31
0.0
  0
LINE
  8
0
 10
-330.981234
 20
165.67765
 30
0.0
 11
-353.981234
 21
165.67765
 31
0.0
  0
ARC
  8
0
 10
-331.981234
 20
167.17765
 30
0.0
 40
1.5
 50
180.0
 51
270.0
  0
ARC
  8
0
 10
-352.981234
 20
167.17765
 30
0.0
 40
1.5
 50
270.0
 51
0.0
  0
LINE
  8
0
 10
-330.981234
 20
165.67765
 30
0.0
 11
-329.981234
 21
164.67765
 31
0.0
  0
LINE
  8
0
 10
-354.981234
 20
164.67765
 30
0.0
 11
-353.981234
 21
165.67765
 31
0.0
  0
LINE
  8
0
 10
-330.981234
 20
159.67765
 30
0.0
 11
-329.981234
 21
160.67765
 31
0.0
  0
LINE
  8
0
 10
-354.981234
 20
160.67765
 30
0.0
 11
-353.981234
 21
159.67765
 31
0.0
  0
LINE
  8
0
 10
-334.481234
 20
172.67765
 30
0.0
 11
-333.481234
 21
171.67765
 31
0.0
  0
LINE
  8
0
 10
-350.481234
 20
172.67765
 30
0.0
 11
-351.481234
 21
171.67765
 31
0.0
  0
LINE
  8
0
 10
-333.481234
 20
171.67765
 30
0.0
 11
-333.481234
 21
167.17765
 31
0.0
  0
LINE
  8
0
 10
-351.481234
 20
171.67765
 30
0.0
 11
-351.481234
 21
167.17765
 31
0.0
  0
LINE
  8
0
 10
-350.481234
 20
172.67765
 30
0.0
 11
-334.481234
 21
172.67765
 31
0.0
  0
LINE
  8
0
 10
-353.981234
 20
159.67765
 30
0.0
 11
-330.981234
 21
159.67765
 31
0.0
  0
LINE
  8
0
 10
-329.981234
 20
164.67765
 30
0.0
 11
-329.981234
 21
160.67765
 31
0.0
  0
LINE
  8
0
 10
-354.981234
 20
164.67765
 30
0.0
 11
-354.981234
 21
160.67765
 31
0.0
  0
LINE
  8
0
 10
-387.306738
 20
164.299825
 30
0.0
 11
-367.306738
 21
164.299825
 31
0.0
  0
LINE
  8
0
 10
-387.306738
 20
160.299825
 30
0.0
 11
-367.306738
 21
160.299825
 31
0.0
  0
LINE
  8
0
 10
-384.806738
 20
170.299825
 30
0.0
 11
-369.806738
 21
170.299825
 31
0.0
  0
ARC
  8
0
 10
-368.806738
 20
165.799825
 30
0.0
 40
1.0
 50
180.0
 51
270.0
  0
ARC
  8
0
 10
-385.806738
 20
165.799825
 30
0.0
 40
1.0
 50
270.0
 51
0.0
  0
LINE
  8
0
 10
-386.806738
 20
164.799825
 30
0.0
 11
-367.806738
 21
164.799825
 31
0.0
  0
LINE
  8
0
 10
-367.806738
 20
164.799825
 30
0.0
 11
-367.306738
 21
164.299825
 31
0.0
  0
LINE
  8
0
 10
-386.806738
 20
164.799825
 30
0.0
 11
-387.306738
 21
164.299825
 31
0.0
  0
LINE
  8
0
 10
-370.306738
 20
170.799825
 30
0.0
 11
-369.806738
 21
170.299825
 31
0.0
  0
LINE
  8
0
 10
-384.306738
 20
170.799825
 30
0.0
 11
-384.806738
 21
170.299825
 31
0.0
  0
LINE
  8
0
 10
-367.806738
 20
159.799825
 30
0.0
 11
-367.306738
 21
160.299825
 31
0.0
  0
LINE
  8
0
 10
-387.306738
 20
160.299825
 30
0.0
 11
-386.806738
 21
159.799825
 31
0.0
  0
LINE
  8
0
 10
-369.806738
 20
170.299825
 30
0.0
 11
-369.806738
 21
165.799825
 31
0.0
  0
LINE
  8
0
 10
-384.806738
 20
170.299825
 30
0.0
 11
-384.806738
 21
165.799825
 31
0.0
  0
LINE
  8
0
 10
-384.306738
 20
170.799825
 30
0.0
 11
-370.306738
 21
170.799825
 31
0.0
  0
LINE
  8
0
 10
-386.806738
 20
159.799825
 30
0.0
 11
-367.806738
 21
159.799825
 31
0.0
  0
LINE
  8
0
 10
-367.306738
 20
164.299825
 30
0.0
 11
-367.306738
 21
160.299825
 31
0.0
  0
LINE
  8
0
 10
-387.306738
 20
164.299825
 30
0.0
 11
-387.306738
 21
160.299825
 31
0.0
  0
LINE
  8
0
 10
-413.91529
 20
163.299825
 30
0.0
 11
-397.91529
 21
163.299825
 31
0.0
  0
LINE
  8
0
 10
-398.41529
 20
163.799825
 30
0.0
 11
-397.91529
 21
163.299825
 31
0.0
  0
ARC
  8
0
 10
-399.21529
 20
164.499825
 30
0.0
 40
0.7
 50
180.0
 51
270.0
  0
LINE
  8
0
 10
-413.41529
 20
163.799825
 30
0.0
 11
-413.91529
 21
163.299825
 31
0.0
  0
ARC
  8
0
 10
-412.61529
 20
164.499825
 30
0.0
 40
0.7
 50
270.0
 51
0.0
  0
LINE
  8
0
 10
-413.91529
 20
160.299825
 30
0.0
 11
-397.91529
 21
160.299825
 31
0.0
  0
LINE
  8
0
 10
-411.91529
 20
168.299825
 30
0.0
 11
-399.91529
 21
168.299825
 31
0.0
  0
LINE
  8
0
 10
-398.41529
 20
159.799825
 30
0.0
 11
-397.91529
 21
160.299825
 31
0.0
  0
LINE
  8
0
 10
-413.91529
 20
160.299825
 30
0.0
 11
-413.41529
 21
159.799825
 31
0.0
  0
LINE
  8
0
 10
-400.41529
 20
168.799825
 30
0.0
 11
-399.91529
 21
168.299825
 31
0.0
  0
LINE
  8
0
 10
-411.41529
 20
168.799825
 30
0.0
 11
-411.91529
 21
168.299825
 31
0.0
  0
LINE
  8
0
 10
-399.91529
 20
168.299825
 30
0.0
 11
-399.91529
 21
164.499825
 31
0.0
  0
LINE
  8
0
 10
-411.91529
 20
168.299825
 30
0.0
 11
-411.91529
 21
164.499825
 31
0.0
  0
LINE
  8
0
 10
-413.41529
 20
163.799825
 30
0.0
 11
-398.41529
 21
163.799825
 31
0.0
  0
LINE
  8
0
 10
-411.41529
 20
168.799825
 30
0.0
 11
-400.41529
 21
168.799825
 31
0.0
  0
LINE
  8
0
 10
-413.41529
 20
159.799825
 30
0.0
 11
-398.41529
 21
159.799825
 31
0.0
  0
LINE
  8
0
 10
-397.91529
 20
163.299825
 30
0.0
 11
-397.91529
 21
160.299825
 31
0.0
  0
LINE
  8
0
 10
-413.91529
 20
163.299825
 30
0.0
 11
-413.91529
 21
160.299825
 31
0.0
  0
LINE
  8
0
 10
-434.063512
 20
160.299825
 30
0.0
 11
-422.063512
 21
160.299825
 31
0.0
  0
LINE
  8
0
 10
-433.063512
 20
166.299825
 30
0.0
 11
-423.063512
 21
166.299825
 31
0.0
  0
ARC
  8
0
 10
-422.563512
 20
162.799825
 30
0.0
 40
0.5
 50
180.0
 51
270.0
  0
ARC
  8
0
 10
-433.563512
 20
162.799825
 30
0.0
 40
0.5
 50
270.0
 51
0.0
  0
LINE
  8
0
 10
-434.063512
 20
162.299825
 30
0.0
 11
-422.063512
 21
162.299825
 31
0.0
  0
LINE
  8
0
 10
-422.563512
 20
159.799825
 30
0.0
 11
-422.063512
 21
160.299825
 31
0.0
  0
LINE
  8
0
 10
-434.063512
 20
160.299825
 30
0.0
 11
-433.563512
 21
159.799825
 31
0.0
  0
LINE
  8
0
 10
-423.563512
 20
166.799825
 30
0.0
 11
-423.063512
 21
166.299825
 31
0.0
  0
LINE
  8
0
 10
-432.563512
 20
166.799825
 30
0.0
 11
-433.063512
 21
166.299825
 31
0.0
  0
LINE
  8
0
 10
-422.063512
 20
162.299825
 30
0.0
 11
-422.063512
 21
160.299825
 31
0.0
  0
LINE
  8
0
 10
-434.063512
 20
162.299825
 30
0.0
 11
-434.063512
 21
160.299825
 31
0.0
  0
LINE
  8
0
 10
-423.063512
 20
162.799825
 30
0.0
 11
-423.063512
 21
166.299825
 31
0.0
  0
LINE
  8
0
 10
-433.063512
 20
162.799825
 30
0.0
 11
-433.063512
 21
166.299825
 31
0.0
  0
LINE
  8
0
 10
-432.563512
 20
166.799825
 30
0.0
 11
-423.563512
 21
166.799825
 31
0.0
  0
LINE
  8
0
 10
-433.563512
 20
159.799825
 30
0.0
 11
-422.563512
 21
159.799825
 31
0.0
  0
LINE
  8
0
 10
-433.063512
 20
141.098962
 30
0.0
 11
-403.063512
 21
141.098962
 31
0.0
  0
LINE
  8
0
 10
-430.553512
 20
141.098962
 30
0.0
 11
-430.545512
 21
141.098962
 31
0.0
  0
LINE
  8
0
 10
-430.542512
 20
141.098962
 30
0.0
 11
-430.533812
 21
141.098962
 31
0.0
  0
ENDSEC
  0
EOF
