  0
SECTION
  2
HEADER
  9
$ACADVER
  1
AC1009
  9
$INSBASE
 10
0.0
 20
0.0
 30
0.0
  9
$EXTMIN
 10
-35.437604
 20
-175.662302
 30
0.0
  9
$EXTMAX
 10
352.383152
 20
104.915845
 30
0.0
  9
$LIMMIN
 10
0.0
 20
0.0
  9
$LIMMAX
 10
12.0
 20
9.0
  9
$ORTHOMODE
 70
     1
  9
$REGENMODE
 70
     1
  9
$FILLMODE
 70
     1
  9
$QTEXTMODE
 70
     0
  9
$MIRRTEXT
 70
     1
  9
$DRAGMODE
 70
     2
  9
$LTSCALE
 40
10.0
  9
$OSMODE
 70
     0
  9
$ATTMODE
 70
     1
  9
$TEXTSIZE
 40
0.2
  9
$TRACEWID
 40
0.05
  9
$TEXTSTYLE
  7
STANDARD
  9
$CLAYER
  8
0
  9
$CELTYPE
  6
BYLAYER
  9
$CECOLOR
 62
   256
  9
$DIMSCALE
 40
1.0
  9
$DIMASZ
 40
2.5
  9
$DIMEXO
 40
0.0
  9
$DIMDLI
 40
5.0
  9
$DIMRND
 40
0.0
  9
$DIMDLE
 40
0.0
  9
$DIMEXE
 40
1.0
  9
$DIMTP
 40
0.0
  9
$DIMTM
 40
0.0
  9
$DIMTXT
 40
2.5
  9
$DIMCEN
 40
0.09
  9
$DIMTSZ
 40
0.0
  9
$DIMTOL
 70
     0
  9
$DIMLIM
 70
     0
  9
$DIMTIH
 70
     0
  9
$DIMTOH
 70
     0
  9
$DIMSE1
 70
     0
  9
$DIMSE2
 70
     0
  9
$DIMTAD
 70
     1
  9
$DIMZIN
 70
     0
  9
$DIMBLK
  1

  9
$DIMASO
 70
     0
  9
$DIMSHO
 70
     0
  9
$DIMPOST
  1

  9
$DIMAPOST
  1

  9
$DIMALT
 70
     0
  9
$DIMALTD
 70
     2
  9
$DIMALTF
 40
25.4
  9
$DIMLFAC
 40
1.0
  9
$DIMTOFL
 70
     1
  9
$DIMTVP
 40
0.0
  9
$DIMTIX
 70
     0
  9
$DIMSOXD
 70
     0
  9
$DIMSAH
 70
     0
  9
$DIMBLK1
  1

  9
$DIMBLK2
  1

  9
$DIMSTYLE
  2
*UNNAMED
  9
$DIMCLRD
 70
     0
  9
$DIMCLRE
 70
     0
  9
$DIMCLRT
 70
     0
  9
$DIMTFAC
 40
1.0
  9
$DIMGAP
 40
0.09
  9
$LUNITS
 70
     2
  9
$LUPREC
 70
     4
  9
$SKETCHINC
 40
0.1
  9
$FILLETRAD
 40
1.5
  9
$AUNITS
 70
     0
  9
$AUPREC
 70
     0
  9
$MENU
  1
wiberger
  9
$ELEVATION
 40
0.0
  9
$PELEVATION
 40
0.0
  9
$THICKNESS
 40
0.0
  9
$LIMCHECK
 70
     0
  9
$BLIPMODE
 70
     1
  9
$CHAMFERA
 40
1.5
  9
$CHAMFERB
 40
1.5
  9
$SKPOLY
 70
     0
  9
$TDCREATE
 40
2450192.414972222
  9
$TDUPDATE
 40
2450218.628006250
  9
$TDINDWG
 40
0.0051869213
  9
$TDUSRTIMER
 40
0.0051869213
  9
$USRTIMER
 70
     1
  9
$ANGBASE
 50
0.0
  9
$ANGDIR
 70
     0
  9
$PDMODE
 70
     0
  9
$PDSIZE
 40
0.0
  9
$PLINEWID
 40
0.0
  9
$COORDS
 70
     0
  9
$SPLFRAME
 70
     0
  9
$SPLINETYPE
 70
     6
  9
$SPLINESEGS
 70
     8
  9
$ATTDIA
 70
     0
  9
$ATTREQ
 70
     1
  9
$HANDLING
 70
     0
  9
$HANDSEED
  5
0
  9
$SURFTAB1
 70
     6
  9
$SURFTAB2
 70
     6
  9
$SURFTYPE
 70
     6
  9
$SURFU
 70
     6
  9
$SURFV
 70
     6
  9
$UCSNAME
  2

  9
$UCSORG
 10
0.0
 20
0.0
 30
0.0
  9
$UCSXDIR
 10
1.0
 20
0.0
 30
0.0
  9
$UCSYDIR
 10
0.0
 20
1.0
 30
0.0
  9
$PUCSNAME
  2

  9
$PUCSORG
 10
0.0
 20
0.0
 30
0.0
  9
$PUCSXDIR
 10
1.0
 20
0.0
 30
0.0
  9
$PUCSYDIR
 10
0.0
 20
1.0
 30
0.0
  9
$USERI1
 70
     0
  9
$USERI2
 70
     0
  9
$USERI3
 70
     0
  9
$USERI4
 70
     0
  9
$USERI5
 70
     0
  9
$USERR1
 40
0.0
  9
$USERR2
 40
0.0
  9
$USERR3
 40
0.0
  9
$USERR4
 40
0.0
  9
$USERR5
 40
0.0
  9
$WORLDVIEW
 70
     1
  9
$SHADEDGE
 70
     3
  9
$SHADEDIF
 70
    70
  9
$TILEMODE
 70
     1
  9
$MAXACTVP
 70
    16
  9
$PINSBASE
 10
0.0
 20
0.0
 30
0.0
  9
$PLIMCHECK
 70
     0
  9
$PEXTMIN
 10
1.000000E+20
 20
1.000000E+20
 30
1.000000E+20
  9
$PEXTMAX
 10
-1.000000E+20
 20
-1.000000E+20
 30
-1.000000E+20
  9
$PLIMMIN
 10
0.0
 20
0.0
  9
$PLIMMAX
 10
12.0
 20
9.0
  9
$UNITMODE
 70
     0
  9
$VISRETAIN
 70
     0
  9
$PLINEGEN
 70
     0
  9
$PSLTSCALE
 70
     0
  9
$TREEDEPTH
 70
  3020
  9
$DWGCODEPAGE
  3
undefined
  0
ENDSEC
  0
SECTION
  2
TABLES
  0
TABLE
  2
VPORT
 70
     2
  0
VPORT
  2
*ACTIVE
 70
     0
 10
0.0
 20
0.0
 11
1.0
 21
1.0
 12
218.656264
 22
-35.373229
 13
0.0
 23
0.0
 14
1.0
 24
1.0
 15
0.0
 25
0.0
 16
0.0
 26
0.0
 36
1.0
 17
0.0
 27
0.0
 37
0.0
 40
311.753497
 41
1.767507
 42
50.0
 43
0.0
 44
0.0
 50
0.0
 51
0.0
 71
     0
 72
   100
 73
     1
 74
     0
 75
     0
 76
     0
 77
     0
 78
     0
  0
ENDTAB
  0
TABLE
  2
LTYPE
 70
     2
  0
LTYPE
  2
CONTINUOUS
 70
    64
  3
Solid line
 72
    65
 73
     0
 40
0.0
  0
LTYPE
  2
CENTER
 70
    64
  3
____ _ ____ _ ____ _ ____ _ ____ _ ____ _ ____
 72
    65
 73
     4
 40
2.0
 49
1.25
 49
-0.25
 49
0.25
 49
-0.25
  0
ENDTAB
  0
TABLE
  2
LAYER
 70
     1
  0
LAYER
  2
0
 70
    64
 62
     7
  6
CONTINUOUS
  0
ENDTAB
  0
TABLE
  2
STYLE
 70
     1
  0
STYLE
  2
STANDARD
 70
     0
 40
0.0
 41
1.0
 50
0.0
 71
     0
 42
0.2
  3
txt
  4

  0
ENDTAB
  0
TABLE
  2
VIEW
 70
     0
  0
ENDTAB
  0
TABLE
  2
UCS
 70
     0
  0
ENDTAB
  0
TABLE
  2
APPID
 70
     1
  0
APPID
  2
ACAD
 70
    64
  0
ENDTAB
  0
TABLE
  2
DIMSTYLE
 70
     0
  0
ENDTAB
  0
ENDSEC
  0
SECTION
  2
BLOCKS
  0
BLOCK
  8
0
  2
*X0
 70
    65
 10
0.0
 20
0.0
 30
0.0
  3
*X
  0
LINE
  8
0
 62
     0
 10
-9.994597
 20
-9.097287
 30
0.0
 11
-17.994597
 21
-1.097287
 31
0.0
  0
LINE
  8
0
 62
     0
 10
-12.115917
 20
-9.097287
 30
0.0
 11
-20.115917
 21
-1.097287
 31
0.0
  0
LINE
  8
0
 62
     0
 10
-14.237237
 20
-9.097287
 30
0.0
 11
-22.237237
 21
-1.097287
 31
0.0
  0
LINE
  8
0
 62
     0
 10
-16.358558
 20
-9.097287
 30
0.0
 11
-24.358558
 21
-1.097287
 31
0.0
  0
LINE
  8
0
 62
     0
 10
-18.479878
 20
-9.097287
 30
0.0
 11
-26.479878
 21
-1.097287
 31
0.0
  0
LINE
  8
0
 62
     0
 10
-20.601198
 20
-9.097287
 30
0.0
 11
-28.601198
 21
-1.097287
 31
0.0
  0
LINE
  8
0
 62
     0
 10
-22.722519
 20
-9.097287
 30
0.0
 11
-30.012792
 21
-1.807013
 31
0.0
  0
LINE
  8
0
 62
     0
 10
-24.843839
 20
-9.097287
 30
0.0
 11
-32.787168
 21
-1.153957
 31
0.0
  0
LINE
  8
0
 62
     0
 10
-26.965159
 20
-9.097287
 30
0.0
 11
-33.730498
 21
-2.331948
 31
0.0
  0
LINE
  8
0
 62
     0
 10
-29.08648
 20
-9.097287
 30
0.0
 11
-33.730498
 21
-4.453269
 31
0.0
  0
LINE
  8
0
 62
     0
 10
-31.2078
 20
-9.097287
 30
0.0
 11
-33.730498
 21
-6.574589
 31
0.0
  0
LINE
  8
0
 62
     0
 10
-7.873276
 20
-9.097287
 30
0.0
 11
-15.873276
 21
-1.097287
 31
0.0
  0
LINE
  8
0
 62
     0
 10
-5.751956
 20
-9.097287
 30
0.0
 11
-13.751956
 21
-1.097287
 31
0.0
  0
LINE
  8
0
 62
     0
 10
-3.630635
 20
-9.097287
 30
0.0
 11
-11.630635
 21
-1.097287
 31
0.0
  0
LINE
  8
0
 62
     0
 10
-1.509315
 20
-9.097287
 30
0.0
 11
-9.509315
 21
-1.097287
 31
0.0
  0
LINE
  8
0
 62
     0
 10
0.612005
 20
-9.097287
 30
0.0
 11
-7.387995
 21
-1.097287
 31
0.0
  0
LINE
  8
0
 62
     0
 10
2.733326
 20
-9.097287
 30
0.0
 11
-5.266674
 21
-1.097287
 31
0.0
  0
LINE
  8
0
 62
     0
 10
4.769502
 20
-9.012143
 30
0.0
 11
-3.145354
 21
-1.097287
 31
0.0
  0
LINE
  8
0
 62
     0
 10
4.769502
 20
-6.890823
 30
0.0
 11
-1.024034
 21
-1.097287
 31
0.0
  0
LINE
  8
0
 62
     0
 10
4.769502
 20
-4.769502
 30
0.0
 11
1.097287
 21
-1.097287
 31
0.0
  0
LINE
  8
0
 62
     0
 10
4.769502
 20
-2.648182
 30
0.0
 11
3.218607
 21
-1.097287
 31
0.0
  0
ENDBLK
  8
0
  0
BLOCK
  8
0
  2
*X1
 70
    65
 10
0.0
 20
0.0
 30
0.0
  3
*X
  0
LINE
  8
0
 62
     0
 10
274.144714
 20
79.408676
 30
0.0
 11
264.144714
 21
89.408676
 31
0.0
  0
LINE
  8
0
 62
     0
 10
271.316287
 20
79.408676
 30
0.0
 11
261.316287
 21
89.408676
 31
0.0
  0
LINE
  8
0
 62
     0
 10
268.48786
 20
79.408676
 30
0.0
 11
258.48786
 21
89.408676
 31
0.0
  0
LINE
  8
0
 62
     0
 10
265.659433
 20
79.408676
 30
0.0
 11
255.659433
 21
89.408676
 31
0.0
  0
LINE
  8
0
 62
     0
 10
262.831006
 20
79.408676
 30
0.0
 11
252.831006
 21
89.408676
 31
0.0
  0
LINE
  8
0
 62
     0
 10
260.002579
 20
79.408676
 30
0.0
 11
250.002579
 21
89.408676
 31
0.0
  0
LINE
  8
0
 62
     0
 10
257.174151
 20
79.408676
 30
0.0
 11
247.607219
 21
88.975609
 31
0.0
  0
LINE
  8
0
 62
     0
 10
254.345724
 20
79.408676
 30
0.0
 11
247.540286
 21
86.214115
 31
0.0
  0
LINE
  8
0
 62
     0
 10
250.903791
 20
80.022182
 30
0.0
 11
247.540286
 21
83.385688
 31
0.0
  0
LINE
  8
0
 62
     0
 10
248.68887
 20
79.408676
 30
0.0
 11
247.540286
 21
80.557261
 31
0.0
  0
LINE
  8
0
 62
     0
 10
276.973141
 20
79.408676
 30
0.0
 11
266.973141
 21
89.408676
 31
0.0
  0
LINE
  8
0
 62
     0
 10
279.801568
 20
79.408676
 30
0.0
 11
269.801568
 21
89.408676
 31
0.0
  0
LINE
  8
0
 62
     0
 10
282.629996
 20
79.408676
 30
0.0
 11
272.629996
 21
89.408676
 31
0.0
  0
LINE
  8
0
 62
     0
 10
285.458423
 20
79.408676
 30
0.0
 11
275.458423
 21
89.408676
 31
0.0
  0
LINE
  8
0
 62
     0
 10
288.28685
 20
79.408676
 30
0.0
 11
278.28685
 21
89.408676
 31
0.0
  0
LINE
  8
0
 62
     0
 10
291.115277
 20
79.408676
 30
0.0
 11
281.115277
 21
89.408676
 31
0.0
  0
LINE
  8
0
 62
     0
 10
293.943704
 20
79.408676
 30
0.0
 11
283.943704
 21
89.408676
 31
0.0
  0
LINE
  8
0
 62
     0
 10
296.040286
 20
80.140522
 30
0.0
 11
286.772131
 21
89.408676
 31
0.0
  0
LINE
  8
0
 62
     0
 10
296.040286
 20
82.968949
 30
0.0
 11
289.600558
 21
89.408676
 31
0.0
  0
LINE
  8
0
 62
     0
 10
296.040286
 20
85.797376
 30
0.0
 11
292.428985
 21
89.408676
 31
0.0
  0
LINE
  8
0
 62
     0
 10
296.040286
 20
88.625803
 30
0.0
 11
295.257413
 21
89.408676
 31
0.0
  0
ENDBLK
  8
0
  0
BLOCK
  8
0
  2
*X2
 70
    65
 10
0.0
 20
0.0
 30
0.0
  3
*X
  0
LINE
  8
0
 62
     0
 10
86.579817
 20
-66.780827
 30
0.0
 11
73.579817
 21
-53.780827
 31
0.0
  0
LINE
  8
0
 62
     0
 10
83.75139
 20
-66.780827
 30
0.0
 11
70.75139
 21
-53.780827
 31
0.0
  0
LINE
  8
0
 62
     0
 10
80.922963
 20
-66.780827
 30
0.0
 11
67.922963
 21
-53.780827
 31
0.0
  0
LINE
  8
0
 62
     0
 10
78.094536
 20
-66.780827
 30
0.0
 11
65.094536
 21
-53.780827
 31
0.0
  0
LINE
  8
0
 62
     0
 10
75.266109
 20
-66.780827
 30
0.0
 11
62.266109
 21
-53.780827
 31
0.0
  0
LINE
  8
0
 62
     0
 10
72.437682
 20
-66.780827
 30
0.0
 11
59.437682
 21
-53.780827
 31
0.0
  0
LINE
  8
0
 62
     0
 10
69.609254
 20
-66.780827
 30
0.0
 11
57.073094
 21
-54.244667
 31
0.0
  0
LINE
  8
0
 62
     0
 10
66.780827
 20
-66.780827
 30
0.0
 11
53.780827
 21
-53.780827
 31
0.0
  0
LINE
  8
0
 62
     0
 10
63.9524
 20
-66.780827
 30
0.0
 11
52.000773
 21
-54.829201
 31
0.0
  0
LINE
  8
0
 62
     0
 10
61.123973
 20
-66.780827
 30
0.0
 11
52.000773
 21
-57.657628
 31
0.0
  0
LINE
  8
0
 62
     0
 10
58.295546
 20
-66.780827
 30
0.0
 11
52.000773
 21
-60.486055
 31
0.0
  0
LINE
  8
0
 62
     0
 10
55.467119
 20
-66.780827
 30
0.0
 11
52.000773
 21
-63.314482
 31
0.0
  0
LINE
  8
0
 62
     0
 10
89.408244
 20
-66.780827
 30
0.0
 11
76.408244
 21
-53.780827
 31
0.0
  0
LINE
  8
0
 62
     0
 10
92.236671
 20
-66.780827
 30
0.0
 11
79.236671
 21
-53.780827
 31
0.0
  0
LINE
  8
0
 62
     0
 10
95.065099
 20
-66.780827
 30
0.0
 11
82.065099
 21
-53.780827
 31
0.0
  0
LINE
  8
0
 62
     0
 10
97.893526
 20
-66.780827
 30
0.0
 11
84.893526
 21
-53.780827
 31
0.0
  0
LINE
  8
0
 62
     0
 10
100.721953
 20
-66.780827
 30
0.0
 11
87.721953
 21
-53.780827
 31
0.0
  0
LINE
  8
0
 62
     0
 10
103.55038
 20
-66.780827
 30
0.0
 11
90.55038
 21
-53.780827
 31
0.0
  0
LINE
  8
0
 62
     0
 10
106.378807
 20
-66.780827
 30
0.0
 11
93.378807
 21
-53.780827
 31
0.0
  0
LINE
  8
0
 62
     0
 10
109.207234
 20
-66.780827
 30
0.0
 11
96.207234
 21
-53.780827
 31
0.0
  0
LINE
  8
0
 62
     0
 10
110.000773
 20
-64.745939
 30
0.0
 11
99.035661
 21
-53.780827
 31
0.0
  0
LINE
  8
0
 62
     0
 10
110.000773
 20
-61.917512
 30
0.0
 11
101.864088
 21
-53.780827
 31
0.0
  0
LINE
  8
0
 62
     0
 10
110.000773
 20
-59.089085
 30
0.0
 11
104.692516
 21
-53.780827
 31
0.0
  0
LINE
  8
0
 62
     0
 10
110.000773
 20
-56.260658
 30
0.0
 11
107.520943
 21
-53.780827
 31
0.0
  0
ENDBLK
  8
0
  0
BLOCK
  8
0
  2
*X3
 70
    65
 10
0.0
 20
0.0
 30
0.0
  3
*X
  0
LINE
  8
0
 62
     0
 10
344.747818
 20
-61.905106
 30
0.0
 11
328.747818
 21
-45.905106
 31
0.0
  0
LINE
  8
0
 62
     0
 10
341.212284
 20
-61.905106
 30
0.0
 11
325.212284
 21
-45.905106
 31
0.0
  0
LINE
  8
0
 62
     0
 10
337.67675
 20
-61.905106
 30
0.0
 11
321.67675
 21
-45.905106
 31
0.0
  0
LINE
  8
0
 62
     0
 10
334.141216
 20
-61.905106
 30
0.0
 11
318.141216
 21
-45.905106
 31
0.0
  0
LINE
  8
0
 62
     0
 10
330.605683
 20
-61.905106
 30
0.0
 11
314.605683
 21
-45.905106
 31
0.0
  0
LINE
  8
0
 62
     0
 10
327.070149
 20
-61.905106
 30
0.0
 11
311.744772
 21
-46.579729
 31
0.0
  0
LINE
  8
0
 62
     0
 10
323.534615
 20
-61.905106
 30
0.0
 11
307.534615
 21
-45.905106
 31
0.0
  0
LINE
  8
0
 62
     0
 10
319.999081
 20
-61.905106
 30
0.0
 11
304.709238
 21
-46.615263
 31
0.0
  0
LINE
  8
0
 62
     0
 10
316.463547
 20
-61.905106
 30
0.0
 11
304.419395
 21
-49.860954
 31
0.0
  0
LINE
  8
0
 62
     0
 10
312.928013
 20
-61.905106
 30
0.0
 11
304.419395
 21
-53.396488
 31
0.0
  0
LINE
  8
0
 62
     0
 10
309.392479
 20
-61.905106
 30
0.0
 11
304.419395
 21
-56.932022
 31
0.0
  0
LINE
  8
0
 62
     0
 10
305.856945
 20
-61.905106
 30
0.0
 11
304.419395
 21
-60.467556
 31
0.0
  0
LINE
  8
0
 62
     0
 10
348.283352
 20
-61.905106
 30
0.0
 11
332.283352
 21
-45.905106
 31
0.0
  0
LINE
  8
0
 62
     0
 10
351.818886
 20
-61.905106
 30
0.0
 11
335.818886
 21
-45.905106
 31
0.0
  0
LINE
  8
0
 62
     0
 10
355.35442
 20
-61.905106
 30
0.0
 11
339.35442
 21
-45.905106
 31
0.0
  0
LINE
  8
0
 62
     0
 10
358.889954
 20
-61.905106
 30
0.0
 11
342.889954
 21
-45.905106
 31
0.0
  0
LINE
  8
0
 62
     0
 10
362.425488
 20
-61.905106
 30
0.0
 11
346.425488
 21
-45.905106
 31
0.0
  0
LINE
  8
0
 62
     0
 10
365.961022
 20
-61.905106
 30
0.0
 11
349.961022
 21
-45.905106
 31
0.0
  0
LINE
  8
0
 62
     0
 10
369.496555
 20
-61.905106
 30
0.0
 11
353.496555
 21
-45.905106
 31
0.0
  0
LINE
  8
0
 62
     0
 10
372.419395
 20
-61.292412
 30
0.0
 11
357.032089
 21
-45.905106
 31
0.0
  0
LINE
  8
0
 62
     0
 10
372.419395
 20
-57.756878
 30
0.0
 11
360.567623
 21
-45.905106
 31
0.0
  0
LINE
  8
0
 62
     0
 10
372.419395
 20
-54.221344
 30
0.0
 11
364.103157
 21
-45.905106
 31
0.0
  0
LINE
  8
0
 62
     0
 10
372.419395
 20
-50.68581
 30
0.0
 11
367.638691
 21
-45.905106
 31
0.0
  0
LINE
  8
0
 62
     0
 10
372.419395
 20
-47.150276
 30
0.0
 11
371.174225
 21
-45.905106
 31
0.0
  0
ENDBLK
  8
0
  0
BLOCK
  8
0
  2
*X4
 70
    65
 10
0.0
 20
0.0
 30
0.0
  3
*X
  0
LINE
  8
0
 62
     0
 10
-4.230498
 20
44.55987
 30
0.0
 11
0.519502
 21
49.30987
 31
0.0
  0
LINE
  8
0
 62
     0
 10
-4.230498
 20
46.681191
 30
0.0
 11
4.769502
 21
55.681191
 31
0.0
  0
LINE
  8
0
 62
     0
 10
-4.230498
 20
48.802511
 30
0.0
 11
4.769502
 21
57.802511
 31
0.0
  0
LINE
  8
0
 62
     0
 10
-4.230498
 20
50.923831
 30
0.0
 11
4.518588
 21
59.672917
 31
0.0
  0
LINE
  8
0
 62
     0
 10
-4.230498
 20
53.045152
 30
0.0
 11
3.173724
 21
60.449374
 31
0.0
  0
LINE
  8
0
 62
     0
 10
-4.230498
 20
55.166472
 30
0.0
 11
1.828861
 21
61.225831
 31
0.0
  0
LINE
  8
0
 62
     0
 10
-4.230498
 20
57.287792
 30
0.0
 11
0.483998
 21
62.002288
 31
0.0
  0
LINE
  8
0
 62
     0
 10
-4.230498
 20
59.409113
 30
0.0
 11
-0.860865
 21
62.778745
 31
0.0
  0
LINE
  8
0
 62
     0
 10
-4.230498
 20
61.530433
 30
0.0
 11
-1.730498
 21
64.030433
 31
0.0
  0
LINE
  8
0
 62
     0
 10
-4.230498
 20
63.651753
 30
0.0
 11
-1.730498
 21
66.151753
 31
0.0
  0
LINE
  8
0
 62
     0
 10
-4.230498
 20
65.773074
 30
0.0
 11
-1.730498
 21
68.273074
 31
0.0
  0
LINE
  8
0
 62
     0
 10
-4.230498
 20
67.894394
 30
0.0
 11
-1.730498
 21
70.394394
 31
0.0
  0
LINE
  8
0
 62
     0
 10
-4.230498
 20
70.015714
 30
0.0
 11
-1.730498
 21
72.515714
 31
0.0
  0
LINE
  8
0
 62
     0
 10
-4.230498
 20
72.137035
 30
0.0
 11
-1.730498
 21
74.637035
 31
0.0
  0
LINE
  8
0
 62
     0
 10
-4.230498
 20
74.258355
 30
0.0
 11
-3.208025
 21
75.280828
 31
0.0
  0
LINE
  8
0
 62
     0
 10
-4.230498
 20
42.43855
 30
0.0
 11
0.519502
 21
47.18855
 31
0.0
  0
LINE
  8
0
 62
     0
 10
-4.230498
 20
40.31723
 30
0.0
 11
0.519502
 21
45.06723
 31
0.0
  0
LINE
  8
0
 62
     0
 10
-4.230498
 20
38.195909
 30
0.0
 11
0.519502
 21
42.945909
 31
0.0
  0
LINE
  8
0
 62
     0
 10
-4.230498
 20
36.074589
 30
0.0
 11
0.519502
 21
40.824589
 31
0.0
  0
LINE
  8
0
 62
     0
 10
-4.230498
 20
33.953269
 30
0.0
 11
0.519502
 21
38.703269
 31
0.0
  0
LINE
  8
0
 62
     0
 10
-4.230498
 20
31.831948
 30
0.0
 11
0.519502
 21
36.581948
 31
0.0
  0
LINE
  8
0
 62
     0
 10
-4.230498
 20
29.710628
 30
0.0
 11
0.519502
 21
34.460628
 31
0.0
  0
LINE
  8
0
 62
     0
 10
-4.230498
 20
27.589308
 30
0.0
 11
0.519502
 21
32.339308
 31
0.0
  0
LINE
  8
0
 62
     0
 10
-3.324077
 20
26.374407
 30
0.0
 11
0.519502
 21
30.217987
 31
0.0
  0
LINE
  8
0
 62
     0
 10
-1.296337
 20
26.280828
 30
0.0
 11
0.519502
 21
28.096667
 31
0.0
  0
ENDBLK
  8
0
  0
BLOCK
  8
0
  2
*X5
 70
    65
 10
0.0
 20
0.0
 30
0.0
  3
*X
  0
LINE
  8
0
 62
     0
 10
-3.693307
 20
83.280828
 30
0.0
 11
-1.730498
 21
85.243636
 31
0.0
  0
LINE
  8
0
 62
     0
 10
-4.230498
 20
84.864957
 30
0.0
 11
-2.814627
 21
86.280828
 31
0.0
  0
ENDBLK
  8
0
  0
BLOCK
  8
0
  2
*X6
 70
    65
 10
0.0
 20
0.0
 30
0.0
  3
*X
  0
LINE
  8
0
 62
     0
 10
142.19595
 20
49.388185
 30
0.0
 11
147.09595
 21
54.288185
 31
0.0
  0
LINE
  8
0
 62
     0
 10
151.810592
 20
59.002827
 30
0.0
 11
152.19595
 21
59.388185
 31
0.0
  0
LINE
  8
0
 62
     0
 10
142.19595
 20
52.039836
 30
0.0
 11
152.19595
 21
62.039836
 31
0.0
  0
LINE
  8
0
 62
     0
 10
142.19595
 20
54.691486
 30
0.0
 11
152.19595
 21
64.691486
 31
0.0
  0
LINE
  8
0
 62
     0
 10
142.19595
 20
57.343137
 30
0.0
 11
152.19595
 21
67.343137
 31
0.0
  0
LINE
  8
0
 62
     0
 10
142.19595
 20
59.994787
 30
0.0
 11
150.632102
 21
68.430939
 31
0.0
  0
LINE
  8
0
 62
     0
 10
142.19595
 20
62.646437
 30
0.0
 11
148.951023
 21
69.40151
 31
0.0
  0
LINE
  8
0
 62
     0
 10
142.19595
 20
65.298088
 30
0.0
 11
147.269944
 21
70.372082
 31
0.0
  0
LINE
  8
0
 62
     0
 10
142.19595
 20
67.949738
 30
0.0
 11
145.69595
 21
71.449738
 31
0.0
  0
LINE
  8
0
 62
     0
 10
142.19595
 20
70.601389
 30
0.0
 11
145.69595
 21
74.101389
 31
0.0
  0
LINE
  8
0
 62
     0
 10
142.19595
 20
73.253039
 30
0.0
 11
145.69595
 21
76.753039
 31
0.0
  0
LINE
  8
0
 62
     0
 10
142.19595
 20
75.90469
 30
0.0
 11
145.69595
 21
79.40469
 31
0.0
  0
LINE
  8
0
 62
     0
 10
142.19595
 20
78.55634
 30
0.0
 11
145.69595
 21
82.05634
 31
0.0
  0
LINE
  8
0
 62
     0
 10
142.19595
 20
81.20799
 30
0.0
 11
143.268787
 21
82.280828
 31
0.0
  0
LINE
  8
0
 62
     0
 10
142.19595
 20
46.736535
 30
0.0
 11
147.09595
 21
51.636535
 31
0.0
  0
LINE
  8
0
 62
     0
 10
142.19595
 20
44.084884
 30
0.0
 11
147.09595
 21
48.984884
 31
0.0
  0
LINE
  8
0
 62
     0
 10
142.19595
 20
41.433234
 30
0.0
 11
147.09595
 21
46.333234
 31
0.0
  0
LINE
  8
0
 62
     0
 10
142.19595
 20
38.781584
 30
0.0
 11
147.09595
 21
43.681584
 31
0.0
  0
LINE
  8
0
 62
     0
 10
142.19595
 20
36.129933
 30
0.0
 11
147.09595
 21
41.029933
 31
0.0
  0
LINE
  8
0
 62
     0
 10
142.19595
 20
33.478283
 30
0.0
 11
147.09595
 21
38.378283
 31
0.0
  0
LINE
  8
0
 62
     0
 10
142.19595
 20
30.826632
 30
0.0
 11
147.09595
 21
35.726632
 31
0.0
  0
LINE
  8
0
 62
     0
 10
142.19595
 20
28.174982
 30
0.0
 11
147.09595
 21
33.074982
 31
0.0
  0
LINE
  8
0
 62
     0
 10
143.074698
 20
26.402079
 30
0.0
 11
147.09595
 21
30.423331
 31
0.0
  0
LINE
  8
0
 62
     0
 10
145.605097
 20
26.280828
 30
0.0
 11
147.09595
 21
27.771681
 31
0.0
  0
ENDBLK
  8
0
  0
BLOCK
  8
0
  2
*X7
 70
    65
 10
0.0
 20
0.0
 30
0.0
  3
*X
  0
LINE
  8
0
 62
     0
 10
142.19595
 20
94.466243
 30
0.0
 11
144.010535
 21
96.280828
 31
0.0
  0
LINE
  8
0
 62
     0
 10
142.662186
 20
92.280828
 30
0.0
 11
145.69595
 21
95.314592
 31
0.0
  0
LINE
  8
0
 62
     0
 10
145.313836
 20
92.280828
 30
0.0
 11
145.69595
 21
92.662942
 31
0.0
  0
ENDBLK
  8
0
  0
BLOCK
  8
0
  2
*X8
 70
    65
 10
0.0
 20
0.0
 30
0.0
  3
*X
  0
LINE
  8
0
 62
     0
 10
12.769502
 20
-98.599816
 30
0.0
 11
17.769502
 21
-93.599816
 31
0.0
  0
LINE
  8
0
 62
     0
 10
12.769502
 20
-95.948165
 30
0.0
 11
17.769502
 21
-90.948165
 31
0.0
  0
LINE
  8
0
 62
     0
 10
12.769502
 20
-93.296515
 30
0.0
 11
17.769502
 21
-88.296515
 31
0.0
  0
LINE
  8
0
 62
     0
 10
12.769502
 20
-90.644864
 30
0.0
 11
17.769502
 21
-85.644864
 31
0.0
  0
LINE
  8
0
 62
     0
 10
22.746473
 20
-80.667894
 30
0.0
 11
24.769502
 21
-78.644864
 31
0.0
  0
LINE
  8
0
 62
     0
 10
12.769502
 20
-87.993214
 30
0.0
 11
23.944757
 21
-76.817959
 31
0.0
  0
LINE
  8
0
 62
     0
 10
12.769502
 20
-85.341563
 30
0.0
 11
22.263678
 21
-75.847388
 31
0.0
  0
LINE
  8
0
 62
     0
 10
12.769502
 20
-82.689913
 30
0.0
 11
20.582599
 21
-74.876816
 31
0.0
  0
LINE
  8
0
 62
     0
 10
12.769502
 20
-80.038263
 30
0.0
 11
18.90152
 21
-73.906245
 31
0.0
  0
LINE
  8
0
 62
     0
 10
12.769502
 20
-77.386612
 30
0.0
 11
18.269502
 21
-71.886612
 31
0.0
  0
LINE
  8
0
 62
     0
 10
12.769502
 20
-74.734962
 30
0.0
 11
18.269502
 21
-69.234962
 31
0.0
  0
LINE
  8
0
 62
     0
 10
12.769502
 20
-72.083311
 30
0.0
 11
18.269502
 21
-66.583311
 31
0.0
  0
LINE
  8
0
 62
     0
 10
12.769502
 20
-69.431661
 30
0.0
 11
18.269502
 21
-63.931661
 31
0.0
  0
LINE
  8
0
 62
     0
 10
12.769502
 20
-66.78001
 30
0.0
 11
18.269502
 21
-61.28001
 31
0.0
  0
LINE
  8
0
 62
     0
 10
12.769502
 20
-64.12836
 30
0.0
 11
17.356513
 21
-59.541349
 31
0.0
  0
LINE
  8
0
 62
     0
 10
12.769502
 20
-61.47671
 30
0.0
 11
14.704863
 21
-59.541349
 31
0.0
  0
LINE
  8
0
 62
     0
 10
12.769502
 20
-101.251466
 30
0.0
 11
17.769502
 21
-96.251466
 31
0.0
  0
LINE
  8
0
 62
     0
 10
12.769502
 20
-103.903116
 30
0.0
 11
17.769502
 21
-98.903116
 31
0.0
  0
LINE
  8
0
 62
     0
 10
12.769502
 20
-106.554767
 30
0.0
 11
17.769502
 21
-101.554767
 31
0.0
  0
LINE
  8
0
 62
     0
 10
12.769502
 20
-109.206417
 30
0.0
 11
17.769502
 21
-104.206417
 31
0.0
  0
LINE
  8
0
 62
     0
 10
12.769502
 20
-111.858068
 30
0.0
 11
17.769502
 21
-106.858068
 31
0.0
  0
LINE
  8
0
 62
     0
 10
12.769502
 20
-114.509718
 30
0.0
 11
17.769502
 21
-109.509718
 31
0.0
  0
LINE
  8
0
 62
     0
 10
12.769502
 20
-117.161369
 30
0.0
 11
17.769502
 21
-112.161369
 31
0.0
  0
LINE
  8
0
 62
     0
 10
12.769502
 20
-119.813019
 30
0.0
 11
17.769502
 21
-114.813019
 31
0.0
  0
LINE
  8
0
 62
     0
 10
12.769502
 20
-122.464669
 30
0.0
 11
17.769502
 21
-117.464669
 31
0.0
  0
LINE
  8
0
 62
     0
 10
12.769502
 20
-125.11632
 30
0.0
 11
17.769502
 21
-120.11632
 31
0.0
  0
LINE
  8
0
 62
     0
 10
12.882813
 20
-127.65466
 30
0.0
 11
17.769502
 21
-122.76797
 31
0.0
  0
LINE
  8
0
 62
     0
 10
14.647774
 20
-128.541349
 30
0.0
 11
17.769502
 21
-125.419621
 31
0.0
  0
ENDBLK
  8
0
  0
BLOCK
  8
0
  2
*X9
 70
    65
 10
0.0
 20
0.0
 30
0.0
  3
*X
  0
LINE
  8
0
 62
     0
 10
12.769502
 20
-45.566807
 30
0.0
 11
14.79496
 21
-43.541349
 31
0.0
  0
LINE
  8
0
 62
     0
 10
14.446611
 20
-46.541349
 30
0.0
 11
17.446611
 21
-43.541349
 31
0.0
  0
LINE
  8
0
 62
     0
 10
17.098261
 20
-46.541349
 30
0.0
 11
18.269502
 21
-45.370108
 31
0.0
  0
ENDBLK
  8
0
  0
BLOCK
  8
0
  2
*X10
 70
    65
 10
0.0
 20
0.0
 30
0.0
  3
*X
  0
LINE
  8
0
 62
     0
 10
216.653805
 20
-98.008712
 30
0.0
 11
222.903805
 21
-91.758712
 31
0.0
  0
LINE
  8
0
 62
     0
 10
216.653805
 20
-94.473178
 30
0.0
 11
222.903805
 21
-88.223178
 31
0.0
  0
LINE
  8
0
 62
     0
 10
216.653805
 20
-90.937644
 30
0.0
 11
222.903805
 21
-84.687644
 31
0.0
  0
LINE
  8
0
 62
     0
 10
216.653805
 20
-87.40211
 30
0.0
 11
222.903805
 21
-81.15211
 31
0.0
  0
LINE
  8
0
 62
     0
 10
216.653805
 20
-83.866577
 30
0.0
 11
222.903805
 21
-77.616577
 31
0.0
  0
LINE
  8
0
 62
     0
 10
224.789327
 20
-75.731055
 30
0.0
 11
230.571263
 21
-69.949119
 31
0.0
  0
LINE
  8
0
 62
     0
 10
216.653805
 20
-80.331043
 30
0.0
 11
228.329824
 21
-68.655024
 31
0.0
  0
LINE
  8
0
 62
     0
 10
216.653805
 20
-76.795509
 30
0.0
 11
226.088385
 21
-67.360929
 31
0.0
  0
LINE
  8
0
 62
     0
 10
216.653805
 20
-73.259975
 30
0.0
 11
225.153805
 21
-64.759975
 31
0.0
  0
LINE
  8
0
 62
     0
 10
216.653805
 20
-69.724441
 30
0.0
 11
225.153805
 21
-61.224441
 31
0.0
  0
LINE
  8
0
 62
     0
 10
216.653805
 20
-66.188907
 30
0.0
 11
225.153805
 21
-57.688907
 31
0.0
  0
LINE
  8
0
 62
     0
 10
216.653805
 20
-62.653373
 30
0.0
 11
223.765829
 21
-55.541349
 31
0.0
  0
LINE
  8
0
 62
     0
 10
216.653805
 20
-59.117839
 30
0.0
 11
220.230295
 21
-55.541349
 31
0.0
  0
LINE
  8
0
 62
     0
 10
216.653805
 20
-55.582305
 30
0.0
 11
216.694762
 21
-55.541349
 31
0.0
  0
LINE
  8
0
 62
     0
 10
216.653805
 20
-101.544246
 30
0.0
 11
222.903805
 21
-95.294246
 31
0.0
  0
LINE
  8
0
 62
     0
 10
216.653805
 20
-105.07978
 30
0.0
 11
222.903805
 21
-98.82978
 31
0.0
  0
LINE
  8
0
 62
     0
 10
216.653805
 20
-108.615314
 30
0.0
 11
222.903805
 21
-102.365314
 31
0.0
  0
LINE
  8
0
 62
     0
 10
216.653805
 20
-112.150848
 30
0.0
 11
222.903805
 21
-105.900848
 31
0.0
  0
LINE
  8
0
 62
     0
 10
216.653805
 20
-115.686382
 30
0.0
 11
222.903805
 21
-109.436382
 31
0.0
  0
LINE
  8
0
 62
     0
 10
216.653805
 20
-119.221916
 30
0.0
 11
222.903805
 21
-112.971916
 31
0.0
  0
LINE
  8
0
 62
     0
 10
216.653805
 20
-122.757449
 30
0.0
 11
222.903805
 21
-116.507449
 31
0.0
  0
LINE
  8
0
 62
     0
 10
216.653805
 20
-126.292983
 30
0.0
 11
222.903805
 21
-120.042983
 31
0.0
  0
LINE
  8
0
 62
     0
 10
217.940974
 20
-128.541349
 30
0.0
 11
222.903805
 21
-123.578517
 31
0.0
  0
LINE
  8
0
 62
     0
 10
221.476507
 20
-128.541349
 30
0.0
 11
222.903805
 21
-127.114051
 31
0.0
  0
ENDBLK
  8
0
  0
BLOCK
  8
0
  2
*X11
 70
    65
 10
0.0
 20
0.0
 30
0.0
  3
*X
  0
LINE
  8
0
 62
     0
 10
216.653805
 20
-37.904636
 30
0.0
 11
221.017092
 21
-33.541349
 31
0.0
  0
LINE
  8
0
 62
     0
 10
218.552626
 20
-39.541349
 30
0.0
 11
224.103216
 21
-33.990759
 31
0.0
  0
LINE
  8
0
 62
     0
 10
222.08816
 20
-39.541349
 30
0.0
 11
225.153805
 21
-36.475704
 31
0.0
  0
ENDBLK
  8
0
  0
ENDSEC
  0
SECTION
  2
ENTITIES
  0
LINE
  8
0
 10
-4.230498
 20
85.280828
 30
0.0
 11
-4.230498
 21
83.280828
 31
0.0
  0
LINE
  8
0
 10
13.769502
 20
85.280828
 30
0.0
 11
13.769502
 21
83.280828
 31
0.0
  0
LINE
  8
0
 10
-3.230498
 20
26.280828
 30
0.0
 11
12.769502
 21
26.280828
 31
0.0
  0
LINE
  8
0
  6
CENTER
 10
4.769502
 20
94.712122
 30
0.0
 11
4.769502
 21
18.740847
 31
0.0
  0
LINE
  8
0
 10
-35.230498
 20
82.280828
 30
0.0
 11
-35.230498
 21
76.280828
 31
0.0
  0
LINE
  8
0
 10
44.769502
 20
83.780828
 30
0.0
 11
44.769502
 21
74.780828
 31
0.0
  0
LINE
  8
0
 10
-32.730498
 20
83.280828
 30
0.0
 11
-30.980498
 21
83.280828
 31
0.0
  0
LINE
  8
0
 10
-32.730498
 20
75.280828
 30
0.0
 11
-30.980498
 21
75.280828
 31
0.0
  0
LINE
  8
0
 10
13.769502
 20
83.280828
 30
0.0
 11
36.769502
 21
83.280828
 31
0.0
  0
LINE
  8
0
 10
13.769502
 20
75.280828
 30
0.0
 11
36.769502
 21
75.280828
 31
0.0
  0
LINE
  8
0
 10
-34.230498
 20
84.780828
 30
0.0
 11
-28.230498
 21
84.780828
 31
0.0
  0
LINE
  8
0
 10
-34.230498
 20
73.780828
 30
0.0
 11
-28.230498
 21
73.780828
 31
0.0
  0
LINE
  8
0
 10
-27.230498
 20
83.780828
 30
0.0
 11
-27.230498
 21
83.280828
 31
0.0
  0
LINE
  8
0
 10
36.769502
 20
83.780828
 30
0.0
 11
36.769502
 21
74.780828
 31
0.0
  0
LINE
  8
0
 10
37.769502
 20
84.780828
 30
0.0
 11
43.769502
 21
84.780828
 31
0.0
  0
LINE
  8
0
 10
37.769502
 20
73.780828
 30
0.0
 11
43.769502
 21
73.780828
 31
0.0
  0
LINE
  8
0
 10
-28.230498
 20
84.780828
 30
0.0
 11
-27.230498
 21
83.780828
 31
0.0
  0
LINE
  8
0
 10
-27.230498
 20
74.780828
 30
0.0
 11
-28.230498
 21
73.780828
 31
0.0
  0
LINE
  8
0
 10
-4.230498
 20
85.280828
 30
0.0
 11
-3.230498
 21
86.280828
 31
0.0
  0
LINE
  8
0
 10
12.769502
 20
86.280828
 30
0.0
 11
13.769502
 21
85.280828
 31
0.0
  0
LINE
  8
0
 10
37.769502
 20
84.780828
 30
0.0
 11
36.769502
 21
83.780828
 31
0.0
  0
LINE
  8
0
 10
36.769502
 20
74.780828
 30
0.0
 11
37.769502
 21
73.780828
 31
0.0
  0
LINE
  8
0
 10
13.769502
 20
27.280828
 30
0.0
 11
12.769502
 21
26.280828
 31
0.0
  0
LINE
  8
0
 10
-3.230498
 20
26.280828
 30
0.0
 11
-4.230498
 21
27.280828
 31
0.0
  0
ARC
  8
0
 10
-34.230498
 20
83.780828
 30
0.0
 40
1.0
 50
90.0
 51
180.0
  0
ARC
  8
0
 10
-34.230498
 20
74.780828
 30
0.0
 40
1.0
 50
180.0
 51
270.0
  0
ARC
  8
0
 10
43.769502
 20
74.780828
 30
0.0
 40
1.0
 50
270.0
 51
0.0
  0
ARC
  8
0
 10
43.769502
 20
83.780828
 30
0.0
 40
1.0
 50
0.0
 51
90.0
  0
LINE
  8
0
 10
57.738404
 20
26.280828
 30
0.0
 11
56.738404
 21
27.280828
 31
0.0
  0
LINE
  8
0
 10
74.738404
 20
27.280828
 30
0.0
 11
73.738404
 21
26.280828
 31
0.0
  0
LINE
  8
0
 10
73.738404
 20
86.280828
 30
0.0
 11
74.738404
 21
85.280828
 31
0.0
  0
LINE
  8
0
 10
56.738404
 20
85.280828
 30
0.0
 11
57.738404
 21
86.280828
 31
0.0
  0
LINE
  8
0
 10
57.738404
 20
26.280828
 30
0.0
 11
73.738404
 21
26.280828
 31
0.0
  0
LINE
  8
0
 10
57.738404
 20
86.280828
 30
0.0
 11
73.738404
 21
86.280828
 31
0.0
  0
LINE
  8
0
 10
74.738404
 20
85.280828
 30
0.0
 11
74.738404
 21
27.280828
 31
0.0
  0
LINE
  8
0
 10
56.738404
 20
85.280828
 30
0.0
 11
56.738404
 21
27.280828
 31
0.0
  0
LINE
  8
0
  6
CENTER
 10
65.738404
 20
94.712122
 30
0.0
 11
65.738404
 21
18.740847
 31
0.0
  0
CIRCLE
  8
0
 10
65.738404
 20
79.280828
 30
0.0
 40
5.5
  0
LINE
  8
0
 10
37.769502
 20
84.780828
 30
0.0
 11
37.769502
 21
73.780828
 31
0.0
  0
LINE
  8
0
 10
13.769502
 20
85.280828
 30
0.0
 11
4.769502
 21
85.280828
 31
0.0
  0
LINE
  8
0
 10
13.769502
 20
27.280828
 30
0.0
 11
4.769502
 21
27.280828
 31
0.0
  0
LINE
  8
0
 10
-4.230498
 20
75.280828
 30
0.0
 11
-4.230498
 21
27.280828
 31
0.0
  0
LINE
  8
0
 10
-0.230498
 20
46.280828
 30
0.0
 11
4.769502
 21
46.280828
 31
0.0
  0
LINE
  8
0
 10
0.519502
 20
51.280828
 30
0.0
 11
0.519502
 21
27.030828
 31
0.0
  0
LINE
  8
0
 10
0.519502
 20
51.280828
 30
0.0
 11
4.769502
 21
51.280828
 31
0.0
  0
LINE
  8
0
 10
-0.230498
 20
46.280828
 30
0.0
 11
-0.230498
 21
26.280828
 31
0.0
  0
LINE
  8
0
 10
0.519502
 20
51.280828
 30
0.0
 11
4.769502
 21
53.734566
 31
0.0
  0
LINE
  8
0
 10
-27.230498
 20
75.280828
 30
0.0
 11
-27.230498
 21
74.780828
 31
0.0
  0
LINE
  8
0
 10
-32.730498
 20
83.280828
 30
0.0
 11
-33.730498
 21
82.280828
 31
0.0
  0
LINE
  8
0
 10
-33.730498
 20
76.280828
 30
0.0
 11
-32.730498
 21
75.280828
 31
0.0
  0
LINE
  8
0
 10
-35.230498
 20
83.780828
 30
0.0
 11
-35.230498
 21
82.280828
 31
0.0
  0
LINE
  8
0
 10
-35.230498
 20
74.780828
 30
0.0
 11
-35.230498
 21
76.280828
 31
0.0
  0
LINE
  8
0
 10
-30.980498
 20
83.280828
 30
0.0
 11
-30.230498
 21
82.280828
 31
0.0
  0
LINE
  8
0
 10
-30.230498
 20
82.280828
 30
0.0
 11
-29.480498
 21
83.280828
 31
0.0
  0
LINE
  8
0
 10
-30.980498
 20
75.280828
 30
0.0
 11
-30.230498
 21
76.280828
 31
0.0
  0
LINE
  8
0
 10
-30.230498
 20
76.280828
 30
0.0
 11
-29.480498
 21
75.280828
 31
0.0
  0
LINE
  8
0
 10
-33.730498
 20
82.280828
 30
0.0
 11
-33.730498
 21
76.280828
 31
0.0
  0
LINE
  8
0
 10
-29.480498
 20
75.280828
 30
0.0
 11
4.769502
 21
75.280828
 31
0.0
  0
LINE
  8
0
 10
-29.480498
 20
83.280828
 30
0.0
 11
4.769502
 21
83.280828
 31
0.0
  0
LINE
  8
0
 10
-30.230498
 20
82.891374
 30
0.0
 11
-30.230498
 21
82.867996
 31
0.0
  0
ARC
  8
0
 10
-30.230498
 20
83.755682
 30
0.0
 40
0.887686
 50
212.339515
 51
327.660485
  0
ARC
  8
0
 10
-30.230498
 20
74.805973
 30
0.0
 40
0.887686
 50
32.339515
 51
147.660485
  0
LINE
  8
0
 10
-1.730498
 20
63.280828
 30
0.0
 11
4.769502
 21
63.280828
 31
0.0
  0
LINE
  8
0
 10
-1.730498
 20
85.780828
 30
0.0
 11
-1.730498
 21
83.280828
 31
0.0
  0
LINE
  8
0
 10
-1.730498
 20
75.280828
 30
0.0
 11
-1.730498
 21
63.280828
 31
0.0
  0
LINE
  8
0
 10
-1.730498
 20
63.280828
 30
0.0
 11
4.769502
 21
59.528051
 31
0.0
  0
LINE
  8
0
 10
-3.230498
 20
86.280828
 30
0.0
 11
12.769502
 21
86.280828
 31
0.0
  0
LINE
  8
0
 10
-2.230498
 20
86.280828
 30
0.0
 11
-1.730498
 21
85.780828
 31
0.0
  0
LINE
  8
0
 10
-1.730498
 20
85.780828
 30
0.0
 11
4.769502
 21
85.780828
 31
0.0
  0
INSERT
  8
0
  2
*X0
 10
0.0
 20
84.378114
 30
0.0
  0
LINE
  8
0
 10
-1.480498
 20
75.280828
 30
0.0
 11
-1.480498
 21
73.780828
 31
0.0
  0
LINE
  8
0
 10
-1.480498
 20
73.780828
 30
0.0
 11
4.769502
 21
73.780828
 31
0.0
  0
CIRCLE
  8
0
 10
-0.796393
 20
73.130828
 30
0.0
 40
0.65
  0
CIRCLE
  8
0
 10
-0.796393
 20
63.930828
 30
0.0
 40
0.65
  0
CIRCLE
  8
0
 10
-0.796393
 20
68.530828
 30
0.0
 40
0.65
  0
CIRCLE
  8
0
 10
-0.796393
 20
70.830828
 30
0.0
 40
0.65
  0
CIRCLE
  8
0
 10
-0.796393
 20
66.230828
 30
0.0
 40
0.65
  0
LINE
  8
0
 10
-0.862012
 20
64.577507
 30
0.0
 11
4.769502
 21
65.148944
 31
0.0
  0
LINE
  8
0
 10
-0.730773
 20
63.284148
 30
0.0
 11
4.769502
 21
63.842268
 31
0.0
  0
LINE
  8
0
 10
-0.862012
 20
66.877507
 30
0.0
 11
4.769502
 21
67.448944
 31
0.0
  0
LINE
  8
0
 10
-0.730773
 20
65.584148
 30
0.0
 11
4.769502
 21
66.142268
 31
0.0
  0
LINE
  8
0
 10
-0.862012
 20
69.177507
 30
0.0
 11
4.769502
 21
69.748944
 31
0.0
  0
LINE
  8
0
 10
-0.730773
 20
67.884148
 30
0.0
 11
4.769502
 21
68.442268
 31
0.0
  0
LINE
  8
0
 10
-0.862012
 20
71.477507
 30
0.0
 11
4.769502
 21
72.048944
 31
0.0
  0
LINE
  8
0
 10
-0.730773
 20
70.184148
 30
0.0
 11
4.769502
 21
70.742268
 31
0.0
  0
LINE
  8
0
 10
-0.730773
 20
72.484148
 30
0.0
 11
4.769502
 21
73.042268
 31
0.0
  0
CIRCLE
  8
0
 10
4.769502
 20
2.032152
 30
0.0
 40
9.0
  0
LINE
  8
0
 10
37.769502
 20
7.532152
 30
0.0
 11
37.769502
 21
-3.467848
 31
0.0
  0
ARC
  8
0
 10
43.769502
 20
6.532152
 30
0.0
 40
1.0
 50
0.0
 51
90.0
  0
ARC
  8
0
 10
43.769502
 20
-2.467848
 30
0.0
 40
1.0
 50
270.0
 51
0.0
  0
LINE
  8
0
 10
36.769502
 20
-2.467848
 30
0.0
 11
37.769502
 21
-3.467848
 31
0.0
  0
LINE
  8
0
 10
37.769502
 20
7.532152
 30
0.0
 11
36.769502
 21
6.532152
 31
0.0
  0
LINE
  8
0
 10
37.769502
 20
-3.467848
 30
0.0
 11
43.769502
 21
-3.467848
 31
0.0
  0
LINE
  8
0
 10
37.769502
 20
7.532152
 30
0.0
 11
43.769502
 21
7.532152
 31
0.0
  0
LINE
  8
0
 10
36.769502
 20
6.532152
 30
0.0
 11
36.769502
 21
-2.467848
 31
0.0
  0
LINE
  8
0
 10
44.769502
 20
6.532152
 30
0.0
 11
44.769502
 21
-2.467848
 31
0.0
  0
LINE
  8
0
 10
12.83176
 20
6.032152
 30
0.0
 11
36.769502
 21
6.032152
 31
0.0
  0
LINE
  8
0
 10
12.83176
 20
-1.967848
 30
0.0
 11
36.769502
 21
-1.967848
 31
0.0
  0
LINE
  8
0
 10
9.892978
 20
-1.967848
 30
0.0
 11
-0.353973
 21
-1.967848
 31
0.0
  0
LINE
  8
0
 10
9.892978
 20
6.032152
 30
0.0
 11
-0.353973
 21
6.032152
 31
0.0
  0
LINE
  8
0
 10
-35.230498
 20
6.532152
 30
0.0
 11
-35.230498
 21
-2.467848
 31
0.0
  0
LINE
  8
0
 10
-27.230498
 20
6.532152
 30
0.0
 11
-27.230498
 21
-2.467848
 31
0.0
  0
LINE
  8
0
 10
-28.230498
 20
7.532152
 30
0.0
 11
-34.230498
 21
7.532152
 31
0.0
  0
LINE
  8
0
 10
-28.230498
 20
-3.467848
 30
0.0
 11
-34.230498
 21
-3.467848
 31
0.0
  0
LINE
  8
0
 10
-28.230498
 20
7.532152
 30
0.0
 11
-27.230498
 21
6.532152
 31
0.0
  0
LINE
  8
0
 10
-27.230498
 20
-2.467848
 30
0.0
 11
-28.230498
 21
-3.467848
 31
0.0
  0
ARC
  8
0
 10
-34.230498
 20
-2.467848
 30
0.0
 40
1.0
 50
180.0
 51
270.0
  0
ARC
  8
0
 10
-34.230498
 20
6.532152
 30
0.0
 40
1.0
 50
90.0
 51
180.0
  0
LINE
  8
0
 10
-28.230498
 20
7.532152
 30
0.0
 11
-28.230498
 21
-3.467848
 31
0.0
  0
CIRCLE
  8
0
 10
4.769502
 20
2.032152
 30
0.0
 40
8.0
  0
CIRCLE
  8
0
 10
4.769502
 20
2.032152
 30
0.0
 40
7.5
  0
LINE
  8
0
 10
-3.292755
 20
6.032152
 30
0.0
 11
-27.230498
 21
6.032152
 31
0.0
  0
LINE
  8
0
 10
-3.292755
 20
-1.967848
 30
0.0
 11
-27.230498
 21
-1.967848
 31
0.0
  0
LINE
  8
0
 10
56.738404
 20
85.280828
 30
0.0
 11
74.738404
 21
85.280828
 31
0.0
  0
LINE
  8
0
 10
56.738404
 20
27.280828
 30
0.0
 11
74.738404
 21
27.280828
 31
0.0
  0
ARC
  8
0
 10
4.769502
 20
2.032152
 30
0.0
 40
6.25
 50
219.791819
 51
320.208181
  0
CIRCLE
  8
0
 10
4.769502
 20
2.032152
 30
0.0
 40
6.5
  0
ARC
  8
0
 10
4.769502
 20
2.032152
 30
0.0
 40
6.25
 50
39.791819
 51
140.208181
  0
LINE
  8
0
 10
142.19595
 20
95.280828
 30
0.0
 11
142.19595
 21
92.280828
 31
0.0
  0
LINE
  8
0
 10
162.19595
 20
95.280828
 30
0.0
 11
162.19595
 21
92.280828
 31
0.0
  0
LINE
  8
0
 10
143.19595
 20
96.280828
 30
0.0
 11
145.19595
 21
96.280828
 31
0.0
  0
LINE
  8
0
 10
143.19595
 20
26.280828
 30
0.0
 11
161.19595
 21
26.280828
 31
0.0
  0
LINE
  8
0
 10
102.19595
 20
93.030828
 30
0.0
 11
102.19595
 21
81.530828
 31
0.0
  0
LINE
  8
0
 10
202.19595
 20
93.030828
 30
0.0
 11
202.19595
 21
81.530828
 31
0.0
  0
LINE
  8
0
 10
104.19595
 20
92.280828
 30
0.0
 11
106.44595
 21
92.280828
 31
0.0
  0
LINE
  8
0
 10
104.19595
 20
82.280828
 30
0.0
 11
106.44595
 21
82.280828
 31
0.0
  0
LINE
  8
0
 10
162.19595
 20
92.280828
 30
0.0
 11
193.19595
 21
92.280828
 31
0.0
  0
LINE
  8
0
 10
162.19595
 20
82.280828
 30
0.0
 11
193.19595
 21
82.280828
 31
0.0
  0
LINE
  8
0
 10
103.19595
 20
94.030828
 30
0.0
 11
110.19595
 21
94.030828
 31
0.0
  0
LINE
  8
0
 10
103.19595
 20
80.530828
 30
0.0
 11
110.19595
 21
80.530828
 31
0.0
  0
LINE
  8
0
 10
111.19595
 20
93.030828
 30
0.0
 11
111.19595
 21
92.280828
 31
0.0
  0
LINE
  8
0
 10
193.19595
 20
93.030828
 30
0.0
 11
193.19595
 21
81.530828
 31
0.0
  0
LINE
  8
0
 10
194.19595
 20
94.030828
 30
0.0
 11
201.19595
 21
94.030828
 31
0.0
  0
LINE
  8
0
 10
194.19595
 20
80.530828
 30
0.0
 11
201.19595
 21
80.530828
 31
0.0
  0
ARC
  8
0
 10
21.83176
 20
79.280828
 30
0.0
 40
9.0
 50
153.6122
 51
206.3878
  0
LINE
  8
0
 10
13.769502
 20
75.280828
 30
0.0
 11
13.769502
 21
27.280828
 31
0.0
  0
LINE
  8
0
  6
CENTER
 10
152.19595
 20
104.915845
 30
0.0
 11
152.19595
 21
18.590053
 31
0.0
  0
LINE
  8
0
 10
110.19595
 20
94.030828
 30
0.0
 11
111.19595
 21
93.030828
 31
0.0
  0
LINE
  8
0
 10
111.19595
 20
81.530828
 30
0.0
 11
110.19595
 21
80.530828
 31
0.0
  0
LINE
  8
0
 10
142.19595
 20
95.280828
 30
0.0
 11
143.19595
 21
96.280828
 31
0.0
  0
LINE
  8
0
 10
161.19595
 20
96.280828
 30
0.0
 11
162.19595
 21
95.280828
 31
0.0
  0
LINE
  8
0
 10
193.19595
 20
93.030828
 30
0.0
 11
194.19595
 21
94.030828
 31
0.0
  0
LINE
  8
0
 10
193.19595
 20
81.530828
 30
0.0
 11
194.19595
 21
80.530828
 31
0.0
  0
LINE
  8
0
 10
162.19595
 20
27.280828
 30
0.0
 11
161.19595
 21
26.280828
 31
0.0
  0
LINE
  8
0
 10
143.19595
 20
26.280828
 30
0.0
 11
142.19595
 21
27.280828
 31
0.0
  0
LINE
  8
0
 10
162.19595
 20
95.280828
 30
0.0
 11
152.19595
 21
95.280828
 31
0.0
  0
LINE
  8
0
 10
194.19595
 20
94.030828
 30
0.0
 11
194.19595
 21
80.530828
 31
0.0
  0
LINE
  8
0
 10
162.19595
 20
27.280828
 30
0.0
 11
152.19595
 21
27.280828
 31
0.0
  0
LINE
  8
0
 10
147.09595
 20
56.280828
 30
0.0
 11
147.09595
 21
27.180828
 31
0.0
  0
LINE
  8
0
 10
146.19595
 20
51.280828
 30
0.0
 11
146.19595
 21
26.280828
 31
0.0
  0
LINE
  8
0
 10
146.19595
 20
51.280828
 30
0.0
 11
152.19595
 21
51.280828
 31
0.0
  0
LINE
  8
0
 10
147.09595
 20
56.280828
 30
0.0
 11
152.19595
 21
56.280828
 31
0.0
  0
LINE
  8
0
 10
147.09595
 20
56.280828
 30
0.0
 11
152.19595
 21
59.225314
 31
0.0
  0
LINE
  8
0
 10
145.69595
 20
71.280828
 30
0.0
 11
152.19595
 21
71.280828
 31
0.0
  0
LINE
  8
0
 10
145.69595
 20
95.780828
 30
0.0
 11
145.69595
 21
92.280828
 31
0.0
  0
LINE
  8
0
 10
145.69595
 20
71.280828
 30
0.0
 11
152.19595
 21
67.528051
 31
0.0
  0
LINE
  8
0
 10
148.20889
 20
96.280828
 30
0.0
 11
148.311583
 21
96.280828
 31
0.0
  0
LINE
  8
0
 10
145.19595
 20
96.280828
 30
0.0
 11
161.19595
 21
96.280828
 31
0.0
  0
LINE
  8
0
 10
145.19595
 20
96.280828
 30
0.0
 11
145.69595
 21
95.780828
 31
0.0
  0
LINE
  8
0
 10
145.69595
 20
95.780828
 30
0.0
 11
152.19595
 21
95.780828
 31
0.0
  0
LINE
  8
0
 10
142.19595
 20
82.280828
 30
0.0
 11
142.19595
 21
27.280828
 31
0.0
  0
LINE
  8
0
 10
145.69595
 20
82.280828
 30
0.0
 11
145.69595
 21
71.280828
 31
0.0
  0
ARC
  8
0
 10
103.19595
 20
93.030828
 30
0.0
 40
1.0
 50
90.0
 51
180.0
  0
ARC
  8
0
 10
103.19595
 20
81.530828
 30
0.0
 40
1.0
 50
180.0
 51
270.0
  0
ARC
  8
0
 10
201.19595
 20
93.030828
 30
0.0
 40
1.0
 50
0.0
 51
90.0
  0
ARC
  8
0
 10
201.19595
 20
81.530828
 30
0.0
 40
1.0
 50
270.0
 51
0.0
  0
LINE
  8
0
 10
111.19595
 20
82.280828
 30
0.0
 11
111.19595
 21
81.530828
 31
0.0
  0
LINE
  8
0
 10
103.69595
 20
91.780828
 30
0.0
 11
103.69595
 21
82.780828
 31
0.0
  0
LINE
  8
0
 10
104.19595
 20
92.280828
 30
0.0
 11
103.69595
 21
91.780828
 31
0.0
  0
LINE
  8
0
 10
103.69595
 20
82.780828
 30
0.0
 11
104.19595
 21
82.280828
 31
0.0
  0
LINE
  8
0
 10
106.44595
 20
92.280828
 30
0.0
 11
107.19595
 21
91.530828
 31
0.0
  0
LINE
  8
0
 10
107.19595
 20
91.530828
 30
0.0
 11
107.94595
 21
92.280828
 31
0.0
  0
LINE
  8
0
 10
106.44595
 20
82.280828
 30
0.0
 11
107.19595
 21
83.030828
 31
0.0
  0
LINE
  8
0
 10
107.19595
 20
83.030828
 30
0.0
 11
107.94595
 21
82.280828
 31
0.0
  0
LINE
  8
0
 10
107.94595
 20
92.280828
 30
0.0
 11
152.19595
 21
92.280828
 31
0.0
  0
LINE
  8
0
 10
107.94595
 20
82.280828
 30
0.0
 11
152.19595
 21
82.280828
 31
0.0
  0
ARC
  8
0
 10
107.19595
 20
93.148523
 30
0.0
 40
1.146907
 50
229.161214
 51
310.838786
  0
LINE
  8
0
 10
145.94595
 20
82.280828
 30
0.0
 11
145.94595
 21
80.780828
 31
0.0
  0
LINE
  8
0
 10
145.94595
 20
80.780828
 30
0.0
 11
152.19595
 21
80.780828
 31
0.0
  0
CIRCLE
  8
0
 10
146.654758
 20
80.130828
 30
0.0
 40
0.65
  0
CIRCLE
  8
0
 10
146.654758
 20
71.930828
 30
0.0
 40
0.65
  0
CIRCLE
  8
0
 10
146.654758
 20
76.030828
 30
0.0
 40
0.65
  0
CIRCLE
  8
0
 10
146.654758
 20
78.080828
 30
0.0
 40
0.65
  0
CIRCLE
  8
0
 10
146.654758
 20
73.980828
 30
0.0
 40
0.65
  0
LINE
  8
0
 10
146.597027
 20
72.578259
 30
0.0
 11
152.19595
 21
73.077515
 31
0.0
  0
LINE
  8
0
 10
146.71249
 20
71.283396
 30
0.0
 11
152.19595
 21
71.772357
 31
0.0
  0
LINE
  8
0
 10
146.597027
 20
74.628259
 30
0.0
 11
152.19595
 21
75.127515
 31
0.0
  0
LINE
  8
0
 10
146.71249
 20
73.333396
 30
0.0
 11
152.19595
 21
73.822357
 31
0.0
  0
LINE
  8
0
 10
146.597027
 20
76.678259
 30
0.0
 11
152.19595
 21
77.177515
 31
0.0
  0
LINE
  8
0
 10
146.71249
 20
75.383396
 30
0.0
 11
152.19595
 21
75.872357
 31
0.0
  0
LINE
  8
0
 10
146.597027
 20
78.728259
 30
0.0
 11
152.19595
 21
79.227515
 31
0.0
  0
LINE
  8
0
 10
146.71249
 20
77.433396
 30
0.0
 11
152.19595
 21
77.922357
 31
0.0
  0
LINE
  8
0
 10
146.71249
 20
79.483396
 30
0.0
 11
152.19595
 21
79.972357
 31
0.0
  0
CIRCLE
  8
0
 10
152.19595
 20
0.322379
 30
0.0
 40
10.0
  0
ARC
  8
0
 10
201.19595
 20
-5.427621
 30
0.0
 40
1.0
 50
270.0
 51
0.0
  0
ARC
  8
0
 10
201.19595
 20
6.072379
 30
0.0
 40
1.0
 50
0.0
 51
90.0
  0
LINE
  8
0
 10
194.19595
 20
7.072379
 30
0.0
 11
194.19595
 21
-6.427621
 31
0.0
  0
LINE
  8
0
 10
193.19595
 20
-5.427621
 30
0.0
 11
194.19595
 21
-6.427621
 31
0.0
  0
LINE
  8
0
 10
193.19595
 20
6.072379
 30
0.0
 11
194.19595
 21
7.072379
 31
0.0
  0
LINE
  8
0
 10
194.19595
 20
-6.427621
 30
0.0
 11
201.19595
 21
-6.427621
 31
0.0
  0
LINE
  8
0
 10
194.19595
 20
7.072379
 30
0.0
 11
201.19595
 21
7.072379
 31
0.0
  0
LINE
  8
0
 10
193.19595
 20
6.072379
 30
0.0
 11
193.19595
 21
-5.427621
 31
0.0
  0
LINE
  8
0
 10
160.856204
 20
-4.677621
 30
0.0
 11
193.19595
 21
-4.677621
 31
0.0
  0
LINE
  8
0
 10
160.856204
 20
5.322379
 30
0.0
 11
193.19595
 21
5.322379
 31
0.0
  0
LINE
  8
0
 10
202.19595
 20
6.072379
 30
0.0
 11
202.19595
 21
-5.427621
 31
0.0
  0
LINE
  8
0
 10
102.19595
 20
6.072379
 30
0.0
 11
102.19595
 21
-5.427621
 31
0.0
  0
LINE
  8
0
 10
156.349262
 20
5.322379
 30
0.0
 11
148.042638
 21
5.322379
 31
0.0
  0
LINE
  8
0
 10
156.349262
 20
-4.677621
 30
0.0
 11
148.042638
 21
-4.677621
 31
0.0
  0
LINE
  8
0
 10
111.19595
 20
6.072379
 30
0.0
 11
111.19595
 21
-5.427621
 31
0.0
  0
LINE
  8
0
 10
110.19595
 20
7.072379
 30
0.0
 11
103.19595
 21
7.072379
 31
0.0
  0
LINE
  8
0
 10
110.19595
 20
-6.427621
 30
0.0
 11
103.19595
 21
-6.427621
 31
0.0
  0
LINE
  8
0
 10
111.19595
 20
6.072379
 30
0.0
 11
110.19595
 21
7.072379
 31
0.0
  0
LINE
  8
0
 10
111.19595
 20
-5.427621
 30
0.0
 11
110.19595
 21
-6.427621
 31
0.0
  0
LINE
  8
0
 10
110.19595
 20
7.072379
 30
0.0
 11
110.19595
 21
-6.427621
 31
0.0
  0
ARC
  8
0
 10
103.19595
 20
6.072379
 30
0.0
 40
1.0
 50
90.0
 51
180.0
  0
ARC
  8
0
 10
103.19595
 20
-5.427621
 30
0.0
 40
1.0
 50
180.0
 51
270.0
  0
CIRCLE
  8
0
 10
152.19595
 20
0.322379
 30
0.0
 40
9.0
  0
CIRCLE
  8
0
 10
152.19595
 20
0.322379
 30
0.0
 40
7.0
  0
CIRCLE
  8
0
 10
152.19595
 20
0.322379
 30
0.0
 40
6.5
  0
LINE
  8
0
 10
143.535696
 20
5.322379
 30
0.0
 11
111.19595
 21
5.322379
 31
0.0
  0
LINE
  8
0
 10
143.535696
 20
-4.677621
 30
0.0
 11
111.19595
 21
-4.677621
 31
0.0
  0
ARC
  8
0
 10
152.19595
 20
0.322379
 30
0.0
 40
6.25
 50
233.130102
 51
306.869898
  0
ARC
  8
0
 10
152.19595
 20
0.322379
 30
0.0
 40
6.25
 50
53.130102
 51
126.869898
  0
ARC
  8
0
 10
170.856204
 20
87.280828
 30
0.0
 40
10.0
 50
150.0
 51
210.0
  0
LINE
  8
0
 10
162.19595
 20
82.280828
 30
0.0
 11
162.19595
 21
27.280828
 31
0.0
  0
INSERT
  8
0
  2
*X1
 10
-143.844335
 20
2.872151
 30
0.0
  0
LINE
  8
0
 10
239.229901
 20
95.280828
 30
0.0
 11
239.229901
 21
27.280828
 31
0.0
  0
LINE
  8
0
 10
219.229901
 20
95.280828
 30
0.0
 11
219.229901
 21
27.280828
 31
0.0
  0
LINE
  8
0
 10
222.229901
 20
96.280828
 30
0.0
 11
238.229901
 21
96.280828
 31
0.0
  0
LINE
  8
0
 10
225.24284
 20
96.280828
 30
0.0
 11
225.345534
 21
96.280828
 31
0.0
  0
LINE
  8
0
 10
239.229901
 20
27.280828
 30
0.0
 11
219.229901
 21
27.280828
 31
0.0
  0
LINE
  8
0
 10
239.229901
 20
95.280828
 30
0.0
 11
219.229901
 21
95.280828
 31
0.0
  0
LINE
  8
0
 10
220.229901
 20
26.280828
 30
0.0
 11
219.229901
 21
27.280828
 31
0.0
  0
LINE
  8
0
 10
239.229901
 20
27.280828
 30
0.0
 11
238.229901
 21
26.280828
 31
0.0
  0
LINE
  8
0
 10
238.229901
 20
96.280828
 30
0.0
 11
239.229901
 21
95.280828
 31
0.0
  0
LINE
  8
0
 10
219.229901
 20
95.280828
 30
0.0
 11
220.229901
 21
96.280828
 31
0.0
  0
LINE
  8
0
 10
220.229901
 20
26.280828
 30
0.0
 11
238.229901
 21
26.280828
 31
0.0
  0
LINE
  8
0
 10
220.229901
 20
96.280828
 30
0.0
 11
222.229901
 21
96.280828
 31
0.0
  0
CIRCLE
  8
0
 10
229.229901
 20
87.280828
 30
0.0
 40
6.75
  0
LINE
  8
0
 10
12.769502
 20
-44.541349
 30
0.0
 11
12.769502
 21
-46.541349
 31
0.0
  0
LINE
  8
0
 10
36.769502
 20
-44.541349
 30
0.0
 11
36.769502
 21
-46.541349
 31
0.0
  0
LINE
  8
0
 10
13.769502
 20
-128.541349
 30
0.0
 11
35.769502
 21
-128.541349
 31
0.0
  0
LINE
  8
0
 10
-35.230498
 20
-45.791349
 30
0.0
 11
-35.230498
 21
-60.291349
 31
0.0
  0
LINE
  8
0
 10
-32.230498
 20
-46.541349
 30
0.0
 11
-29.230498
 21
-46.541349
 31
0.0
  0
LINE
  8
0
 10
-32.230498
 20
-59.541349
 30
0.0
 11
-29.230498
 21
-59.541349
 31
0.0
  0
LINE
  8
0
 10
36.769502
 20
-46.541349
 30
0.0
 11
73.769502
 21
-46.541349
 31
0.0
  0
LINE
  8
0
 10
16.769502
 20
-93.541349
 30
0.0
 11
16.769502
 21
-128.541349
 31
0.0
  0
LINE
  8
0
 10
17.769502
 20
-83.541349
 30
0.0
 11
17.769502
 21
-127.541349
 31
0.0
  0
CIRCLE
  8
0
 10
24.769502
 20
-156.874855
 30
0.0
 40
12.0
  0
LINE
  8
0
 10
34.856623
 20
-163.374855
 30
0.0
 11
73.769502
 21
-163.374855
 31
0.0
  0
LINE
  8
0
 10
34.856623
 20
-150.374855
 30
0.0
 11
73.769502
 21
-150.374855
 31
0.0
  0
LINE
  8
0
 10
84.769502
 20
-149.624855
 30
0.0
 11
84.769502
 21
-164.124855
 31
0.0
  0
LINE
  8
0
 10
-35.230498
 20
-149.624855
 30
0.0
 11
-35.230498
 21
-164.124855
 31
0.0
  0
LINE
  8
0
 10
14.682382
 20
-150.374855
 30
0.0
 11
-24.230498
 21
-150.374855
 31
0.0
  0
LINE
  8
0
 10
14.682382
 20
-163.374855
 30
0.0
 11
-24.230498
 21
-163.374855
 31
0.0
  0
LINE
  8
0
 10
16.769502
 20
-93.541349
 30
0.0
 11
24.769502
 21
-93.541349
 31
0.0
  0
LINE
  8
0
 10
17.769502
 20
-83.541349
 30
0.0
 11
24.769502
 21
-83.541349
 31
0.0
  0
LINE
  8
0
 10
17.769502
 20
-83.541349
 30
0.0
 11
24.769502
 21
-79.499897
 31
0.0
  0
LINE
  8
0
 10
74.769502
 20
-148.624855
 30
0.0
 11
83.769502
 21
-148.624855
 31
0.0
  0
LINE
  8
0
 10
74.769502
 20
-165.124855
 30
0.0
 11
83.769502
 21
-165.124855
 31
0.0
  0
LINE
  8
0
 10
-34.230498
 20
-44.791349
 30
0.0
 11
-25.230498
 21
-44.791349
 31
0.0
  0
LINE
  8
0
 10
-34.230498
 20
-61.291349
 30
0.0
 11
-25.230498
 21
-61.291349
 31
0.0
  0
LINE
  8
0
 10
-24.230498
 20
-149.624855
 30
0.0
 11
-24.230498
 21
-164.124855
 31
0.0
  0
LINE
  8
0
 10
73.769502
 20
-149.624855
 30
0.0
 11
73.769502
 21
-164.124855
 31
0.0
  0
LINE
  8
0
 10
-24.230498
 20
-45.791349
 30
0.0
 11
-24.230498
 21
-46.541349
 31
0.0
  0
LINE
  8
0
 10
-34.230498
 20
-148.624855
 30
0.0
 11
-25.230498
 21
-148.624855
 31
0.0
  0
LINE
  8
0
 10
-34.230498
 20
-165.124855
 30
0.0
 11
-25.230498
 21
-165.124855
 31
0.0
  0
LINE
  8
0
 10
74.769502
 20
-44.791349
 30
0.0
 11
83.769502
 21
-44.791349
 31
0.0
  0
LINE
  8
0
 10
-25.230498
 20
-44.791349
 30
0.0
 11
-24.230498
 21
-45.791349
 31
0.0
  0
LINE
  8
0
 10
-24.230498
 20
-60.291349
 30
0.0
 11
-25.230498
 21
-61.291349
 31
0.0
  0
LINE
  8
0
 10
73.769502
 20
-45.791349
 30
0.0
 11
74.769502
 21
-44.791349
 31
0.0
  0
LINE
  8
0
 10
36.769502
 20
-44.541349
 30
0.0
 11
35.769502
 21
-43.541349
 31
0.0
  0
LINE
  8
0
 10
13.769502
 20
-43.541349
 30
0.0
 11
12.769502
 21
-44.541349
 31
0.0
  0
LINE
  8
0
 10
12.769502
 20
-127.541349
 30
0.0
 11
13.769502
 21
-128.541349
 31
0.0
  0
LINE
  8
0
 10
36.769502
 20
-127.541349
 30
0.0
 11
35.769502
 21
-128.541349
 31
0.0
  0
LINE
  8
0
 10
-25.230498
 20
-148.624855
 30
0.0
 11
-24.230498
 21
-149.624855
 31
0.0
  0
LINE
  8
0
 10
-24.230498
 20
-164.124855
 30
0.0
 11
-25.230498
 21
-165.124855
 31
0.0
  0
LINE
  8
0
 10
73.769502
 20
-164.124855
 30
0.0
 11
74.769502
 21
-165.124855
 31
0.0
  0
LINE
  8
0
 10
73.769502
 20
-149.624855
 30
0.0
 11
74.769502
 21
-148.624855
 31
0.0
  0
ARC
  8
0
 10
-34.230498
 20
-45.791349
 30
0.0
 40
1.0
 50
90.0
 51
180.0
  0
ARC
  8
0
 10
-34.230498
 20
-60.291349
 30
0.0
 40
1.0
 50
180.0
 51
270.0
  0
ARC
  8
0
 10
83.769502
 20
-45.791349
 30
0.0
 40
1.0
 50
0.0
 51
90.0
  0
ARC
  8
0
 10
-34.230498
 20
-149.624855
 30
0.0
 40
1.0
 50
90.0
 51
180.0
  0
ARC
  8
0
 10
-34.230498
 20
-164.124855
 30
0.0
 40
1.0
 50
180.0
 51
270.0
  0
ARC
  8
0
 10
83.769502
 20
-164.124855
 30
0.0
 40
1.0
 50
270.0
 51
0.0
  0
ARC
  8
0
 10
83.769502
 20
-149.624855
 30
0.0
 40
1.0
 50
0.0
 51
90.0
  0
LINE
  8
0
 10
-25.230498
 20
-148.624855
 30
0.0
 11
-25.230498
 21
-165.124855
 31
0.0
  0
LINE
  8
0
 10
74.769502
 20
-148.624855
 30
0.0
 11
74.769502
 21
-165.124855
 31
0.0
  0
CIRCLE
  8
0
 10
24.769502
 20
-156.874855
 30
0.0
 40
11.0
  0
LINE
  8
0
 10
18.269502
 20
-44.041349
 30
0.0
 11
18.269502
 21
-46.541349
 31
0.0
  0
LINE
  8
0
 10
18.269502
 20
-73.541349
 30
0.0
 11
24.769502
 21
-73.541349
 31
0.0
  0
CIRCLE
  8
0
 10
24.769502
 20
-156.874855
 30
0.0
 40
6.5
  0
CIRCLE
  8
0
 10
24.769502
 20
-156.874855
 30
0.0
 40
7.0
  0
LINE
  8
0
 10
18.269502
 20
-73.541349
 30
0.0
 11
24.769502
 21
-77.294126
 31
0.0
  0
LINE
  8
0
 10
13.769502
 20
-43.541349
 30
0.0
 11
35.769502
 21
-43.541349
 31
0.0
  0
LINE
  8
0
 10
17.769502
 20
-43.541349
 30
0.0
 11
18.269502
 21
-44.041349
 31
0.0
  0
LINE
  8
0
 10
36.769502
 20
-44.541349
 30
0.0
 11
24.769502
 21
-44.541349
 31
0.0
  0
LINE
  8
0
 10
36.769502
 20
-127.541349
 30
0.0
 11
24.769502
 21
-127.541349
 31
0.0
  0
LINE
  8
0
 10
-24.230498
 20
-59.541349
 30
0.0
 11
-24.230498
 21
-60.291349
 31
0.0
  0
LINE
  8
0
 10
12.769502
 20
-59.541349
 30
0.0
 11
12.769502
 21
-127.541349
 31
0.0
  0
LINE
  8
0
 10
18.269502
 20
-59.541349
 30
0.0
 11
18.269502
 21
-73.541349
 31
0.0
  0
LINE
  8
0
 10
-33.230498
 20
-47.541349
 30
0.0
 11
-33.230498
 21
-58.541349
 31
0.0
  0
LINE
  8
0
 10
-32.230498
 20
-46.541349
 30
0.0
 11
-33.230498
 21
-47.541349
 31
0.0
  0
LINE
  8
0
 10
-33.230498
 20
-58.541349
 30
0.0
 11
-32.230498
 21
-59.541349
 31
0.0
  0
LINE
  8
0
 10
-29.230498
 20
-46.541349
 30
0.0
 11
-28.230498
 21
-47.041349
 31
0.0
  0
LINE
  8
0
 10
-28.230498
 20
-47.041349
 30
0.0
 11
-27.230498
 21
-46.541349
 31
0.0
  0
LINE
  8
0
 10
-28.230498
 20
-59.041349
 30
0.0
 11
-29.230498
 21
-59.541349
 31
0.0
  0
LINE
  8
0
 10
-28.230498
 20
-59.041349
 30
0.0
 11
-27.230498
 21
-59.541349
 31
0.0
  0
LINE
  8
0
 10
-27.230498
 20
-46.541349
 30
0.0
 11
24.769502
 21
-46.541349
 31
0.0
  0
LINE
  8
0
 10
-27.230498
 20
-59.541349
 30
0.0
 11
24.769502
 21
-59.541349
 31
0.0
  0
ARC
  8
0
 10
107.19595
 20
81.413132
 30
0.0
 40
1.146907
 50
49.161214
 51
130.838786
  0
ARC
  8
0
 10
-28.230498
 20
-44.846035
 30
0.0
 40
1.968271
 50
239.4653
 51
300.5347
  0
ARC
  8
0
 10
-28.230498
 20
-61.236664
 30
0.0
 40
1.968271
 50
59.4653
 51
120.5347
  0
INSERT
  8
0
  2
*X2
 10
-85.231271
 20
7.239478
 30
0.0
  0
LINE
  8
0
  6
CENTER
 10
24.769502
 20
-38.979106
 30
0.0
 11
24.769502
 21
-132.097197
 31
0.0
  0
LINE
  8
0
 10
102.789363
 20
-44.541349
 30
0.0
 11
102.789363
 21
-127.541349
 31
0.0
  0
LINE
  8
0
 10
103.789363
 20
-43.541349
 30
0.0
 11
125.789363
 21
-43.541349
 31
0.0
  0
LINE
  8
0
 10
126.789363
 20
-127.541349
 30
0.0
 11
125.789363
 21
-128.541349
 31
0.0
  0
LINE
  8
0
 10
102.789363
 20
-127.541349
 30
0.0
 11
103.789363
 21
-128.541349
 31
0.0
  0
LINE
  8
0
 10
103.789363
 20
-43.541349
 30
0.0
 11
102.789363
 21
-44.541349
 31
0.0
  0
LINE
  8
0
 10
126.789363
 20
-44.541349
 30
0.0
 11
125.789363
 21
-43.541349
 31
0.0
  0
LINE
  8
0
 10
103.789363
 20
-128.541349
 30
0.0
 11
125.789363
 21
-128.541349
 31
0.0
  0
LINE
  8
0
 10
126.789363
 20
-44.541349
 30
0.0
 11
126.789363
 21
-127.541349
 31
0.0
  0
ARC
  8
0
 10
83.769502
 20
-60.291349
 30
0.0
 40
1.0
 50
270.0
 51
0.0
  0
LINE
  8
0
 10
73.769502
 20
-60.291349
 30
0.0
 11
74.769502
 21
-61.291349
 31
0.0
  0
LINE
  8
0
 10
74.769502
 20
-61.291349
 30
0.0
 11
83.769502
 21
-61.291349
 31
0.0
  0
LINE
  8
0
 10
36.769502
 20
-59.541349
 30
0.0
 11
73.769502
 21
-59.541349
 31
0.0
  0
LINE
  8
0
 10
73.769502
 20
-45.791349
 30
0.0
 11
73.769502
 21
-60.291349
 31
0.0
  0
LINE
  8
0
 10
84.769502
 20
-45.791349
 30
0.0
 11
84.769502
 21
-60.291349
 31
0.0
  0
CIRCLE
  8
0
 10
114.789363
 20
-53.041349
 30
0.0
 40
8.25
  0
LINE
  8
0
 10
74.769502
 20
-44.791349
 30
0.0
 11
74.769502
 21
-61.291349
 31
0.0
  0
LINE
  8
0
 10
102.789363
 20
-44.541349
 30
0.0
 11
126.789363
 21
-44.541349
 31
0.0
  0
LINE
  8
0
 10
102.789363
 20
-127.541349
 30
0.0
 11
126.789363
 21
-127.541349
 31
0.0
  0
LINE
  8
0
 10
18.269502
 20
-44.041349
 30
0.0
 11
24.769502
 21
-44.041349
 31
0.0
  0
LINE
  8
0
 10
18.769502
 20
-59.541349
 30
0.0
 11
18.769502
 21
-61.041349
 31
0.0
  0
LINE
  8
0
 10
18.769502
 20
-61.041349
 30
0.0
 11
24.769502
 21
-61.041349
 31
0.0
  0
CIRCLE
  8
0
 10
19.281242
 20
-61.691349
 30
0.0
 40
0.65
  0
CIRCLE
  8
0
 10
19.281242
 20
-72.891349
 30
0.0
 40
0.65
  0
CIRCLE
  8
0
 10
19.281242
 20
-67.291349
 30
0.0
 40
0.65
  0
CIRCLE
  8
0
 10
19.281242
 20
-64.491349
 30
0.0
 40
0.65
  0
CIRCLE
  8
0
 10
19.281242
 20
-70.091349
 30
0.0
 40
0.65
  0
LINE
  8
0
 10
19.196483
 20
-72.246899
 30
0.0
 11
24.769502
 21
-71.513928
 31
0.0
  0
LINE
  8
0
 10
19.366001
 20
-73.535799
 30
0.0
 11
24.769502
 21
-72.825124
 31
0.0
  0
LINE
  8
0
 10
19.196483
 20
-69.446899
 30
0.0
 11
24.769502
 21
-68.713928
 31
0.0
  0
LINE
  8
0
 10
19.366001
 20
-70.735799
 30
0.0
 11
24.769502
 21
-70.025124
 31
0.0
  0
LINE
  8
0
 10
19.196483
 20
-66.646899
 30
0.0
 11
24.769502
 21
-65.913928
 31
0.0
  0
LINE
  8
0
 10
19.366001
 20
-67.935799
 30
0.0
 11
24.769502
 21
-67.225124
 31
0.0
  0
LINE
  8
0
 10
19.196483
 20
-63.846899
 30
0.0
 11
24.769502
 21
-63.113928
 31
0.0
  0
LINE
  8
0
 10
19.366001
 20
-65.135799
 30
0.0
 11
24.769502
 21
-64.425124
 31
0.0
  0
LINE
  8
0
 10
19.366001
 20
-62.335799
 30
0.0
 11
24.769502
 21
-61.625124
 31
0.0
  0
LINE
  8
0
 10
216.653805
 20
-34.541349
 30
0.0
 11
216.653805
 21
-39.541349
 31
0.0
  0
LINE
  8
0
 10
246.653805
 20
-34.541349
 30
0.0
 11
246.653805
 21
-39.541349
 31
0.0
  0
LINE
  8
0
 10
217.653805
 20
-128.541349
 30
0.0
 11
245.653805
 21
-128.541349
 31
0.0
  0
LINE
  8
0
  6
CENTER
 10
231.653805
 20
-25.582054
 30
0.0
 11
231.653805
 21
-137.292105
 31
0.0
  0
LINE
  8
0
 10
161.653805
 20
-39.041349
 30
0.0
 11
161.653805
 21
-56.041349
 31
0.0
  0
LINE
  8
0
 10
301.653805
 20
-39.041349
 30
0.0
 11
301.653805
 21
-56.041349
 31
0.0
  0
LINE
  8
0
 10
164.653805
 20
-39.541349
 30
0.0
 11
169.653805
 21
-39.541349
 31
0.0
  0
LINE
  8
0
 10
164.653805
 20
-55.541349
 30
0.0
 11
169.653805
 21
-55.541349
 31
0.0
  0
LINE
  8
0
 10
246.653805
 20
-39.541349
 30
0.0
 11
288.653805
 21
-39.541349
 31
0.0
  0
LINE
  8
0
 10
246.653805
 20
-55.541349
 30
0.0
 11
288.653805
 21
-55.541349
 31
0.0
  0
LINE
  8
0
 10
163.153805
 20
-37.541349
 30
0.0
 11
173.653805
 21
-37.541349
 31
0.0
  0
LINE
  8
0
 10
163.153805
 20
-57.541349
 30
0.0
 11
173.653805
 21
-57.541349
 31
0.0
  0
LINE
  8
0
 10
174.653805
 20
-38.541349
 30
0.0
 11
174.653805
 21
-39.541349
 31
0.0
  0
LINE
  8
0
 10
288.653805
 20
-38.541349
 30
0.0
 11
288.653805
 21
-56.541349
 31
0.0
  0
LINE
  8
0
 10
289.653805
 20
-37.541349
 30
0.0
 11
300.153805
 21
-37.541349
 31
0.0
  0
LINE
  8
0
 10
289.653805
 20
-57.541349
 30
0.0
 11
300.153805
 21
-57.541349
 31
0.0
  0
ARC
  8
0
 10
46.856623
 20
-53.041349
 30
0.0
 40
12.0
 50
147.202832
 51
212.797168
  0
LINE
  8
0
 10
36.769502
 20
-59.541349
 30
0.0
 11
36.769502
 21
-127.541349
 31
0.0
  0
LINE
  8
0
 10
174.653805
 20
-38.541349
 30
0.0
 11
173.653805
 21
-37.541349
 31
0.0
  0
LINE
  8
0
 10
174.653805
 20
-56.541349
 30
0.0
 11
173.653805
 21
-57.541349
 31
0.0
  0
LINE
  8
0
 10
216.653805
 20
-34.541349
 30
0.0
 11
217.653805
 21
-33.541349
 31
0.0
  0
LINE
  8
0
 10
245.653805
 20
-33.541349
 30
0.0
 11
246.653805
 21
-34.541349
 31
0.0
  0
LINE
  8
0
 10
246.653805
 20
-127.541349
 30
0.0
 11
245.653805
 21
-128.541349
 31
0.0
  0
LINE
  8
0
 10
217.653805
 20
-128.541349
 30
0.0
 11
216.653805
 21
-127.541349
 31
0.0
  0
LINE
  8
0
 10
289.653805
 20
-57.541349
 30
0.0
 11
288.653805
 21
-56.541349
 31
0.0
  0
LINE
  8
0
 10
288.653805
 20
-38.541349
 30
0.0
 11
289.653805
 21
-37.541349
 31
0.0
  0
ARC
  8
0
 10
163.153805
 20
-39.041349
 30
0.0
 40
1.5
 50
90.0
 51
180.0
  0
ARC
  8
0
 10
163.153805
 20
-56.041349
 30
0.0
 40
1.5
 50
180.0
 51
270.0
  0
ARC
  8
0
 10
300.153805
 20
-56.041349
 30
0.0
 40
1.5
 50
270.0
 51
0.0
  0
ARC
  8
0
 10
300.153805
 20
-39.041349
 30
0.0
 40
1.5
 50
0.0
 51
90.0
  0
LINE
  8
0
 10
246.653805
 20
-34.541349
 30
0.0
 11
231.653805
 21
-34.541349
 31
0.0
  0
LINE
  8
0
 10
289.653805
 20
-37.541349
 30
0.0
 11
289.653805
 21
-57.541349
 31
0.0
  0
LINE
  8
0
 10
246.653805
 20
-127.541349
 30
0.0
 11
231.653805
 21
-127.541349
 31
0.0
  0
LINE
  8
0
 10
174.653805
 20
-55.541349
 30
0.0
 11
174.653805
 21
-56.541349
 31
0.0
  0
LINE
  8
0
 10
226.250304
 20
-58.335799
 30
0.0
 11
231.653805
 21
-57.625124
 31
0.0
  0
LINE
  8
0
 10
226.250304
 20
-60.455799
 30
0.0
 11
231.653805
 21
-59.745124
 31
0.0
  0
LINE
  8
0
 10
226.080786
 20
-59.166899
 30
0.0
 11
231.653805
 21
-58.433928
 31
0.0
  0
LINE
  8
0
 10
226.250304
 20
-62.575799
 30
0.0
 11
231.653805
 21
-61.865124
 31
0.0
  0
LINE
  8
0
 10
226.080786
 20
-61.286899
 30
0.0
 11
231.653805
 21
-60.553928
 31
0.0
  0
LINE
  8
0
 10
226.250304
 20
-64.695799
 30
0.0
 11
231.653805
 21
-63.985124
 31
0.0
  0
LINE
  8
0
 10
226.080786
 20
-63.406899
 30
0.0
 11
231.653805
 21
-62.673928
 31
0.0
  0
LINE
  8
0
 10
226.250304
 20
-66.815799
 30
0.0
 11
231.653805
 21
-66.105124
 31
0.0
  0
LINE
  8
0
 10
226.080786
 20
-65.526899
 30
0.0
 11
231.653805
 21
-64.793928
 31
0.0
  0
CIRCLE
  8
0
 10
226.165545
 20
-64.051349
 30
0.0
 40
0.65
  0
CIRCLE
  8
0
 10
226.165545
 20
-59.811349
 30
0.0
 40
0.65
  0
CIRCLE
  8
0
 10
226.165545
 20
-61.931349
 30
0.0
 40
0.65
  0
CIRCLE
  8
0
 10
226.165545
 20
-66.171349
 30
0.0
 40
0.65
  0
CIRCLE
  8
0
 10
226.165545
 20
-57.691349
 30
0.0
 40
0.65
  0
LINE
  8
0
 10
225.653805
 20
-57.041349
 30
0.0
 11
231.653805
 21
-57.041349
 31
0.0
  0
LINE
  8
0
 10
225.653805
 20
-55.541349
 30
0.0
 11
225.653805
 21
-57.041349
 31
0.0
  0
LINE
  8
0
 10
225.153805
 20
-35.041349
 30
0.0
 11
225.153805
 21
-39.541349
 31
0.0
  0
LINE
  8
0
 10
225.153805
 20
-66.821349
 30
0.0
 11
231.653805
 21
-70.574126
 31
0.0
  0
LINE
  8
0
 10
225.153805
 20
-66.821349
 30
0.0
 11
231.653805
 21
-66.821349
 31
0.0
  0
LINE
  8
0
 10
352.383152
 20
-127.541349
 30
0.0
 11
322.383152
 21
-127.541349
 31
0.0
  0
LINE
  8
0
 10
352.383152
 20
-34.541349
 30
0.0
 11
322.383152
 21
-34.541349
 31
0.0
  0
LINE
  8
0
 10
323.383152
 20
-128.541349
 30
0.0
 11
322.383152
 21
-127.541349
 31
0.0
  0
LINE
  8
0
 10
352.383152
 20
-127.541349
 30
0.0
 11
351.383152
 21
-128.541349
 31
0.0
  0
LINE
  8
0
 10
351.383152
 20
-33.541349
 30
0.0
 11
352.383152
 21
-34.541349
 31
0.0
  0
LINE
  8
0
 10
322.383152
 20
-34.541349
 30
0.0
 11
323.383152
 21
-33.541349
 31
0.0
  0
LINE
  8
0
 10
323.383152
 20
-128.541349
 30
0.0
 11
351.383152
 21
-128.541349
 31
0.0
  0
LINE
  8
0
 10
323.383152
 20
-33.541349
 30
0.0
 11
351.383152
 21
-33.541349
 31
0.0
  0
LINE
  8
0
 10
352.383152
 20
-34.541349
 30
0.0
 11
352.383152
 21
-127.541349
 31
0.0
  0
LINE
  8
0
 10
322.383152
 20
-34.541349
 30
0.0
 11
322.383152
 21
-127.541349
 31
0.0
  0
CIRCLE
  8
0
 10
337.383152
 20
-47.541349
 30
0.0
 40
10.0
  0
LINE
  8
0
 10
221.653805
 20
-88.541349
 30
0.0
 11
221.653805
 21
-128.541349
 31
0.0
  0
LINE
  8
0
 10
222.903805
 20
-76.819661
 30
0.0
 11
231.653805
 21
-71.767847
 31
0.0
  0
LINE
  8
0
 10
222.903805
 20
-76.819661
 30
0.0
 11
222.903805
 21
-127.291349
 31
0.0
  0
LINE
  8
0
 10
221.653805
 20
-88.541349
 30
0.0
 11
231.653805
 21
-88.541349
 31
0.0
  0
LINE
  8
0
 10
163.653805
 20
-40.541349
 30
0.0
 11
163.653805
 21
-54.541349
 31
0.0
  0
LINE
  8
0
 10
163.653805
 20
-40.541349
 30
0.0
 11
164.653805
 21
-39.541349
 31
0.0
  0
LINE
  8
0
 10
163.653805
 20
-54.541349
 30
0.0
 11
164.653805
 21
-55.541349
 31
0.0
  0
LINE
  8
0
 10
169.653805
 20
-39.541349
 30
0.0
 11
170.653805
 21
-40.541349
 31
0.0
  0
LINE
  8
0
 10
170.653805
 20
-40.541349
 30
0.0
 11
171.653805
 21
-39.541349
 31
0.0
  0
LINE
  8
0
 10
169.653805
 20
-55.541349
 30
0.0
 11
170.653805
 21
-54.541349
 31
0.0
  0
LINE
  8
0
 10
170.653805
 20
-54.541349
 30
0.0
 11
171.653805
 21
-55.541349
 31
0.0
  0
LINE
  8
0
 10
169.653805
 20
-39.541349
 30
0.0
 11
170.653805
 21
-40.041349
 31
0.0
  0
LINE
  8
0
 10
170.653805
 20
-40.041349
 30
0.0
 11
171.653805
 21
-39.541349
 31
0.0
  0
LINE
  8
0
 10
169.653805
 20
-55.541349
 30
0.0
 11
170.653805
 21
-55.041349
 31
0.0
  0
LINE
  8
0
 10
170.653805
 20
-55.041349
 30
0.0
 11
171.653805
 21
-55.541349
 31
0.0
  0
LINE
  8
0
 10
171.653805
 20
-55.541349
 30
0.0
 11
231.653805
 21
-55.541349
 31
0.0
  0
LINE
  8
0
 10
171.653805
 20
-39.541349
 30
0.0
 11
231.653805
 21
-39.541349
 31
0.0
  0
LINE
  8
0
 10
225.153805
 20
-55.541349
 30
0.0
 11
225.153805
 21
-66.821349
 31
0.0
  0
LINE
  8
0
 10
217.653805
 20
-33.541349
 30
0.0
 11
245.653805
 21
-33.541349
 31
0.0
  0
LINE
  8
0
 10
223.653805
 20
-33.541349
 30
0.0
 11
225.153805
 21
-35.041349
 31
0.0
  0
LINE
  8
0
 10
225.153805
 20
-35.041349
 30
0.0
 11
231.653805
 21
-35.041349
 31
0.0
  0
LINE
  8
0
 10
222.903805
 20
-76.819661
 30
0.0
 11
231.653805
 21
-76.819661
 31
0.0
  0
LINE
  8
0
 10
216.653805
 20
-55.541349
 30
0.0
 11
216.653805
 21
-127.541349
 31
0.0
  0
LINE
  8
0
 10
174.653805
 20
-152.662302
 30
0.0
 11
218.965228
 21
-152.662302
 31
0.0
  0
LINE
  8
0
 10
174.653805
 20
-168.662302
 30
0.0
 11
218.965228
 21
-168.662302
 31
0.0
  0
LINE
  8
0
 10
289.653805
 20
-150.662302
 30
0.0
 11
289.653805
 21
-170.662302
 31
0.0
  0
ARC
  8
0
 10
300.153805
 20
-152.162302
 30
0.0
 40
1.5
 50
0.0
 51
90.0
  0
ARC
  8
0
 10
300.153805
 20
-169.162302
 30
0.0
 40
1.5
 50
270.0
 51
0.0
  0
ARC
  8
0
 10
163.153805
 20
-169.162302
 30
0.0
 40
1.5
 50
180.0
 51
270.0
  0
ARC
  8
0
 10
163.153805
 20
-152.162302
 30
0.0
 40
1.5
 50
90.0
 51
180.0
  0
LINE
  8
0
 10
288.653805
 20
-151.662302
 30
0.0
 11
289.653805
 21
-150.662302
 31
0.0
  0
LINE
  8
0
 10
289.653805
 20
-170.662302
 30
0.0
 11
288.653805
 21
-169.662302
 31
0.0
  0
LINE
  8
0
 10
174.653805
 20
-169.662302
 30
0.0
 11
173.653805
 21
-170.662302
 31
0.0
  0
LINE
  8
0
 10
174.653805
 20
-151.662302
 30
0.0
 11
173.653805
 21
-150.662302
 31
0.0
  0
LINE
  8
0
 10
289.653805
 20
-170.662302
 30
0.0
 11
300.153805
 21
-170.662302
 31
0.0
  0
LINE
  8
0
 10
289.653805
 20
-150.662302
 30
0.0
 11
300.153805
 21
-150.662302
 31
0.0
  0
LINE
  8
0
 10
288.653805
 20
-151.662302
 30
0.0
 11
288.653805
 21
-169.662302
 31
0.0
  0
LINE
  8
0
 10
174.653805
 20
-151.662302
 30
0.0
 11
174.653805
 21
-169.662302
 31
0.0
  0
LINE
  8
0
 10
163.153805
 20
-170.662302
 30
0.0
 11
173.653805
 21
-170.662302
 31
0.0
  0
LINE
  8
0
 10
163.153805
 20
-150.662302
 30
0.0
 11
173.653805
 21
-150.662302
 31
0.0
  0
LINE
  8
0
 10
244.342383
 20
-168.662302
 30
0.0
 11
288.653805
 21
-168.662302
 31
0.0
  0
LINE
  8
0
 10
244.342383
 20
-152.662302
 30
0.0
 11
288.653805
 21
-152.662302
 31
0.0
  0
LINE
  8
0
 10
301.653805
 20
-152.162302
 30
0.0
 11
301.653805
 21
-169.162302
 31
0.0
  0
LINE
  8
0
 10
161.653805
 20
-152.162302
 30
0.0
 11
161.653805
 21
-169.162302
 31
0.0
  0
CIRCLE
  8
0
 10
231.653805
 20
-160.662302
 30
0.0
 40
6.5
  0
CIRCLE
  8
0
 10
231.653805
 20
-160.662302
 30
0.0
 40
15.0
  0
CIRCLE
  8
0
 10
231.653805
 20
-160.662302
 30
0.0
 40
14.0
  0
CIRCLE
  8
0
 10
231.653805
 20
-160.662302
 30
0.0
 40
8.0
  0
LINE
  8
0
 10
173.653805
 20
-150.662302
 30
0.0
 11
173.653805
 21
-170.662302
 31
0.0
  0
ARC
  8
0
 10
259.342383
 20
-47.541349
 30
0.0
 40
15.0
 50
147.769047
 51
212.230953
  0
LINE
  8
0
 10
246.653805
 20
-55.541349
 30
0.0
 11
246.653805
 21
-127.541349
 31
0.0
  0
INSERT
  8
0
  2
*X3
 10
-140.76559
 20
6.363756
 30
0.0
  0
LINE
  8
0
 10
0.519502
 20
27.030828
 30
0.0
 11
4.769502
 21
27.030828
 31
0.0
  0
LINE
  8
0
 10
-0.230498
 20
26.280828
 30
0.0
 11
0.519502
 21
27.030828
 31
0.0
  0
LINE
  8
0
 10
147.09595
 20
27.180828
 30
0.0
 11
152.19595
 21
27.180828
 31
0.0
  0
LINE
  8
0
 10
146.19595
 20
26.280828
 30
0.0
 11
147.09595
 21
27.180828
 31
0.0
  0
LINE
  8
0
 10
17.769502
 20
-127.541349
 30
0.0
 11
24.769502
 21
-127.541349
 31
0.0
  0
LINE
  8
0
 10
16.769502
 20
-128.541349
 30
0.0
 11
17.769502
 21
-127.541349
 31
0.0
  0
LINE
  8
0
 10
222.903805
 20
-127.291349
 30
0.0
 11
231.653805
 21
-127.291349
 31
0.0
  0
LINE
  8
0
 10
221.653805
 20
-128.541349
 30
0.0
 11
222.903805
 21
-127.291349
 31
0.0
  0
INSERT
  8
0
  2
*X4
 10
0.0
 20
0.0
 30
0.0
1001
ACAD
1000
HATCH
1002
{
1070
    16
1000
ANSI31
1040
12.0
1040
0.0
1002
}
  0
INSERT
  8
0
  2
*X5
 10
0.0
 20
0.0
 30
0.0
1001
ACAD
1000
HATCH
1002
{
1070
    16
1000
ANSI31
1040
12.0
1040
0.0
1002
}
  0
INSERT
  8
0
  2
*X6
 10
0.0
 20
0.0
 30
0.0
1001
ACAD
1000
HATCH
1002
{
1070
    16
1000
ANSI31
1040
15.0
1040
0.0
1002
}
  0
INSERT
  8
0
  2
*X7
 10
0.0
 20
0.0
 30
0.0
1001
ACAD
1000
HATCH
1002
{
1070
    16
1000
ANSI31
1040
15.0
1040
0.0
1002
}
  0
INSERT
  8
0
  2
*X8
 10
0.0
 20
0.0
 30
0.0
1001
ACAD
1000
HATCH
1002
{
1070
    16
1000
ANSI31
1040
15.0
1040
0.0
1002
}
  0
INSERT
  8
0
  2
*X9
 10
0.0
 20
0.0
 30
0.0
1001
ACAD
1000
HATCH
1002
{
1070
    16
1000
ANSI31
1040
15.0
1040
0.0
1002
}
  0
INSERT
  8
0
  2
*X10
 10
0.0
 20
0.0
 30
0.0
1001
ACAD
1000
HATCH
1002
{
1070
    16
1000
ANSI31
1040
20.0
1040
0.0
1002
}
  0
INSERT
  8
0
  2
*X11
 10
0.0
 20
0.0
 30
0.0
1001
ACAD
1000
HATCH
1002
{
1070
    16
1000
ANSI31
1040
20.0
1040
0.0
1002
}
  0
ENDSEC
  0
EOF
