  0
SECTION
  2
HEADER
  9
$ACADVER
  1
AC1009
  9
$INSBASE
 10
481.719006
 20
-248.848063
 30
0.0
  9
$EXTMIN
 10
244.515976
 20
-353.144512
 30
0.0
  9
$EXTMAX
 10
643.974456
 20
-45.826191
 30
0.0
  9
$LIMMIN
 10
0.0
 20
0.0
  9
$LIMMAX
 10
12.0
 20
9.0
  9
$ORTHOMODE
 70
     1
  9
$REGENMODE
 70
     1
  9
$FILLMODE
 70
     1
  9
$QTEXTMODE
 70
     0
  9
$MIRRTEXT
 70
     1
  9
$DRAGMODE
 70
     2
  9
$LTSCALE
 40
4.0
  9
$OSMODE
 70
     0
  9
$ATTMODE
 70
     1
  9
$TEXTSIZE
 40
0.2
  9
$TRACEWID
 40
0.05
  9
$TEXTSTYLE
  7
STANDARD
  9
$CLAYER
  8
0
  9
$CELTYPE
  6
BYLAYER
  9
$CECOLOR
 62
   256
  9
$DIMSCALE
 40
1.0
  9
$DIMASZ
 40
2.5
  9
$DIMEXO
 40
0.0
  9
$DIMDLI
 40
5.0
  9
$DIMRND
 40
0.0
  9
$DIMDLE
 40
0.0
  9
$DIMEXE
 40
1.0
  9
$DIMTP
 40
0.0
  9
$DIMTM
 40
0.0
  9
$DIMTXT
 40
2.5
  9
$DIMCEN
 40
0.09
  9
$DIMTSZ
 40
0.0
  9
$DIMTOL
 70
     0
  9
$DIMLIM
 70
     0
  9
$DIMTIH
 70
     0
  9
$DIMTOH
 70
     0
  9
$DIMSE1
 70
     0
  9
$DIMSE2
 70
     0
  9
$DIMTAD
 70
     1
  9
$DIMZIN
 70
     0
  9
$DIMBLK
  1

  9
$DIMASO
 70
     0
  9
$DIMSHO
 70
     0
  9
$DIMPOST
  1

  9
$DIMAPOST
  1

  9
$DIMALT
 70
     0
  9
$DIMALTD
 70
     2
  9
$DIMALTF
 40
25.4
  9
$DIMLFAC
 40
1.0
  9
$DIMTOFL
 70
     1
  9
$DIMTVP
 40
0.0
  9
$DIMTIX
 70
     0
  9
$DIMSOXD
 70
     0
  9
$DIMSAH
 70
     0
  9
$DIMBLK1
  1

  9
$DIMBLK2
  1

  9
$DIMSTYLE
  2
*UNNAMED
  9
$DIMCLRD
 70
     0
  9
$DIMCLRE
 70
     0
  9
$DIMCLRT
 70
     0
  9
$DIMTFAC
 40
1.0
  9
$DIMGAP
 40
0.09
  9
$LUNITS
 70
     2
  9
$LUPREC
 70
     4
  9
$SKETCHINC
 40
0.1
  9
$FILLETRAD
 40
0.0
  9
$AUNITS
 70
     0
  9
$AUPREC
 70
     0
  9
$MENU
  1
wiberger
  9
$ELEVATION
 40
0.0
  9
$PELEVATION
 40
0.0
  9
$THICKNESS
 40
0.0
  9
$LIMCHECK
 70
     0
  9
$BLIPMODE
 70
     1
  9
$CHAMFERA
 40
0.0
  9
$CHAMFERB
 40
0.0
  9
$SKPOLY
 70
     0
  9
$TDCREATE
 40
2450192.377748148
  9
$TDUPDATE
 40
2450211.513009722
  9
$TDINDWG
 40
0.0003515046
  9
$TDUSRTIMER
 40
0.0003515046
  9
$USRTIMER
 70
     1
  9
$ANGBASE
 50
0.0
  9
$ANGDIR
 70
     0
  9
$PDMODE
 70
     0
  9
$PDSIZE
 40
0.0
  9
$PLINEWID
 40
0.0
  9
$COORDS
 70
     0
  9
$SPLFRAME
 70
     0
  9
$SPLINETYPE
 70
     6
  9
$SPLINESEGS
 70
     8
  9
$ATTDIA
 70
     0
  9
$ATTREQ
 70
     1
  9
$HANDLING
 70
     0
  9
$HANDSEED
  5
0
  9
$SURFTAB1
 70
     6
  9
$SURFTAB2
 70
     6
  9
$SURFTYPE
 70
     6
  9
$SURFU
 70
     6
  9
$SURFV
 70
     6
  9
$UCSNAME
  2

  9
$UCSORG
 10
0.0
 20
0.0
 30
0.0
  9
$UCSXDIR
 10
1.0
 20
0.0
 30
0.0
  9
$UCSYDIR
 10
0.0
 20
1.0
 30
0.0
  9
$PUCSNAME
  2

  9
$PUCSORG
 10
0.0
 20
0.0
 30
0.0
  9
$PUCSXDIR
 10
1.0
 20
0.0
 30
0.0
  9
$PUCSYDIR
 10
0.0
 20
1.0
 30
0.0
  9
$USERI1
 70
     0
  9
$USERI2
 70
     0
  9
$USERI3
 70
     0
  9
$USERI4
 70
     0
  9
$USERI5
 70
     0
  9
$USERR1
 40
0.0
  9
$USERR2
 40
0.0
  9
$USERR3
 40
0.0
  9
$USERR4
 40
0.0
  9
$USERR5
 40
0.0
  9
$WORLDVIEW
 70
     1
  9
$SHADEDGE
 70
     3
  9
$SHADEDIF
 70
    70
  9
$TILEMODE
 70
     1
  9
$MAXACTVP
 70
    16
  9
$PINSBASE
 10
0.0
 20
0.0
 30
0.0
  9
$PLIMCHECK
 70
     0
  9
$PEXTMIN
 10
1.000000E+20
 20
1.000000E+20
 30
1.000000E+20
  9
$PEXTMAX
 10
-1.000000E+20
 20
-1.000000E+20
 30
-1.000000E+20
  9
$PLIMMIN
 10
0.0
 20
0.0
  9
$PLIMMAX
 10
12.0
 20
9.0
  9
$UNITMODE
 70
     0
  9
$VISRETAIN
 70
     0
  9
$PLINEGEN
 70
     0
  9
$PSLTSCALE
 70
     0
  9
$TREEDEPTH
 70
  3020
  9
$DWGCODEPAGE
  3
undefined
  0
ENDSEC
  0
SECTION
  2
TABLES
  0
TABLE
  2
VPORT
 70
     2
  0
VPORT
  2
*ACTIVE
 70
     0
 10
0.0
 20
0.0
 11
1.0
 21
1.0
 12
504.269006
 22
-198.986383
 13
0.0
 23
0.0
 14
1.0
 24
1.0
 15
0.0
 25
0.0
 16
0.0
 26
0.0
 36
1.0
 17
0.0
 27
0.0
 37
0.0
 40
331.860407
 41
1.767507
 42
50.0
 43
0.0
 44
0.0
 50
0.0
 51
0.0
 71
     0
 72
   100
 73
     1
 74
     0
 75
     0
 76
     0
 77
     0
 78
     0
  0
ENDTAB
  0
TABLE
  2
LTYPE
 70
     2
  0
LTYPE
  2
CONTINUOUS
 70
    64
  3
Solid line
 72
    65
 73
     0
 40
0.0
  0
LTYPE
  2
CENTER
 70
     0
  3
____ _ ____ _ ____ _ ____ _ ____ _ ____ _ ____
 72
    65
 73
     4
 40
2.0
 49
1.25
 49
-0.25
 49
0.25
 49
-0.25
  0
ENDTAB
  0
TABLE
  2
LAYER
 70
     1
  0
LAYER
  2
0
 70
    64
 62
     7
  6
CONTINUOUS
  0
ENDTAB
  0
TABLE
  2
STYLE
 70
     1
  0
STYLE
  2
STANDARD
 70
     0
 40
0.0
 41
1.0
 50
0.0
 71
     0
 42
0.2
  3
txt
  4

  0
ENDTAB
  0
TABLE
  2
VIEW
 70
     0
  0
ENDTAB
  0
TABLE
  2
UCS
 70
     0
  0
ENDTAB
  0
TABLE
  2
APPID
 70
     1
  0
APPID
  2
ACAD
 70
    64
  0
ENDTAB
  0
TABLE
  2
DIMSTYLE
 70
     0
  0
ENDTAB
  0
ENDSEC
  0
SECTION
  2
BLOCKS
  0
ENDSEC
  0
SECTION
  2
ENTITIES
  0
CIRCLE
  8
0
 10
519.077155
 20
-338.144512
 30
0.0
 40
7.5
  0
CIRCLE
  8
0
 10
519.077155
 20
-338.144512
 30
0.0
 40
6.5
  0
CIRCLE
  8
0
 10
628.974456
 20
-217.985447
 30
0.0
 40
9.0
  0
CIRCLE
  8
0
 10
628.974456
 20
-217.985447
 30
0.0
 40
10.0
  0
LINE
  8
0
 10
613.974456
 20
-205.485447
 30
0.0
 11
613.974456
 21
-247.485447
 31
0.0
  0
LINE
  8
0
 10
643.974456
 20
-205.485447
 30
0.0
 11
643.974456
 21
-247.485447
 31
0.0
  0
LINE
  8
0
 10
613.974456
 20
-247.485447
 30
0.0
 11
643.974456
 21
-247.485447
 31
0.0
  0
LINE
  8
0
 10
613.974456
 20
-205.485447
 30
0.0
 11
643.974456
 21
-205.485447
 31
0.0
  0
LINE
  8
0
 10
615.474456
 20
-248.985447
 30
0.0
 11
613.974456
 21
-247.485447
 31
0.0
  0
LINE
  8
0
 10
643.974456
 20
-247.485447
 30
0.0
 11
642.474456
 21
-248.985447
 31
0.0
  0
LINE
  8
0
 10
642.474456
 20
-203.985447
 30
0.0
 11
643.974456
 21
-205.485447
 31
0.0
  0
LINE
  8
0
 10
613.974456
 20
-205.485447
 30
0.0
 11
615.474456
 21
-203.985447
 31
0.0
  0
LINE
  8
0
 10
618.974456
 20
-288.785447
 30
0.0
 11
638.974456
 21
-288.785447
 31
0.0
  0
LINE
  8
0
 10
620.224456
 20
-290.035447
 30
0.0
 11
637.724456
 21
-290.035447
 31
0.0
  0
LINE
  8
0
 10
636.174456
 20
-291.585447
 30
0.0
 11
638.974456
 21
-288.785447
 31
0.0
  0
LINE
  8
0
 10
621.774456
 20
-291.585447
 30
0.0
 11
618.974456
 21
-288.785447
 31
0.0
  0
LINE
  8
0
 10
636.724456
 20
-298.485447
 30
0.0
 11
621.224456
 21
-298.485447
 31
0.0
  0
LINE
  8
0
 10
636.174456
 20
-291.585447
 30
0.0
 11
636.174456
 21
-298.485447
 31
0.0
  0
LINE
  8
0
 10
621.774456
 20
-291.585447
 30
0.0
 11
621.774456
 21
-298.485447
 31
0.0
  0
LINE
  8
0
 10
636.174456
 20
-291.585447
 30
0.0
 11
621.774456
 21
-291.585447
 31
0.0
  0
LINE
  8
0
 10
636.724456
 20
-298.485447
 30
0.0
 11
636.724456
 21
-301.42276
 31
0.0
  0
LINE
  8
0
 10
621.224456
 20
-298.485447
 30
0.0
 11
621.224456
 21
-301.42276
 31
0.0
  0
ARC
  8
0
 10
628.974456
 20
-290.985447
 30
0.0
 40
13.0
 50
233.405069
 51
306.594931
  0
LINE
  8
0
 10
620.224456
 20
-260.235447
 30
0.0
 11
637.724456
 21
-260.235447
 31
0.0
  0
LINE
  8
0
 10
638.974456
 20
-258.985447
 30
0.0
 11
637.724456
 21
-260.235447
 31
0.0
  0
LINE
  8
0
 10
618.974456
 20
-258.985447
 30
0.0
 11
620.224456
 21
-260.235447
 31
0.0
  0
LINE
  8
0
 10
637.724456
 20
-260.235447
 30
0.0
 11
637.724456
 21
-290.035447
 31
0.0
  0
LINE
  8
0
 10
620.224456
 20
-260.235447
 30
0.0
 11
620.224456
 21
-290.035447
 31
0.0
  0
LINE
  8
0
 10
638.974456
 20
-258.985447
 30
0.0
 11
618.974456
 21
-258.985447
 31
0.0
  0
LINE
  8
0
 10
642.474456
 20
-248.985447
 30
0.0
 11
615.474456
 21
-248.985447
 31
0.0
  0
LINE
  8
0
 10
642.474456
 20
-203.985447
 30
0.0
 11
615.474456
 21
-203.985447
 31
0.0
  0
LINE
  8
0
 10
638.974456
 20
-248.985447
 30
0.0
 11
638.974456
 21
-288.785447
 31
0.0
  0
LINE
  8
0
 10
618.974456
 20
-248.985447
 30
0.0
 11
618.974456
 21
-288.785447
 31
0.0
  0
LINE
  8
0
 10
621.224456
 20
-301.42276
 30
0.0
 11
636.724456
 21
-301.42276
 31
0.0
  0
CIRCLE
  8
0
 10
519.077155
 20
-338.144512
 30
0.0
 40
13.5
  0
LINE
  8
0
  6
CONTINUOUS
 10
575.077155
 20
-329.644512
 30
0.0
 11
575.077155
 21
-346.644512
 31
0.0
  0
LINE
  8
0
 10
588.077155
 20
-348.144512
 30
0.0
 11
576.577155
 21
-348.144512
 31
0.0
  0
LINE
  8
0
 10
588.077155
 20
-328.144512
 30
0.0
 11
576.577155
 21
-328.144512
 31
0.0
  0
LINE
  8
0
  6
CONTINUOUS
 10
589.077155
 20
-329.144512
 30
0.0
 11
589.077155
 21
-347.144512
 31
0.0
  0
LINE
  8
0
 10
531.765733
 20
-330.144512
 30
0.0
 11
575.077155
 21
-330.144512
 31
0.0
  0
LINE
  8
0
 10
531.765733
 20
-346.144512
 30
0.0
 11
575.077155
 21
-346.144512
 31
0.0
  0
LINE
  8
0
 10
576.577155
 20
-348.144512
 30
0.0
 11
575.077155
 21
-346.644512
 31
0.0
  0
LINE
  8
0
 10
575.077155
 20
-329.644512
 30
0.0
 11
576.577155
 21
-328.144512
 31
0.0
  0
LINE
  8
0
 10
588.077155
 20
-348.144512
 30
0.0
 11
589.077155
 21
-347.144512
 31
0.0
  0
LINE
  8
0
 10
589.077155
 20
-329.144512
 30
0.0
 11
588.077155
 21
-328.144512
 31
0.0
  0
LINE
  8
0
 10
576.577155
 20
-328.144512
 30
0.0
 11
576.577155
 21
-348.144512
 31
0.0
  0
LINE
  8
0
 10
506.388578
 20
-330.144512
 30
0.0
 11
463.077155
 21
-330.144512
 31
0.0
  0
LINE
  8
0
 10
506.388578
 20
-346.144512
 30
0.0
 11
463.077155
 21
-346.144512
 31
0.0
  0
LINE
  8
0
  6
CONTINUOUS
 10
449.077155
 20
-329.144512
 30
0.0
 11
449.077155
 21
-347.144512
 31
0.0
  0
LINE
  8
0
 10
450.077155
 20
-328.144512
 30
0.0
 11
461.577155
 21
-328.144512
 31
0.0
  0
LINE
  8
0
 10
450.077155
 20
-348.144512
 30
0.0
 11
461.577155
 21
-348.144512
 31
0.0
  0
LINE
  8
0
  6
CONTINUOUS
 10
463.077155
 20
-329.644512
 30
0.0
 11
463.077155
 21
-346.644512
 31
0.0
  0
LINE
  8
0
 10
461.577155
 20
-328.144512
 30
0.0
 11
463.077155
 21
-329.644512
 31
0.0
  0
LINE
  8
0
 10
463.077155
 20
-346.644512
 30
0.0
 11
461.577155
 21
-348.144512
 31
0.0
  0
LINE
  8
0
 10
450.077155
 20
-328.144512
 30
0.0
 11
449.077155
 21
-329.144512
 31
0.0
  0
LINE
  8
0
 10
449.077155
 20
-347.144512
 30
0.0
 11
450.077155
 21
-348.144512
 31
0.0
  0
LINE
  8
0
 10
461.577155
 20
-328.144512
 30
0.0
 11
461.577155
 21
-348.144512
 31
0.0
  0
CIRCLE
  8
0
 10
519.077155
 20
-338.144512
 30
0.0
 40
15.0
  0
LINE
  8
0
 10
576.577155
 20
-207.985447
 30
0.0
 11
576.577155
 21
-227.985447
 31
0.0
  0
LINE
  8
0
 10
461.577155
 20
-207.985447
 30
0.0
 11
461.577155
 21
-227.985447
 31
0.0
  0
LINE
  8
0
 10
589.077155
 20
-208.985447
 30
0.0
 11
588.077155
 21
-207.985447
 31
0.0
  0
LINE
  8
0
 10
588.077155
 20
-227.985447
 30
0.0
 11
589.077155
 21
-226.985447
 31
0.0
  0
LINE
  8
0
 10
449.077155
 20
-226.985447
 30
0.0
 11
450.077155
 21
-227.985447
 31
0.0
  0
LINE
  8
0
 10
450.077155
 20
-207.985447
 30
0.0
 11
449.077155
 21
-208.985447
 31
0.0
  0
LINE
  8
0
 10
575.077155
 20
-209.485447
 30
0.0
 11
576.577155
 21
-207.985447
 31
0.0
  0
LINE
  8
0
 10
576.577155
 20
-227.985447
 30
0.0
 11
575.077155
 21
-226.485447
 31
0.0
  0
LINE
  8
0
 10
463.077155
 20
-226.485447
 30
0.0
 11
461.577155
 21
-227.985447
 31
0.0
  0
LINE
  8
0
 10
461.577155
 20
-207.985447
 30
0.0
 11
463.077155
 21
-209.485447
 31
0.0
  0
LINE
  8
0
 10
534.077155
 20
-225.985447
 30
0.0
 11
575.077155
 21
-225.985447
 31
0.0
  0
LINE
  8
0
 10
534.077155
 20
-209.985447
 30
0.0
 11
575.077155
 21
-209.985447
 31
0.0
  0
LINE
  8
0
  6
CONTINUOUS
 10
589.077155
 20
-208.985447
 30
0.0
 11
589.077155
 21
-226.985447
 31
0.0
  0
LINE
  8
0
 10
588.077155
 20
-207.985447
 30
0.0
 11
576.577155
 21
-207.985447
 31
0.0
  0
LINE
  8
0
 10
588.077155
 20
-227.985447
 30
0.0
 11
576.577155
 21
-227.985447
 31
0.0
  0
LINE
  8
0
  6
CONTINUOUS
 10
575.077155
 20
-209.485447
 30
0.0
 11
575.077155
 21
-226.485447
 31
0.0
  0
LINE
  8
0
  6
CONTINUOUS
 10
463.077155
 20
-209.485447
 30
0.0
 11
463.077155
 21
-226.485447
 31
0.0
  0
LINE
  8
0
 10
450.077155
 20
-227.985447
 30
0.0
 11
461.577155
 21
-227.985447
 31
0.0
  0
LINE
  8
0
 10
450.077155
 20
-207.985447
 30
0.0
 11
461.577155
 21
-207.985447
 31
0.0
  0
LINE
  8
0
 10
390.572788
 20
-286.885447
 30
0.0
 11
406.572788
 21
-286.885447
 31
0.0
  0
LINE
  8
0
 10
297.015976
 20
-286.885447
 30
0.0
 11
313.015976
 21
-286.885447
 31
0.0
  0
LINE
  8
0
 10
511.327155
 20
-301.42276
 30
0.0
 11
526.827155
 21
-301.42276
 31
0.0
  0
LINE
  8
0
  6
CONTINUOUS
 10
449.077155
 20
-208.985447
 30
0.0
 11
449.077155
 21
-226.985447
 31
0.0
  0
LINE
  8
0
 10
509.077155
 20
-248.985447
 30
0.0
 11
509.077155
 21
-288.785447
 31
0.0
  0
LINE
  8
0
 10
529.077155
 20
-248.985447
 30
0.0
 11
529.077155
 21
-288.785447
 31
0.0
  0
LINE
  8
0
 10
532.577155
 20
-203.985447
 30
0.0
 11
505.577155
 21
-203.985447
 31
0.0
  0
LINE
  8
0
 10
504.077155
 20
-205.485447
 30
0.0
 11
504.077155
 21
-209.985447
 31
0.0
  0
LINE
  8
0
 10
534.077155
 20
-205.485447
 30
0.0
 11
534.077155
 21
-209.985447
 31
0.0
  0
LINE
  8
0
 10
532.577155
 20
-248.985447
 30
0.0
 11
505.577155
 21
-248.985447
 31
0.0
  0
LINE
  8
0
 10
529.077155
 20
-258.985447
 30
0.0
 11
509.077155
 21
-258.985447
 31
0.0
  0
LINE
  8
0
 10
510.327155
 20
-260.235447
 30
0.0
 11
510.327155
 21
-290.035447
 31
0.0
  0
LINE
  8
0
 10
527.827155
 20
-260.235447
 30
0.0
 11
527.827155
 21
-290.035447
 31
0.0
  0
LINE
  8
0
 10
509.077155
 20
-258.985447
 30
0.0
 11
510.327155
 21
-260.235447
 31
0.0
  0
LINE
  8
0
 10
529.077155
 20
-258.985447
 30
0.0
 11
527.827155
 21
-260.235447
 31
0.0
  0
LINE
  8
0
 10
510.327155
 20
-260.235447
 30
0.0
 11
527.827155
 21
-260.235447
 31
0.0
  0
ARC
  8
0
 10
519.077155
 20
-290.985447
 30
0.0
 40
13.0
 50
233.405069
 51
306.594931
  0
LINE
  8
0
 10
511.327155
 20
-298.485447
 30
0.0
 11
511.327155
 21
-301.42276
 31
0.0
  0
LINE
  8
0
 10
526.827155
 20
-298.485447
 30
0.0
 11
526.827155
 21
-301.42276
 31
0.0
  0
LINE
  8
0
 10
526.277155
 20
-291.585447
 30
0.0
 11
511.877155
 21
-291.585447
 31
0.0
  0
LINE
  8
0
 10
511.877155
 20
-291.585447
 30
0.0
 11
511.877155
 21
-298.485447
 31
0.0
  0
LINE
  8
0
 10
526.277155
 20
-291.585447
 30
0.0
 11
526.277155
 21
-298.485447
 31
0.0
  0
LINE
  8
0
 10
526.827155
 20
-298.485447
 30
0.0
 11
511.327155
 21
-298.485447
 31
0.0
  0
LINE
  8
0
 10
511.877155
 20
-291.585447
 30
0.0
 11
509.077155
 21
-288.785447
 31
0.0
  0
LINE
  8
0
 10
526.277155
 20
-291.585447
 30
0.0
 11
529.077155
 21
-288.785447
 31
0.0
  0
LINE
  8
0
 10
510.327155
 20
-290.035447
 30
0.0
 11
527.827155
 21
-290.035447
 31
0.0
  0
LINE
  8
0
 10
509.077155
 20
-288.785447
 30
0.0
 11
529.077155
 21
-288.785447
 31
0.0
  0
LINE
  8
0
 10
504.077155
 20
-225.985447
 30
0.0
 11
463.077155
 21
-225.985447
 31
0.0
  0
LINE
  8
0
 10
504.077155
 20
-209.985447
 30
0.0
 11
463.077155
 21
-209.985447
 31
0.0
  0
LINE
  8
0
 10
504.077155
 20
-205.485447
 30
0.0
 11
505.577155
 21
-203.985447
 31
0.0
  0
LINE
  8
0
 10
532.577155
 20
-203.985447
 30
0.0
 11
534.077155
 21
-205.485447
 31
0.0
  0
LINE
  8
0
 10
534.077155
 20
-247.485447
 30
0.0
 11
532.577155
 21
-248.985447
 31
0.0
  0
LINE
  8
0
 10
505.577155
 20
-248.985447
 30
0.0
 11
504.077155
 21
-247.485447
 31
0.0
  0
LINE
  8
0
 10
504.077155
 20
-205.485447
 30
0.0
 11
534.077155
 21
-205.485447
 31
0.0
  0
LINE
  8
0
 10
504.077155
 20
-247.485447
 30
0.0
 11
534.077155
 21
-247.485447
 31
0.0
  0
ARC
  8
0
 10
491.388578
 20
-217.985447
 30
0.0
 40
15.0
 50
327.769047
 51
32.230953
  0
ARC
  8
0
 10
546.765733
 20
-217.985447
 30
0.0
 40
15.0
 50
147.769047
 51
212.230953
  0
LINE
  8
0
 10
534.077155
 20
-225.985447
 30
0.0
 11
534.077155
 21
-247.485447
 31
0.0
  0
LINE
  8
0
 10
504.077155
 20
-225.985447
 30
0.0
 11
504.077155
 21
-247.485447
 31
0.0
  0
CIRCLE
  8
0
 10
305.015976
 20
-331.25645
 30
0.0
 40
7.5
  0
CIRCLE
  8
0
 10
305.015976
 20
-331.25645
 30
0.0
 40
6.5
  0
CIRCLE
  8
0
 10
398.572788
 20
-215.485447
 30
0.0
 40
8.3
  0
LINE
  8
0
 10
364.515976
 20
-223.785447
 30
0.0
 11
355.015976
 21
-223.785447
 31
0.0
  0
LINE
  8
0
 10
364.515976
 20
-207.185447
 30
0.0
 11
355.015976
 21
-207.185447
 31
0.0
  0
LINE
  8
0
 10
390.572788
 20
-244.985447
 30
0.0
 11
390.572788
 21
-286.885447
 31
0.0
  0
LINE
  8
0
 10
406.572788
 20
-244.985447
 30
0.0
 11
406.572788
 21
-286.885447
 31
0.0
  0
LINE
  8
0
 10
409.572788
 20
-204.985447
 30
0.0
 11
387.572788
 21
-204.985447
 31
0.0
  0
LINE
  8
0
 10
409.572788
 20
-244.985447
 30
0.0
 11
387.572788
 21
-244.985447
 31
0.0
  0
LINE
  8
0
 10
406.572788
 20
-254.985447
 30
0.0
 11
390.572788
 21
-254.985447
 31
0.0
  0
LINE
  8
0
 10
391.572788
 20
-255.985447
 30
0.0
 11
391.572788
 21
-287.885447
 31
0.0
  0
LINE
  8
0
 10
405.572788
 20
-255.985447
 30
0.0
 11
405.572788
 21
-287.885447
 31
0.0
  0
ARC
  8
0
 10
398.572788
 20
-290.985447
 30
0.0
 40
9.0
 50
228.189685
 51
311.810315
  0
LINE
  8
0
 10
393.072788
 20
-289.385447
 30
0.0
 11
404.072788
 21
-289.385447
 31
0.0
  0
LINE
  8
0
 10
392.572788
 20
-294.985447
 30
0.0
 11
392.572788
 21
-297.693651
 31
0.0
  0
LINE
  8
0
 10
404.572788
 20
-294.985447
 30
0.0
 11
404.572788
 21
-297.693651
 31
0.0
  0
LINE
  8
0
 10
392.572788
 20
-294.985447
 30
0.0
 11
404.572788
 21
-294.985447
 31
0.0
  0
LINE
  8
0
 10
393.072788
 20
-289.385447
 30
0.0
 11
393.072788
 21
-294.985447
 31
0.0
  0
LINE
  8
0
 10
404.072788
 20
-289.385447
 30
0.0
 11
404.072788
 21
-294.985447
 31
0.0
  0
LINE
  8
0
 10
393.072788
 20
-289.385447
 30
0.0
 11
390.572788
 21
-286.885447
 31
0.0
  0
LINE
  8
0
 10
404.072788
 20
-289.385447
 30
0.0
 11
406.572788
 21
-286.885447
 31
0.0
  0
LINE
  8
0
 10
391.572788
 20
-287.885447
 30
0.0
 11
405.572788
 21
-287.885447
 31
0.0
  0
LINE
  8
0
 10
390.572788
 20
-254.985447
 30
0.0
 11
391.572788
 21
-255.985447
 31
0.0
  0
LINE
  8
0
 10
406.572788
 20
-254.985447
 30
0.0
 11
405.572788
 21
-255.985447
 31
0.0
  0
LINE
  8
0
 10
391.572788
 20
-255.985447
 30
0.0
 11
405.572788
 21
-255.985447
 31
0.0
  0
LINE
  8
0
 10
386.572788
 20
-205.985447
 30
0.0
 11
387.572788
 21
-204.985447
 31
0.0
  0
LINE
  8
0
 10
409.572788
 20
-204.985447
 30
0.0
 11
410.572788
 21
-205.985447
 31
0.0
  0
LINE
  8
0
 10
410.572788
 20
-243.985447
 30
0.0
 11
409.572788
 21
-244.985447
 31
0.0
  0
LINE
  8
0
 10
387.572788
 20
-244.985447
 30
0.0
 11
386.572788
 21
-243.985447
 31
0.0
  0
LINE
  8
0
 10
386.572788
 20
-205.985447
 30
0.0
 11
410.572788
 21
-205.985447
 31
0.0
  0
LINE
  8
0
 10
386.572788
 20
-243.985447
 30
0.0
 11
410.572788
 21
-243.985447
 31
0.0
  0
LINE
  8
0
 10
392.572788
 20
-297.693651
 30
0.0
 11
404.572788
 21
-297.693651
 31
0.0
  0
LINE
  8
0
 10
410.572788
 20
-205.985447
 30
0.0
 11
410.572788
 21
-243.985447
 31
0.0
  0
LINE
  8
0
 10
386.572788
 20
-205.985447
 30
0.0
 11
386.572788
 21
-243.985447
 31
0.0
  0
CIRCLE
  8
0
 10
305.015976
 20
-331.25645
 30
0.0
 40
11.0
  0
LINE
  8
0
 10
293.015976
 20
-221.985447
 30
0.0
 11
293.015976
 21
-243.985447
 31
0.0
  0
LINE
  8
0
 10
317.015976
 20
-221.985447
 30
0.0
 11
317.015976
 21
-243.985447
 31
0.0
  0
ARC
  8
0
 10
327.103097
 20
-215.485447
 30
0.0
 40
12.0
 50
147.202832
 51
212.797168
  0
ARC
  8
0
 10
282.928856
 20
-215.485447
 30
0.0
 40
12.0
 50
327.202832
 51
32.797168
  0
LINE
  8
0
 10
365.015976
 20
-323.45645
 30
0.0
 11
365.015976
 21
-339.05645
 31
0.0
  0
LINE
  8
0
 10
354.015976
 20
-324.75645
 30
0.0
 11
315.103097
 21
-324.75645
 31
0.0
  0
LINE
  8
0
 10
354.015976
 20
-337.75645
 30
0.0
 11
315.103097
 21
-337.75645
 31
0.0
  0
LINE
  8
0
 10
364.515976
 20
-322.95645
 30
0.0
 11
355.015976
 21
-322.95645
 31
0.0
  0
LINE
  8
0
 10
364.515976
 20
-339.55645
 30
0.0
 11
355.015976
 21
-339.55645
 31
0.0
  0
LINE
  8
0
 10
354.015976
 20
-323.95645
 30
0.0
 11
354.015976
 21
-338.55645
 31
0.0
  0
LINE
  8
0
 10
355.015976
 20
-339.55645
 30
0.0
 11
354.015976
 21
-338.55645
 31
0.0
  0
LINE
  8
0
 10
354.015976
 20
-323.95645
 30
0.0
 11
355.015976
 21
-322.95645
 31
0.0
  0
LINE
  8
0
 10
364.515976
 20
-339.55645
 30
0.0
 11
365.015976
 21
-339.05645
 31
0.0
  0
LINE
  8
0
 10
365.015976
 20
-323.45645
 30
0.0
 11
364.515976
 21
-322.95645
 31
0.0
  0
LINE
  8
0
 10
355.015976
 20
-322.95645
 30
0.0
 11
355.015976
 21
-339.55645
 31
0.0
  0
LINE
  8
0
 10
245.015976
 20
-323.45645
 30
0.0
 11
245.015976
 21
-339.05645
 31
0.0
  0
LINE
  8
0
 10
256.015976
 20
-323.95645
 30
0.0
 11
256.015976
 21
-338.55645
 31
0.0
  0
LINE
  8
0
 10
255.015976
 20
-339.55645
 30
0.0
 11
245.515976
 21
-339.55645
 31
0.0
  0
LINE
  8
0
 10
255.015976
 20
-322.95645
 30
0.0
 11
245.515976
 21
-322.95645
 31
0.0
  0
LINE
  8
0
 10
294.928856
 20
-324.75645
 30
0.0
 11
256.015976
 21
-324.75645
 31
0.0
  0
LINE
  8
0
 10
294.928856
 20
-337.75645
 30
0.0
 11
256.015976
 21
-337.75645
 31
0.0
  0
LINE
  8
0
 10
255.015976
 20
-322.95645
 30
0.0
 11
256.015976
 21
-323.95645
 31
0.0
  0
LINE
  8
0
 10
256.015976
 20
-338.55645
 30
0.0
 11
255.015976
 21
-339.55645
 31
0.0
  0
LINE
  8
0
 10
245.515976
 20
-322.95645
 30
0.0
 11
245.015976
 21
-323.45645
 31
0.0
  0
LINE
  8
0
 10
245.015976
 20
-339.05645
 30
0.0
 11
245.515976
 21
-339.55645
 31
0.0
  0
LINE
  8
0
 10
255.015976
 20
-322.95645
 30
0.0
 11
255.015976
 21
-339.55645
 31
0.0
  0
CIRCLE
  8
0
 10
305.015976
 20
-331.25645
 30
0.0
 40
12.0
  0
LINE
  8
0
 10
299.015976
 20
-297.693651
 30
0.0
 11
311.015976
 21
-297.693651
 31
0.0
  0
LINE
  8
0
 10
355.015976
 20
-207.185447
 30
0.0
 11
355.015976
 21
-223.785447
 31
0.0
  0
LINE
  8
0
 10
255.015976
 20
-207.185447
 30
0.0
 11
255.015976
 21
-223.785447
 31
0.0
  0
LINE
  8
0
 10
293.015976
 20
-243.985447
 30
0.0
 11
317.015976
 21
-243.985447
 31
0.0
  0
LINE
  8
0
 10
293.015976
 20
-205.985447
 30
0.0
 11
317.015976
 21
-205.985447
 31
0.0
  0
LINE
  8
0
 10
365.015976
 20
-207.685447
 30
0.0
 11
364.515976
 21
-207.185447
 31
0.0
  0
LINE
  8
0
 10
364.515976
 20
-223.785447
 30
0.0
 11
365.015976
 21
-223.285447
 31
0.0
  0
LINE
  8
0
 10
245.015976
 20
-223.285447
 30
0.0
 11
245.515976
 21
-223.785447
 31
0.0
  0
LINE
  8
0
 10
245.515976
 20
-207.185447
 30
0.0
 11
245.015976
 21
-207.685447
 31
0.0
  0
LINE
  8
0
 10
354.015976
 20
-208.185447
 30
0.0
 11
355.015976
 21
-207.185447
 31
0.0
  0
LINE
  8
0
 10
355.015976
 20
-223.785447
 30
0.0
 11
354.015976
 21
-222.785447
 31
0.0
  0
LINE
  8
0
 10
294.015976
 20
-244.985447
 30
0.0
 11
293.015976
 21
-243.985447
 31
0.0
  0
LINE
  8
0
 10
317.015976
 20
-243.985447
 30
0.0
 11
316.015976
 21
-244.985447
 31
0.0
  0
LINE
  8
0
 10
316.015976
 20
-204.985447
 30
0.0
 11
317.015976
 21
-205.985447
 31
0.0
  0
LINE
  8
0
 10
293.015976
 20
-205.985447
 30
0.0
 11
294.015976
 21
-204.985447
 31
0.0
  0
LINE
  8
0
 10
256.015976
 20
-222.785447
 30
0.0
 11
255.015976
 21
-223.785447
 31
0.0
  0
LINE
  8
0
 10
255.015976
 20
-207.185447
 30
0.0
 11
256.015976
 21
-208.185447
 31
0.0
  0
LINE
  8
0
 10
293.015976
 20
-221.985447
 30
0.0
 11
256.015976
 21
-221.985447
 31
0.0
  0
LINE
  8
0
 10
293.015976
 20
-208.985447
 30
0.0
 11
256.015976
 21
-208.985447
 31
0.0
  0
LINE
  8
0
 10
255.015976
 20
-207.185447
 30
0.0
 11
245.515976
 21
-207.185447
 31
0.0
  0
LINE
  8
0
 10
255.015976
 20
-223.785447
 30
0.0
 11
245.515976
 21
-223.785447
 31
0.0
  0
LINE
  8
0
 10
354.015976
 20
-208.185447
 30
0.0
 11
354.015976
 21
-222.785447
 31
0.0
  0
LINE
  8
0
 10
256.015976
 20
-208.185447
 30
0.0
 11
256.015976
 21
-222.785447
 31
0.0
  0
LINE
  8
0
 10
354.015976
 20
-221.985447
 30
0.0
 11
317.015976
 21
-221.985447
 31
0.0
  0
LINE
  8
0
 10
354.015976
 20
-208.985447
 30
0.0
 11
317.015976
 21
-208.985447
 31
0.0
  0
LINE
  8
0
 10
365.015976
 20
-207.685447
 30
0.0
 11
365.015976
 21
-223.285447
 31
0.0
  0
LINE
  8
0
 10
245.015976
 20
-207.685447
 30
0.0
 11
245.015976
 21
-223.285447
 31
0.0
  0
LINE
  8
0
 10
298.015976
 20
-255.985447
 30
0.0
 11
312.015976
 21
-255.985447
 31
0.0
  0
LINE
  8
0
 10
313.015976
 20
-254.985447
 30
0.0
 11
312.015976
 21
-255.985447
 31
0.0
  0
LINE
  8
0
 10
297.015976
 20
-254.985447
 30
0.0
 11
298.015976
 21
-255.985447
 31
0.0
  0
LINE
  8
0
 10
298.015976
 20
-287.885447
 30
0.0
 11
312.015976
 21
-287.885447
 31
0.0
  0
LINE
  8
0
 10
310.515976
 20
-289.385447
 30
0.0
 11
313.015976
 21
-286.885447
 31
0.0
  0
LINE
  8
0
 10
299.515976
 20
-289.385447
 30
0.0
 11
297.015976
 21
-286.885447
 31
0.0
  0
LINE
  8
0
 10
310.515976
 20
-289.385447
 30
0.0
 11
310.515976
 21
-294.985447
 31
0.0
  0
LINE
  8
0
 10
299.515976
 20
-289.385447
 30
0.0
 11
299.515976
 21
-294.985447
 31
0.0
  0
LINE
  8
0
 10
299.015976
 20
-294.985447
 30
0.0
 11
311.015976
 21
-294.985447
 31
0.0
  0
LINE
  8
0
 10
311.015976
 20
-294.985447
 30
0.0
 11
311.015976
 21
-297.693651
 31
0.0
  0
LINE
  8
0
 10
299.015976
 20
-294.985447
 30
0.0
 11
299.015976
 21
-297.693651
 31
0.0
  0
LINE
  8
0
 10
299.515976
 20
-289.385447
 30
0.0
 11
310.515976
 21
-289.385447
 31
0.0
  0
ARC
  8
0
 10
305.015976
 20
-290.985447
 30
0.0
 40
9.0
 50
228.189685
 51
311.810315
  0
LINE
  8
0
 10
312.015976
 20
-255.985447
 30
0.0
 11
312.015976
 21
-287.885447
 31
0.0
  0
LINE
  8
0
 10
298.015976
 20
-255.985447
 30
0.0
 11
298.015976
 21
-287.885447
 31
0.0
  0
LINE
  8
0
 10
313.015976
 20
-254.985447
 30
0.0
 11
297.015976
 21
-254.985447
 31
0.0
  0
LINE
  8
0
 10
316.015976
 20
-244.985447
 30
0.0
 11
294.015976
 21
-244.985447
 31
0.0
  0
LINE
  8
0
 10
317.015976
 20
-205.985447
 30
0.0
 11
317.015976
 21
-208.985447
 31
0.0
  0
LINE
  8
0
 10
293.015976
 20
-205.985447
 30
0.0
 11
293.015976
 21
-208.985447
 31
0.0
  0
LINE
  8
0
 10
316.015976
 20
-204.985447
 30
0.0
 11
294.015976
 21
-204.985447
 31
0.0
  0
LINE
  8
0
 10
313.015976
 20
-244.985447
 30
0.0
 11
313.015976
 21
-286.885447
 31
0.0
  0
LINE
  8
0
 10
297.015976
 20
-244.985447
 30
0.0
 11
297.015976
 21
-286.885447
 31
0.0
  0
LINE
  8
0
 10
453.339403
 20
-160.038996
 30
0.0
 11
485.679149
 21
-160.038996
 31
0.0
  0
LINE
  8
0
 10
453.339403
 20
-150.038996
 30
0.0
 11
485.679149
 21
-150.038996
 31
0.0
  0
CIRCLE
  8
0
 10
444.679149
 20
-155.038996
 30
0.0
 40
7.5
  0
CIRCLE
  8
0
 10
444.679149
 20
-155.038996
 30
0.0
 40
6.5
  0
LINE
  8
0
 10
345.871313
 20
-129.298327
 30
0.0
 11
353.871313
 21
-129.298327
 31
0.0
  0
LINE
  8
0
 10
344.871313
 20
-121.226191
 30
0.0
 11
354.871313
 21
-121.226191
 31
0.0
  0
LINE
  8
0
 10
280.515976
 20
-129.298327
 30
0.0
 11
288.515976
 21
-129.298327
 31
0.0
  0
LINE
  8
0
 10
279.515976
 20
-121.226191
 30
0.0
 11
289.515976
 21
-121.226191
 31
0.0
  0
CIRCLE
  8
0
 10
523.373622
 20
-54.826191
 30
0.0
 40
6.5
  0
CIRCLE
  8
0
 10
523.373622
 20
-54.826191
 30
0.0
 40
7.0
  0
LINE
  8
0
 10
528.473622
 20
-91.726191
 30
0.0
 11
528.473622
 21
-120.626191
 31
0.0
  0
LINE
  8
0
 10
528.473622
 20
-91.726191
 30
0.0
 11
529.373622
 21
-90.826191
 31
0.0
  0
LINE
  8
0
 10
529.373622
 20
-90.826191
 30
0.0
 11
527.277079
 21
-90.826191
 31
0.0
  0
LINE
  8
0
 10
518.273622
 20
-91.726191
 30
0.0
 11
518.273622
 21
-120.626191
 31
0.0
  0
LINE
  8
0
 10
518.273622
 20
-91.726191
 30
0.0
 11
517.373622
 21
-90.826191
 31
0.0
  0
LINE
  8
0
 10
518.273622
 20
-91.726191
 30
0.0
 11
528.473622
 21
-91.726191
 31
0.0
  0
LINE
  8
0
 10
517.373622
 20
-90.826191
 30
0.0
 11
529.373622
 21
-90.826191
 31
0.0
  0
LINE
  8
0
 10
517.373622
 20
-80.826191
 30
0.0
 11
517.373622
 21
-119.726191
 31
0.0
  0
LINE
  8
0
 10
529.373622
 20
-80.826191
 30
0.0
 11
529.373622
 21
-119.726191
 31
0.0
  0
LINE
  8
0
 10
514.373622
 20
-45.826191
 30
0.0
 11
532.373622
 21
-45.826191
 31
0.0
  0
LINE
  8
0
 10
514.373622
 20
-80.826191
 30
0.0
 11
532.373622
 21
-80.826191
 31
0.0
  0
LINE
  8
0
 10
519.873622
 20
-122.226191
 30
0.0
 11
526.873622
 21
-122.226191
 31
0.0
  0
LINE
  8
0
 10
519.373622
 20
-126.826191
 30
0.0
 11
519.373622
 21
-129.298327
 31
0.0
  0
LINE
  8
0
 10
527.373622
 20
-126.826191
 30
0.0
 11
527.373622
 21
-129.298327
 31
0.0
  0
ARC
  8
0
 10
523.373622
 20
-124.826191
 30
0.0
 40
6.0
 50
228.189685
 51
311.810315
  0
LINE
  8
0
 10
519.373622
 20
-129.298327
 30
0.0
 11
527.373622
 21
-129.298327
 31
0.0
  0
LINE
  8
0
 10
519.873622
 20
-122.226191
 30
0.0
 11
519.873622
 21
-126.826191
 31
0.0
  0
LINE
  8
0
 10
526.873622
 20
-122.226191
 30
0.0
 11
526.873622
 21
-126.826191
 31
0.0
  0
LINE
  8
0
 10
519.373622
 20
-126.826191
 30
0.0
 11
527.373622
 21
-126.826191
 31
0.0
  0
LINE
  8
0
 10
519.873622
 20
-122.226191
 30
0.0
 11
517.373622
 21
-119.726191
 31
0.0
  0
LINE
  8
0
 10
526.873622
 20
-122.226191
 30
0.0
 11
529.373622
 21
-119.726191
 31
0.0
  0
LINE
  8
0
 10
518.273622
 20
-120.626191
 30
0.0
 11
528.473622
 21
-120.626191
 31
0.0
  0
LINE
  8
0
 10
517.373622
 20
-119.726191
 30
0.0
 11
529.373622
 21
-119.726191
 31
0.0
  0
LINE
  8
0
 10
513.373622
 20
-46.826191
 30
0.0
 11
514.373622
 21
-45.826191
 31
0.0
  0
LINE
  8
0
 10
532.373622
 20
-45.826191
 30
0.0
 11
533.373622
 21
-46.826191
 31
0.0
  0
LINE
  8
0
 10
533.373622
 20
-79.826191
 30
0.0
 11
532.373622
 21
-80.826191
 31
0.0
  0
LINE
  8
0
 10
514.373622
 20
-80.826191
 30
0.0
 11
513.373622
 21
-79.826191
 31
0.0
  0
LINE
  8
0
 10
513.373622
 20
-46.826191
 30
0.0
 11
533.373622
 21
-46.826191
 31
0.0
  0
LINE
  8
0
 10
513.373622
 20
-79.826191
 30
0.0
 11
533.373622
 21
-79.826191
 31
0.0
  0
LINE
  8
0
 10
533.373622
 20
-79.826191
 30
0.0
 11
533.373622
 21
-46.826191
 31
0.0
  0
LINE
  8
0
 10
513.373622
 20
-79.826191
 30
0.0
 11
513.373622
 21
-46.826191
 31
0.0
  0
CIRCLE
  8
0
 10
444.679149
 20
-155.038996
 30
0.0
 40
9.0
  0
LINE
  8
0
 10
486.679149
 20
-148.038996
 30
0.0
 11
486.679149
 21
-162.038996
 31
0.0
  0
LINE
  8
0
 10
494.679149
 20
-161.538996
 30
0.0
 11
494.179149
 21
-162.038996
 31
0.0
  0
LINE
  8
0
 10
494.179149
 20
-148.038996
 30
0.0
 11
494.679149
 21
-148.538996
 31
0.0
  0
LINE
  8
0
 10
485.679149
 20
-149.038996
 30
0.0
 11
486.679149
 21
-148.038996
 31
0.0
  0
LINE
  8
0
 10
485.679149
 20
-161.038996
 30
0.0
 11
486.679149
 21
-162.038996
 31
0.0
  0
LINE
  8
0
 10
494.179149
 20
-162.038996
 30
0.0
 11
486.679149
 21
-162.038996
 31
0.0
  0
LINE
  8
0
 10
494.179149
 20
-148.038996
 30
0.0
 11
486.679149
 21
-148.038996
 31
0.0
  0
LINE
  8
0
  6
CONTINUOUS
 10
485.679149
 20
-149.038996
 30
0.0
 11
485.679149
 21
-161.038996
 31
0.0
  0
LINE
  8
0
  6
CONTINUOUS
 10
494.679149
 20
-148.538996
 30
0.0
 11
494.679149
 21
-161.538996
 31
0.0
  0
LINE
  8
0
  6
CONTINUOUS
 10
394.679149
 20
-148.538996
 30
0.0
 11
394.679149
 21
-161.538996
 31
0.0
  0
LINE
  8
0
  6
CONTINUOUS
 10
403.679149
 20
-149.038996
 30
0.0
 11
403.679149
 21
-161.038996
 31
0.0
  0
LINE
  8
0
 10
395.179149
 20
-148.038996
 30
0.0
 11
402.679149
 21
-148.038996
 31
0.0
  0
LINE
  8
0
 10
395.179149
 20
-162.038996
 30
0.0
 11
402.679149
 21
-162.038996
 31
0.0
  0
LINE
  8
0
 10
403.679149
 20
-161.038996
 30
0.0
 11
402.679149
 21
-162.038996
 31
0.0
  0
LINE
  8
0
 10
403.679149
 20
-149.038996
 30
0.0
 11
402.679149
 21
-148.038996
 31
0.0
  0
LINE
  8
0
 10
395.179149
 20
-148.038996
 30
0.0
 11
394.679149
 21
-148.538996
 31
0.0
  0
LINE
  8
0
 10
394.679149
 20
-161.538996
 30
0.0
 11
395.179149
 21
-162.038996
 31
0.0
  0
LINE
  8
0
 10
402.679149
 20
-148.038996
 30
0.0
 11
402.679149
 21
-162.038996
 31
0.0
  0
LINE
  8
0
 10
440.525837
 20
-160.038996
 30
0.0
 11
448.832461
 21
-160.038996
 31
0.0
  0
LINE
  8
0
 10
440.525837
 20
-150.038996
 30
0.0
 11
448.832461
 21
-150.038996
 31
0.0
  0
LINE
  8
0
 10
434.679149
 20
-49.826191
 30
0.0
 11
434.679149
 21
-46.826191
 31
0.0
  0
LINE
  8
0
 10
454.679149
 20
-49.826191
 30
0.0
 11
454.679149
 21
-46.826191
 31
0.0
  0
ARC
  8
0
 10
463.339403
 20
-54.826191
 30
0.0
 40
10.0
 50
150.0
 51
210.0
  0
ARC
  8
0
 10
426.018895
 20
-54.826191
 30
0.0
 40
10.0
 50
330.0
 51
30.0
  0
LINE
  8
0
 10
403.679149
 20
-160.038996
 30
0.0
 11
436.018895
 21
-160.038996
 31
0.0
  0
LINE
  8
0
 10
403.679149
 20
-150.038996
 30
0.0
 11
436.018895
 21
-150.038996
 31
0.0
  0
CIRCLE
  8
0
 10
444.679149
 20
-155.038996
 30
0.0
 40
10.0
  0
LINE
  8
0
 10
486.679149
 20
-47.826191
 30
0.0
 11
486.679149
 21
-61.826191
 31
0.0
  0
LINE
  8
0
 10
402.679149
 20
-47.826191
 30
0.0
 11
402.679149
 21
-61.826191
 31
0.0
  0
LINE
  8
0
 10
494.679149
 20
-48.326191
 30
0.0
 11
494.179149
 21
-47.826191
 31
0.0
  0
LINE
  8
0
 10
494.179149
 20
-61.826191
 30
0.0
 11
494.679149
 21
-61.326191
 31
0.0
  0
LINE
  8
0
 10
394.679149
 20
-61.326191
 30
0.0
 11
395.179149
 21
-61.826191
 31
0.0
  0
LINE
  8
0
 10
395.179149
 20
-47.826191
 30
0.0
 11
394.679149
 21
-48.326191
 31
0.0
  0
LINE
  8
0
 10
403.679149
 20
-48.826191
 30
0.0
 11
402.679149
 21
-47.826191
 31
0.0
  0
LINE
  8
0
 10
403.679149
 20
-60.826191
 30
0.0
 11
402.679149
 21
-61.826191
 31
0.0
  0
LINE
  8
0
 10
485.679149
 20
-60.826191
 30
0.0
 11
486.679149
 21
-61.826191
 31
0.0
  0
LINE
  8
0
 10
486.679149
 20
-47.826191
 30
0.0
 11
485.679149
 21
-48.826191
 31
0.0
  0
LINE
  8
0
 10
486.679149
 20
-61.826191
 30
0.0
 11
494.179149
 21
-61.826191
 31
0.0
  0
LINE
  8
0
 10
486.679149
 20
-47.826191
 30
0.0
 11
494.179149
 21
-47.826191
 31
0.0
  0
LINE
  8
0
 10
395.179149
 20
-61.826191
 30
0.0
 11
402.679149
 21
-61.826191
 31
0.0
  0
LINE
  8
0
 10
395.179149
 20
-47.826191
 30
0.0
 11
402.679149
 21
-47.826191
 31
0.0
  0
LINE
  8
0
  6
CONTINUOUS
 10
485.679149
 20
-48.826191
 30
0.0
 11
485.679149
 21
-60.826191
 31
0.0
  0
LINE
  8
0
  6
CONTINUOUS
 10
403.679149
 20
-48.826191
 30
0.0
 11
403.679149
 21
-60.826191
 31
0.0
  0
LINE
  8
0
 10
454.679149
 20
-59.826191
 30
0.0
 11
485.679149
 21
-59.826191
 31
0.0
  0
LINE
  8
0
 10
454.679149
 20
-49.826191
 30
0.0
 11
485.679149
 21
-49.826191
 31
0.0
  0
LINE
  8
0
 10
403.679149
 20
-59.826191
 30
0.0
 11
434.679149
 21
-59.826191
 31
0.0
  0
LINE
  8
0
 10
403.679149
 20
-49.826191
 30
0.0
 11
434.679149
 21
-49.826191
 31
0.0
  0
LINE
  8
0
  6
CONTINUOUS
 10
494.679149
 20
-48.326191
 30
0.0
 11
494.679149
 21
-61.326191
 31
0.0
  0
LINE
  8
0
  6
CONTINUOUS
 10
394.679149
 20
-48.326191
 30
0.0
 11
394.679149
 21
-61.326191
 31
0.0
  0
LINE
  8
0
 10
434.679149
 20
-79.826191
 30
0.0
 11
434.679149
 21
-59.826191
 31
0.0
  0
LINE
  8
0
 10
454.679149
 20
-79.826191
 30
0.0
 11
454.679149
 21
-59.826191
 31
0.0
  0
LINE
  8
0
 10
434.679149
 20
-79.826191
 30
0.0
 11
454.679149
 21
-79.826191
 31
0.0
  0
LINE
  8
0
 10
434.679149
 20
-46.826191
 30
0.0
 11
454.679149
 21
-46.826191
 31
0.0
  0
LINE
  8
0
 10
435.679149
 20
-80.826191
 30
0.0
 11
434.679149
 21
-79.826191
 31
0.0
  0
LINE
  8
0
 10
454.679149
 20
-79.826191
 30
0.0
 11
453.679149
 21
-80.826191
 31
0.0
  0
LINE
  8
0
 10
453.679149
 20
-45.826191
 30
0.0
 11
454.679149
 21
-46.826191
 31
0.0
  0
LINE
  8
0
 10
434.679149
 20
-46.826191
 30
0.0
 11
435.679149
 21
-45.826191
 31
0.0
  0
LINE
  8
0
 10
438.679149
 20
-119.726191
 30
0.0
 11
450.679149
 21
-119.726191
 31
0.0
  0
LINE
  8
0
 10
439.579149
 20
-120.626191
 30
0.0
 11
449.779149
 21
-120.626191
 31
0.0
  0
LINE
  8
0
 10
448.179149
 20
-122.226191
 30
0.0
 11
450.679149
 21
-119.726191
 31
0.0
  0
LINE
  8
0
 10
441.179149
 20
-122.226191
 30
0.0
 11
438.679149
 21
-119.726191
 31
0.0
  0
LINE
  8
0
 10
440.679149
 20
-126.826191
 30
0.0
 11
448.679149
 21
-126.826191
 31
0.0
  0
LINE
  8
0
 10
448.179149
 20
-122.226191
 30
0.0
 11
448.179149
 21
-126.826191
 31
0.0
  0
LINE
  8
0
 10
441.179149
 20
-122.226191
 30
0.0
 11
441.179149
 21
-126.826191
 31
0.0
  0
LINE
  8
0
 10
440.679149
 20
-129.298327
 30
0.0
 11
448.679149
 21
-129.298327
 31
0.0
  0
ARC
  8
0
 10
444.679149
 20
-124.826191
 30
0.0
 40
6.0
 50
228.189685
 51
311.810315
  0
LINE
  8
0
 10
448.679149
 20
-126.826191
 30
0.0
 11
448.679149
 21
-129.298327
 31
0.0
  0
LINE
  8
0
 10
440.679149
 20
-126.826191
 30
0.0
 11
440.679149
 21
-129.298327
 31
0.0
  0
LINE
  8
0
 10
441.179149
 20
-122.226191
 30
0.0
 11
448.179149
 21
-122.226191
 31
0.0
  0
LINE
  8
0
 10
435.679149
 20
-80.826191
 30
0.0
 11
453.679149
 21
-80.826191
 31
0.0
  0
LINE
  8
0
 10
435.679149
 20
-45.826191
 30
0.0
 11
453.679149
 21
-45.826191
 31
0.0
  0
LINE
  8
0
 10
450.679149
 20
-80.826191
 30
0.0
 11
450.679149
 21
-119.726191
 31
0.0
  0
LINE
  8
0
 10
438.679149
 20
-80.826191
 30
0.0
 11
438.679149
 21
-119.726191
 31
0.0
  0
LINE
  8
0
 10
438.679149
 20
-90.826191
 30
0.0
 11
450.679149
 21
-90.826191
 31
0.0
  0
LINE
  8
0
 10
439.579149
 20
-91.726191
 30
0.0
 11
449.779149
 21
-91.726191
 31
0.0
  0
LINE
  8
0
 10
439.579149
 20
-91.726191
 30
0.0
 11
438.679149
 21
-90.826191
 31
0.0
  0
LINE
  8
0
 10
439.579149
 20
-91.726191
 30
0.0
 11
439.579149
 21
-120.626191
 31
0.0
  0
LINE
  8
0
 10
450.679149
 20
-90.826191
 30
0.0
 11
448.582607
 21
-90.826191
 31
0.0
  0
LINE
  8
0
 10
449.779149
 20
-91.726191
 30
0.0
 11
450.679149
 21
-90.826191
 31
0.0
  0
LINE
  8
0
 10
449.779149
 20
-91.726191
 30
0.0
 11
449.779149
 21
-120.626191
 31
0.0
  0
CIRCLE
  8
0
 10
349.871313
 20
-65.826191
 30
0.0
 40
5.0
  0
CIRCLE
  8
0
 10
349.871313
 20
-65.826191
 30
0.0
 40
5.5
  0
LINE
  8
0
 10
344.871313
 20
-90.826191
 30
0.0
 11
344.871313
 21
-121.226191
 31
0.0
  0
LINE
  8
0
 10
354.871313
 20
-90.826191
 30
0.0
 11
354.871313
 21
-121.226191
 31
0.0
  0
LINE
  8
0
 10
341.871313
 20
-58.826191
 30
0.0
 11
357.871313
 21
-58.826191
 31
0.0
  0
LINE
  8
0
 10
341.871313
 20
-90.826191
 30
0.0
 11
357.871313
 21
-90.826191
 31
0.0
  0
LINE
  8
0
 10
345.621313
 20
-100.826191
 30
0.0
 11
354.121313
 21
-100.826191
 31
0.0
  0
LINE
  8
0
 10
345.621313
 20
-100.826191
 30
0.0
 11
345.621313
 21
-121.976191
 31
0.0
  0
LINE
  8
0
 10
354.121313
 20
-100.826191
 30
0.0
 11
354.121313
 21
-121.976191
 31
0.0
  0
LINE
  8
0
 10
345.621313
 20
-100.826191
 30
0.0
 11
344.871313
 21
-100.076191
 31
0.0
  0
LINE
  8
0
 10
354.121313
 20
-100.826191
 30
0.0
 11
354.871313
 21
-100.076191
 31
0.0
  0
LINE
  8
0
 10
344.871313
 20
-100.076191
 30
0.0
 11
354.871313
 21
-100.076191
 31
0.0
  0
LINE
  8
0
 10
341.871313
 20
-58.826191
 30
0.0
 11
340.871313
 21
-59.826191
 31
0.0
  0
LINE
  8
0
 10
340.871313
 20
-89.826191
 30
0.0
 11
341.871313
 21
-90.826191
 31
0.0
  0
LINE
  8
0
 10
357.871313
 20
-90.826191
 30
0.0
 11
358.871313
 21
-89.826191
 31
0.0
  0
LINE
  8
0
 10
358.871313
 20
-59.826191
 30
0.0
 11
357.871313
 21
-58.826191
 31
0.0
  0
LINE
  8
0
 10
340.871313
 20
-59.826191
 30
0.0
 11
358.871313
 21
-59.826191
 31
0.0
  0
LINE
  8
0
 10
340.871313
 20
-89.826191
 30
0.0
 11
358.871313
 21
-89.826191
 31
0.0
  0
LINE
  8
0
 10
346.271313
 20
-122.626191
 30
0.0
 11
353.471313
 21
-122.626191
 31
0.0
  0
LINE
  8
0
 10
345.871313
 20
-126.326191
 30
0.0
 11
345.871313
 21
-129.298327
 31
0.0
  0
LINE
  8
0
 10
353.871313
 20
-126.326191
 30
0.0
 11
353.871313
 21
-129.298327
 31
0.0
  0
LINE
  8
0
 10
346.271313
 20
-122.626191
 30
0.0
 11
346.271313
 21
-126.326191
 31
0.0
  0
LINE
  8
0
 10
353.471313
 20
-122.626191
 30
0.0
 11
353.471313
 21
-126.326191
 31
0.0
  0
LINE
  8
0
 10
345.871313
 20
-126.326191
 30
0.0
 11
353.871313
 21
-126.326191
 31
0.0
  0
ARC
  8
0
 10
349.871313
 20
-124.826191
 30
0.0
 40
6.0
 50
228.189685
 51
311.810315
  0
LINE
  8
0
 10
346.271313
 20
-122.626191
 30
0.0
 11
344.871313
 21
-121.226191
 31
0.0
  0
LINE
  8
0
 10
353.471313
 20
-122.626191
 30
0.0
 11
354.871313
 21
-121.226191
 31
0.0
  0
LINE
  8
0
 10
345.621313
 20
-121.976191
 30
0.0
 11
354.121313
 21
-121.976191
 31
0.0
  0
LINE
  8
0
 10
358.871313
 20
-59.826191
 30
0.0
 11
358.871313
 21
-89.826191
 31
0.0
  0
LINE
  8
0
 10
340.871313
 20
-59.826191
 30
0.0
 11
340.871313
 21
-89.826191
 31
0.0
  0
LINE
  8
0
 10
288.290894
 20
-155.797791
 30
0.0
 11
280.741059
 21
-155.797791
 31
0.0
  0
LINE
  8
0
 10
288.290894
 20
-147.797791
 30
0.0
 11
280.741059
 21
-147.797791
 31
0.0
  0
CIRCLE
  8
0
 10
284.515976
 20
-151.797791
 30
0.0
 40
5.5
  0
CIRCLE
  8
0
 10
284.515976
 20
-151.797791
 30
0.0
 40
6.5
  0
LINE
  8
0
 10
275.515976
 20
-69.826191
 30
0.0
 11
275.515976
 21
-89.826191
 31
0.0
  0
LINE
  8
0
 10
293.515976
 20
-69.826191
 30
0.0
 11
293.515976
 21
-89.826191
 31
0.0
  0
LINE
  8
0
 10
317.515976
 20
-60.326191
 30
0.0
 11
317.515976
 21
-71.326191
 31
0.0
  0
LINE
  8
0
 10
251.515976
 20
-60.326191
 30
0.0
 11
251.515976
 21
-71.326191
 31
0.0
  0
LINE
  8
0
 10
317.515976
 20
-146.297791
 30
0.0
 11
317.515976
 21
-157.297791
 31
0.0
  0
LINE
  8
0
 10
251.515976
 20
-146.297791
 30
0.0
 11
251.515976
 21
-157.297791
 31
0.0
  0
ARC
  8
0
 10
301.578234
 20
-65.826191
 30
0.0
 40
9.0
 50
153.6122
 51
206.3878
  0
ARC
  8
0
 10
267.453719
 20
-65.826191
 30
0.0
 40
9.0
 50
333.6122
 51
26.3878
  0
CIRCLE
  8
0
 10
284.515976
 20
-151.797791
 30
0.0
 40
8.0
  0
LINE
  8
0
 10
324.515976
 20
-156.797791
 30
0.0
 11
324.515976
 21
-146.797791
 31
0.0
  0
LINE
  8
0
 10
316.515976
 20
-156.297791
 30
0.0
 11
316.515976
 21
-147.297791
 31
0.0
  0
LINE
  8
0
 10
317.515976
 20
-146.297791
 30
0.0
 11
324.015976
 21
-146.297791
 31
0.0
  0
LINE
  8
0
 10
317.515976
 20
-157.297791
 30
0.0
 11
324.015976
 21
-157.297791
 31
0.0
  0
LINE
  8
0
 10
324.015976
 20
-157.297791
 30
0.0
 11
324.515976
 21
-156.797791
 31
0.0
  0
LINE
  8
0
 10
324.515976
 20
-146.797791
 30
0.0
 11
324.015976
 21
-146.297791
 31
0.0
  0
LINE
  8
0
 10
316.515976
 20
-156.297791
 30
0.0
 11
317.515976
 21
-157.297791
 31
0.0
  0
LINE
  8
0
 10
316.515976
 20
-147.297791
 30
0.0
 11
317.515976
 21
-146.297791
 31
0.0
  0
LINE
  8
0
 10
244.515976
 20
-146.797791
 30
0.0
 11
244.515976
 21
-156.797791
 31
0.0
  0
LINE
  8
0
 10
245.015976
 20
-146.297791
 30
0.0
 11
251.515976
 21
-146.297791
 31
0.0
  0
LINE
  8
0
 10
245.015976
 20
-157.297791
 30
0.0
 11
251.515976
 21
-157.297791
 31
0.0
  0
LINE
  8
0
 10
252.515976
 20
-147.297791
 30
0.0
 11
252.515976
 21
-156.297791
 31
0.0
  0
LINE
  8
0
 10
245.015976
 20
-146.297791
 30
0.0
 11
244.515976
 21
-146.797791
 31
0.0
  0
LINE
  8
0
 10
244.515976
 20
-156.797791
 30
0.0
 11
245.015976
 21
-157.297791
 31
0.0
  0
LINE
  8
0
 10
251.515976
 20
-146.297791
 30
0.0
 11
252.515976
 21
-147.297791
 31
0.0
  0
LINE
  8
0
 10
252.515976
 20
-156.297791
 30
0.0
 11
251.515976
 21
-157.297791
 31
0.0
  0
LINE
  8
0
 10
292.578234
 20
-147.797791
 30
0.0
 11
316.515976
 21
-147.797791
 31
0.0
  0
LINE
  8
0
 10
292.578234
 20
-155.797791
 30
0.0
 11
316.515976
 21
-155.797791
 31
0.0
  0
LINE
  8
0
 10
252.515976
 20
-155.797791
 30
0.0
 11
276.453719
 21
-155.797791
 31
0.0
  0
LINE
  8
0
 10
252.515976
 20
-147.797791
 30
0.0
 11
276.453719
 21
-147.797791
 31
0.0
  0
CIRCLE
  8
0
 10
284.515976
 20
-151.797791
 30
0.0
 40
9.0
  0
LINE
  8
0
 10
316.515976
 20
-61.326191
 30
0.0
 11
317.515976
 21
-60.326191
 31
0.0
  0
LINE
  8
0
 10
316.515976
 20
-70.326191
 30
0.0
 11
317.515976
 21
-71.326191
 31
0.0
  0
LINE
  8
0
 10
252.515976
 20
-70.326191
 30
0.0
 11
251.515976
 21
-71.326191
 31
0.0
  0
LINE
  8
0
 10
251.515976
 20
-60.326191
 30
0.0
 11
252.515976
 21
-61.326191
 31
0.0
  0
LINE
  8
0
 10
324.515976
 20
-60.826191
 30
0.0
 11
324.015976
 21
-60.326191
 31
0.0
  0
LINE
  8
0
 10
324.015976
 20
-71.326191
 30
0.0
 11
324.515976
 21
-70.826191
 31
0.0
  0
LINE
  8
0
 10
244.515976
 20
-70.826191
 30
0.0
 11
245.015976
 21
-71.326191
 31
0.0
  0
LINE
  8
0
 10
245.015976
 20
-60.326191
 30
0.0
 11
244.515976
 21
-60.826191
 31
0.0
  0
LINE
  8
0
 10
317.515976
 20
-71.326191
 30
0.0
 11
324.015976
 21
-71.326191
 31
0.0
  0
LINE
  8
0
 10
317.515976
 20
-60.326191
 30
0.0
 11
324.015976
 21
-60.326191
 31
0.0
  0
LINE
  8
0
 10
316.515976
 20
-70.326191
 30
0.0
 11
316.515976
 21
-61.326191
 31
0.0
  0
LINE
  8
0
 10
252.515976
 20
-61.326191
 30
0.0
 11
252.515976
 21
-70.326191
 31
0.0
  0
LINE
  8
0
 10
245.015976
 20
-71.326191
 30
0.0
 11
251.515976
 21
-71.326191
 31
0.0
  0
LINE
  8
0
 10
245.015976
 20
-60.326191
 30
0.0
 11
251.515976
 21
-60.326191
 31
0.0
  0
LINE
  8
0
 10
293.515976
 20
-69.826191
 30
0.0
 11
316.515976
 21
-69.826191
 31
0.0
  0
LINE
  8
0
 10
293.515976
 20
-61.826191
 30
0.0
 11
316.515976
 21
-61.826191
 31
0.0
  0
LINE
  8
0
 10
324.515976
 20
-70.826191
 30
0.0
 11
324.515976
 21
-60.826191
 31
0.0
  0
LINE
  8
0
 10
244.515976
 20
-60.826191
 30
0.0
 11
244.515976
 21
-70.826191
 31
0.0
  0
LINE
  8
0
 10
252.515976
 20
-69.826191
 30
0.0
 11
275.515976
 21
-69.826191
 31
0.0
  0
LINE
  8
0
 10
252.515976
 20
-61.826191
 30
0.0
 11
275.515976
 21
-61.826191
 31
0.0
  0
LINE
  8
0
 10
293.515976
 20
-59.826191
 30
0.0
 11
293.515976
 21
-61.826191
 31
0.0
  0
LINE
  8
0
 10
275.515976
 20
-59.826191
 30
0.0
 11
275.515976
 21
-61.826191
 31
0.0
  0
LINE
  8
0
 10
280.265976
 20
-121.976191
 30
0.0
 11
288.765976
 21
-121.976191
 31
0.0
  0
LINE
  8
0
 10
288.115976
 20
-122.626191
 30
0.0
 11
289.515976
 21
-121.226191
 31
0.0
  0
LINE
  8
0
 10
280.915976
 20
-122.626191
 30
0.0
 11
279.515976
 21
-121.226191
 31
0.0
  0
ARC
  8
0
 10
284.515976
 20
-124.826191
 30
0.0
 40
6.0
 50
228.189685
 51
311.810315
  0
LINE
  8
0
 10
280.515976
 20
-126.326191
 30
0.0
 11
288.515976
 21
-126.326191
 31
0.0
  0
LINE
  8
0
 10
288.115976
 20
-122.626191
 30
0.0
 11
288.115976
 21
-126.326191
 31
0.0
  0
LINE
  8
0
 10
280.915976
 20
-122.626191
 30
0.0
 11
280.915976
 21
-126.326191
 31
0.0
  0
LINE
  8
0
 10
288.515976
 20
-126.326191
 30
0.0
 11
288.515976
 21
-129.298327
 31
0.0
  0
LINE
  8
0
 10
280.515976
 20
-126.326191
 30
0.0
 11
280.515976
 21
-129.298327
 31
0.0
  0
LINE
  8
0
 10
280.915976
 20
-122.626191
 30
0.0
 11
288.115976
 21
-122.626191
 31
0.0
  0
LINE
  8
0
 10
275.515976
 20
-89.826191
 30
0.0
 11
293.515976
 21
-89.826191
 31
0.0
  0
LINE
  8
0
 10
275.515976
 20
-59.826191
 30
0.0
 11
293.515976
 21
-59.826191
 31
0.0
  0
LINE
  8
0
 10
293.515976
 20
-59.826191
 30
0.0
 11
292.515976
 21
-58.826191
 31
0.0
  0
LINE
  8
0
 10
292.515976
 20
-90.826191
 30
0.0
 11
293.515976
 21
-89.826191
 31
0.0
  0
LINE
  8
0
 10
275.515976
 20
-89.826191
 30
0.0
 11
276.515976
 21
-90.826191
 31
0.0
  0
LINE
  8
0
 10
276.515976
 20
-58.826191
 30
0.0
 11
275.515976
 21
-59.826191
 31
0.0
  0
LINE
  8
0
 10
279.515976
 20
-100.076191
 30
0.0
 11
289.515976
 21
-100.076191
 31
0.0
  0
LINE
  8
0
 10
288.765976
 20
-100.826191
 30
0.0
 11
289.515976
 21
-100.076191
 31
0.0
  0
LINE
  8
0
 10
280.265976
 20
-100.826191
 30
0.0
 11
279.515976
 21
-100.076191
 31
0.0
  0
LINE
  8
0
 10
288.765976
 20
-100.826191
 30
0.0
 11
288.765976
 21
-121.976191
 31
0.0
  0
LINE
  8
0
 10
280.265976
 20
-100.826191
 30
0.0
 11
280.265976
 21
-121.976191
 31
0.0
  0
LINE
  8
0
 10
280.265976
 20
-100.826191
 30
0.0
 11
288.765976
 21
-100.826191
 31
0.0
  0
LINE
  8
0
 10
276.515976
 20
-90.826191
 30
0.0
 11
292.515976
 21
-90.826191
 31
0.0
  0
LINE
  8
0
 10
276.515976
 20
-58.826191
 30
0.0
 11
292.515976
 21
-58.826191
 31
0.0
  0
LINE
  8
0
 10
289.515976
 20
-90.826191
 30
0.0
 11
289.515976
 21
-121.226191
 31
0.0
  0
LINE
  8
0
 10
279.515976
 20
-90.826191
 30
0.0
 11
279.515976
 21
-121.226191
 31
0.0
  0
ENDSEC
  0
EOF
