  0
SECTION
  2
HEADER
  9
$ACADVER
  1
AC1009
  9
$INSBASE
 10
0.0
 20
0.0
 30
0.0
  9
$EXTMIN
 10
-44.645619
 20
-189.4771
 30
0.0
  9
$EXTMAX
 10
342.623578
 20
108.987342
 30
0.0
  9
$LIMMIN
 10
0.0
 20
0.0
  9
$LIMMAX
 10
12.0
 20
9.0
  9
$ORTHOMODE
 70
     1
  9
$REGENMODE
 70
     1
  9
$FILLMODE
 70
     1
  9
$QTEXTMODE
 70
     0
  9
$MIRRTEXT
 70
     1
  9
$DRAGMODE
 70
     2
  9
$LTSCALE
 40
8.0
  9
$OSMODE
 70
     0
  9
$ATTMODE
 70
     1
  9
$TEXTSIZE
 40
0.2
  9
$TRACEWID
 40
0.05
  9
$TEXTSTYLE
  7
STANDARD
  9
$CLAYER
  8
0
  9
$CELTYPE
  6
BYLAYER
  9
$CECOLOR
 62
   256
  9
$DIMSCALE
 40
1.0
  9
$DIMASZ
 40
2.5
  9
$DIMEXO
 40
0.0
  9
$DIMDLI
 40
5.0
  9
$DIMRND
 40
0.0
  9
$DIMDLE
 40
0.0
  9
$DIMEXE
 40
1.0
  9
$DIMTP
 40
0.0
  9
$DIMTM
 40
0.0
  9
$DIMTXT
 40
2.5
  9
$DIMCEN
 40
0.09
  9
$DIMTSZ
 40
0.0
  9
$DIMTOL
 70
     0
  9
$DIMLIM
 70
     0
  9
$DIMTIH
 70
     0
  9
$DIMTOH
 70
     0
  9
$DIMSE1
 70
     0
  9
$DIMSE2
 70
     0
  9
$DIMTAD
 70
     1
  9
$DIMZIN
 70
     0
  9
$DIMBLK
  1

  9
$DIMASO
 70
     0
  9
$DIMSHO
 70
     0
  9
$DIMPOST
  1

  9
$DIMAPOST
  1

  9
$DIMALT
 70
     0
  9
$DIMALTD
 70
     2
  9
$DIMALTF
 40
25.4
  9
$DIMLFAC
 40
1.0
  9
$DIMTOFL
 70
     1
  9
$DIMTVP
 40
0.0
  9
$DIMTIX
 70
     0
  9
$DIMSOXD
 70
     0
  9
$DIMSAH
 70
     0
  9
$DIMBLK1
  1

  9
$DIMBLK2
  1

  9
$DIMSTYLE
  2
*UNNAMED
  9
$DIMCLRD
 70
     0
  9
$DIMCLRE
 70
     0
  9
$DIMCLRT
 70
     0
  9
$DIMTFAC
 40
1.0
  9
$DIMGAP
 40
0.09
  9
$LUNITS
 70
     2
  9
$LUPREC
 70
     4
  9
$SKETCHINC
 40
0.1
  9
$FILLETRAD
 40
0.0
  9
$AUNITS
 70
     0
  9
$AUPREC
 70
     0
  9
$MENU
  1
wiberger
  9
$ELEVATION
 40
0.0
  9
$PELEVATION
 40
0.0
  9
$THICKNESS
 40
0.0
  9
$LIMCHECK
 70
     0
  9
$BLIPMODE
 70
     1
  9
$CHAMFERA
 40
1.0
  9
$CHAMFERB
 40
1.0
  9
$SKPOLY
 70
     0
  9
$TDCREATE
 40
2450192.404195602
  9
$TDUPDATE
 40
2450211.512571759
  9
$TDINDWG
 40
0.0004030093
  9
$TDUSRTIMER
 40
0.0004030093
  9
$USRTIMER
 70
     1
  9
$ANGBASE
 50
0.0
  9
$ANGDIR
 70
     0
  9
$PDMODE
 70
     0
  9
$PDSIZE
 40
0.0
  9
$PLINEWID
 40
0.0
  9
$COORDS
 70
     0
  9
$SPLFRAME
 70
     0
  9
$SPLINETYPE
 70
     6
  9
$SPLINESEGS
 70
     8
  9
$ATTDIA
 70
     0
  9
$ATTREQ
 70
     1
  9
$HANDLING
 70
     0
  9
$HANDSEED
  5
0
  9
$SURFTAB1
 70
     6
  9
$SURFTAB2
 70
     6
  9
$SURFTYPE
 70
     6
  9
$SURFU
 70
     6
  9
$SURFV
 70
     6
  9
$UCSNAME
  2

  9
$UCSORG
 10
0.0
 20
0.0
 30
0.0
  9
$UCSXDIR
 10
1.0
 20
0.0
 30
0.0
  9
$UCSYDIR
 10
0.0
 20
1.0
 30
0.0
  9
$PUCSNAME
  2

  9
$PUCSORG
 10
0.0
 20
0.0
 30
0.0
  9
$PUCSXDIR
 10
1.0
 20
0.0
 30
0.0
  9
$PUCSYDIR
 10
0.0
 20
1.0
 30
0.0
  9
$USERI1
 70
     0
  9
$USERI2
 70
     0
  9
$USERI3
 70
     0
  9
$USERI4
 70
     0
  9
$USERI5
 70
     0
  9
$USERR1
 40
0.0
  9
$USERR2
 40
0.0
  9
$USERR3
 40
0.0
  9
$USERR4
 40
0.0
  9
$USERR5
 40
0.0
  9
$WORLDVIEW
 70
     1
  9
$SHADEDGE
 70
     3
  9
$SHADEDIF
 70
    70
  9
$TILEMODE
 70
     1
  9
$MAXACTVP
 70
    16
  9
$PINSBASE
 10
0.0
 20
0.0
 30
0.0
  9
$PLIMCHECK
 70
     0
  9
$PEXTMIN
 10
1.000000E+20
 20
1.000000E+20
 30
1.000000E+20
  9
$PEXTMAX
 10
-1.000000E+20
 20
-1.000000E+20
 30
-1.000000E+20
  9
$PLIMMIN
 10
0.0
 20
0.0
  9
$PLIMMAX
 10
12.0
 20
9.0
  9
$UNITMODE
 70
     0
  9
$VISRETAIN
 70
     0
  9
$PLINEGEN
 70
     0
  9
$PSLTSCALE
 70
     0
  9
$TREEDEPTH
 70
  3020
  9
$DWGCODEPAGE
  3
undefined
  0
ENDSEC
  0
SECTION
  2
TABLES
  0
TABLE
  2
VPORT
 70
     2
  0
VPORT
  2
*ACTIVE
 70
     0
 10
0.0
 20
0.0
 11
1.0
 21
1.0
 12
213.402328
 22
-40.244879
 13
0.0
 23
0.0
 14
1.0
 24
1.0
 15
0.0
 25
0.0
 16
0.0
 26
0.0
 36
1.0
 17
0.0
 27
0.0
 37
0.0
 40
331.627157
 41
1.767507
 42
50.0
 43
0.0
 44
0.0
 50
0.0
 51
0.0
 71
     0
 72
   100
 73
     1
 74
     0
 75
     0
 76
     0
 77
     0
 78
     0
  0
ENDTAB
  0
TABLE
  2
LTYPE
 70
     2
  0
LTYPE
  2
CONTINUOUS
 70
    64
  3
Solid line
 72
    65
 73
     0
 40
0.0
  0
LTYPE
  2
CENTER
 70
    64
  3
____ _ ____ _ ____ _ ____ _ ____ _ ____ _ ____
 72
    65
 73
     4
 40
2.0
 49
1.25
 49
-0.25
 49
0.25
 49
-0.25
  0
ENDTAB
  0
TABLE
  2
LAYER
 70
     1
  0
LAYER
  2
0
 70
    64
 62
     7
  6
CONTINUOUS
  0
ENDTAB
  0
TABLE
  2
STYLE
 70
     1
  0
STYLE
  2
STANDARD
 70
     0
 40
0.0
 41
1.0
 50
0.0
 71
     0
 42
0.2
  3
txt
  4

  0
ENDTAB
  0
TABLE
  2
VIEW
 70
     0
  0
ENDTAB
  0
TABLE
  2
UCS
 70
     0
  0
ENDTAB
  0
TABLE
  2
APPID
 70
     1
  0
APPID
  2
ACAD
 70
    64
  0
ENDTAB
  0
TABLE
  2
DIMSTYLE
 70
     0
  0
ENDTAB
  0
ENDSEC
  0
SECTION
  2
BLOCKS
  0
BLOCK
  8
0
  2
*X0
 70
    65
 10
0.0
 20
0.0
 30
0.0
  3
*X
  0
LINE
  8
0
 62
     0
 10
-13.645619
 20
49.993991
 30
0.0
 11
-8.895619
 21
54.743991
 31
0.0
  0
LINE
  8
0
 62
     0
 10
-13.645619
 20
52.645642
 30
0.0
 11
-4.645619
 21
61.645642
 31
0.0
  0
LINE
  8
0
 62
     0
 10
-13.645619
 20
55.297292
 30
0.0
 11
-4.645619
 21
64.297292
 31
0.0
  0
LINE
  8
0
 62
     0
 10
-13.645619
 20
57.948943
 30
0.0
 11
-4.645619
 21
66.948943
 31
0.0
  0
LINE
  8
0
 62
     0
 10
-13.645619
 20
60.600593
 30
0.0
 11
-4.645619
 21
69.600593
 31
0.0
  0
LINE
  8
0
 62
     0
 10
-13.645619
 20
63.252244
 30
0.0
 11
-4.645619
 21
72.252244
 31
0.0
  0
LINE
  8
0
 62
     0
 10
-13.645619
 20
65.903894
 30
0.0
 11
-4.645619
 21
74.903894
 31
0.0
  0
LINE
  8
0
 62
     0
 10
-13.645619
 20
68.555544
 30
0.0
 11
-4.645619
 21
77.555544
 31
0.0
  0
LINE
  8
0
 62
     0
 10
-13.645619
 20
71.207195
 30
0.0
 11
-4.721772
 21
80.131042
 31
0.0
  0
LINE
  8
0
 62
     0
 10
-13.645619
 20
73.858845
 30
0.0
 11
-7.373423
 21
80.131042
 31
0.0
  0
LINE
  8
0
 62
     0
 10
-13.645619
 20
76.510496
 30
0.0
 11
-10.025073
 21
80.131042
 31
0.0
  0
LINE
  8
0
 62
     0
 10
-13.645619
 20
79.162146
 30
0.0
 11
-12.676724
 21
80.131042
 31
0.0
  0
LINE
  8
0
 62
     0
 10
-13.645619
 20
47.342341
 30
0.0
 11
-8.895619
 21
52.092341
 31
0.0
  0
LINE
  8
0
 62
     0
 10
-13.645619
 20
44.690691
 30
0.0
 11
-8.895619
 21
49.440691
 31
0.0
  0
LINE
  8
0
 62
     0
 10
-13.645619
 20
42.03904
 30
0.0
 11
-8.895619
 21
46.78904
 31
0.0
  0
LINE
  8
0
 62
     0
 10
-13.645619
 20
39.38739
 30
0.0
 11
-8.895619
 21
44.13739
 31
0.0
  0
LINE
  8
0
 62
     0
 10
-13.645619
 20
36.735739
 30
0.0
 11
-8.895619
 21
41.485739
 31
0.0
  0
LINE
  8
0
 62
     0
 10
-13.645619
 20
34.084089
 30
0.0
 11
-8.895619
 21
38.834089
 31
0.0
  0
LINE
  8
0
 62
     0
 10
-13.296317
 20
31.78174
 30
0.0
 11
-8.895619
 21
36.182438
 31
0.0
  0
LINE
  8
0
 62
     0
 10
-11.295365
 20
31.131042
 30
0.0
 11
-8.895619
 21
33.530788
 31
0.0
  0
ENDBLK
  8
0
  0
BLOCK
  8
0
  2
*X1
 70
    65
 10
0.0
 20
0.0
 30
0.0
  3
*X
  0
LINE
  8
0
 62
     0
 10
-9.980024
 20
88.131042
 30
0.0
 11
-6.980024
 21
91.131042
 31
0.0
  0
LINE
  8
0
 62
     0
 10
-12.631675
 20
88.131042
 30
0.0
 11
-9.631675
 21
91.131042
 31
0.0
  0
LINE
  8
0
 62
     0
 10
-13.645619
 20
89.768748
 30
0.0
 11
-12.283325
 21
91.131042
 31
0.0
  0
LINE
  8
0
 62
     0
 10
-7.328374
 20
88.131042
 30
0.0
 11
-4.645619
 21
90.813797
 31
0.0
  0
LINE
  8
0
 62
     0
 10
-4.676724
 20
88.131042
 30
0.0
 11
-4.645619
 21
88.162146
 31
0.0
  0
ENDBLK
  8
0
  0
BLOCK
  8
0
  2
*X2
 70
    65
 10
0.0
 20
0.0
 30
0.0
  3
*X
  0
LINE
  8
0
 62
     0
 10
157.399965
 20
56.637248
 30
0.0
 11
162.299965
 21
61.537248
 31
0.0
  0
LINE
  8
0
 62
     0
 10
157.399965
 20
59.288899
 30
0.0
 11
162.299965
 21
64.188899
 31
0.0
  0
LINE
  8
0
 62
     0
 10
166.895124
 20
68.784058
 30
0.0
 11
167.399965
 21
69.288899
 31
0.0
  0
LINE
  8
0
 62
     0
 10
157.399965
 20
61.940549
 30
0.0
 11
167.399965
 21
71.940549
 31
0.0
  0
LINE
  8
0
 62
     0
 10
157.399965
 20
64.5922
 30
0.0
 11
167.399965
 21
74.5922
 31
0.0
  0
LINE
  8
0
 62
     0
 10
157.399965
 20
67.24385
 30
0.0
 11
167.399965
 21
77.24385
 31
0.0
  0
LINE
  8
0
 62
     0
 10
157.399965
 20
69.8955
 30
0.0
 11
167.399965
 21
79.8955
 31
0.0
  0
LINE
  8
0
 62
     0
 10
157.399965
 20
72.547151
 30
0.0
 11
167.399965
 21
82.547151
 31
0.0
  0
LINE
  8
0
 62
     0
 10
157.399965
 20
75.198801
 30
0.0
 11
167.399965
 21
85.198801
 31
0.0
  0
LINE
  8
0
 62
     0
 10
157.399965
 20
77.850452
 30
0.0
 11
166.680554
 21
87.131042
 31
0.0
  0
LINE
  8
0
 62
     0
 10
157.399965
 20
80.502102
 30
0.0
 11
164.028904
 21
87.131042
 31
0.0
  0
LINE
  8
0
 62
     0
 10
157.399965
 20
83.153753
 30
0.0
 11
161.377254
 21
87.131042
 31
0.0
  0
LINE
  8
0
 62
     0
 10
157.399965
 20
85.805403
 30
0.0
 11
158.725603
 21
87.131042
 31
0.0
  0
LINE
  8
0
 62
     0
 10
157.399965
 20
53.985598
 30
0.0
 11
162.299965
 21
58.885598
 31
0.0
  0
LINE
  8
0
 62
     0
 10
157.399965
 20
51.333947
 30
0.0
 11
162.299965
 21
56.233947
 31
0.0
  0
LINE
  8
0
 62
     0
 10
157.399965
 20
48.682297
 30
0.0
 11
162.299965
 21
53.582297
 31
0.0
  0
LINE
  8
0
 62
     0
 10
157.399965
 20
46.030647
 30
0.0
 11
162.299965
 21
50.930647
 31
0.0
  0
LINE
  8
0
 62
     0
 10
157.399965
 20
43.378996
 30
0.0
 11
162.299965
 21
48.278996
 31
0.0
  0
LINE
  8
0
 62
     0
 10
157.399965
 20
40.727346
 30
0.0
 11
162.299965
 21
45.627346
 31
0.0
  0
LINE
  8
0
 62
     0
 10
157.399965
 20
38.075695
 30
0.0
 11
162.299965
 21
42.975695
 31
0.0
  0
LINE
  8
0
 62
     0
 10
157.399965
 20
35.424045
 30
0.0
 11
162.299965
 21
40.324045
 31
0.0
  0
LINE
  8
0
 62
     0
 10
157.399965
 20
32.772394
 30
0.0
 11
162.299965
 21
37.672394
 31
0.0
  0
LINE
  8
0
 62
     0
 10
158.410262
 20
31.131042
 30
0.0
 11
162.299965
 21
35.020744
 31
0.0
  0
LINE
  8
0
 62
     0
 10
161.061913
 20
31.131042
 30
0.0
 11
162.299965
 21
32.369094
 31
0.0
  0
ENDBLK
  8
0
  0
BLOCK
  8
0
  2
*X3
 70
    65
 10
0.0
 20
0.0
 30
0.0
  3
*X
  0
LINE
  8
0
 62
     0
 10
158.119001
 20
97.131042
 30
0.0
 11
162.119001
 21
101.131042
 31
0.0
  0
LINE
  8
0
 62
     0
 10
157.399965
 20
99.063655
 30
0.0
 11
159.467351
 21
101.131042
 31
0.0
  0
LINE
  8
0
 62
     0
 10
160.770652
 20
97.131042
 30
0.0
 11
164.770652
 21
101.131042
 31
0.0
  0
LINE
  8
0
 62
     0
 10
163.422302
 20
97.131042
 30
0.0
 11
167.399965
 21
101.108704
 31
0.0
  0
LINE
  8
0
 62
     0
 10
166.073953
 20
97.131042
 30
0.0
 11
167.399965
 21
98.457053
 31
0.0
  0
ENDBLK
  8
0
  0
BLOCK
  8
0
  2
*X4
 70
    65
 10
0.0
 20
0.0
 30
0.0
  3
*X
  0
LINE
  8
0
 62
     0
 10
3.354381
 20
-108.014937
 30
0.0
 11
8.354381
 21
-103.014937
 31
0.0
  0
LINE
  8
0
 62
     0
 10
3.354381
 20
-105.363286
 30
0.0
 11
8.354381
 21
-100.363286
 31
0.0
  0
LINE
  8
0
 62
     0
 10
3.354381
 20
-102.711636
 30
0.0
 11
8.354381
 21
-97.711636
 31
0.0
  0
LINE
  8
0
 62
     0
 10
13.485185
 20
-92.580833
 30
0.0
 11
15.354381
 21
-90.711636
 31
0.0
  0
LINE
  8
0
 62
     0
 10
3.354381
 20
-100.059986
 30
0.0
 11
15.354381
 21
-88.059986
 31
0.0
  0
LINE
  8
0
 62
     0
 10
3.354381
 20
-97.408335
 30
0.0
 11
15.354381
 21
-85.408335
 31
0.0
  0
LINE
  8
0
 62
     0
 10
3.354381
 20
-94.756685
 30
0.0
 11
15.354381
 21
-82.756685
 31
0.0
  0
LINE
  8
0
 62
     0
 10
3.354381
 20
-92.105034
 30
0.0
 11
15.354381
 21
-80.105034
 31
0.0
  0
LINE
  8
0
 62
     0
 10
3.354381
 20
-89.453384
 30
0.0
 11
15.354381
 21
-77.453384
 31
0.0
  0
LINE
  8
0
 62
     0
 10
3.354381
 20
-86.801733
 30
0.0
 11
15.354381
 21
-74.801733
 31
0.0
  0
LINE
  8
0
 62
     0
 10
3.354381
 20
-84.150083
 30
0.0
 11
15.354381
 21
-72.150083
 31
0.0
  0
LINE
  8
0
 62
     0
 10
3.354381
 20
-81.498433
 30
0.0
 11
15.30971
 21
-69.543103
 31
0.0
  0
LINE
  8
0
 62
     0
 10
3.354381
 20
-78.846782
 30
0.0
 11
12.65806
 21
-69.543103
 31
0.0
  0
LINE
  8
0
 62
     0
 10
3.354381
 20
-76.195132
 30
0.0
 11
10.00641
 21
-69.543103
 31
0.0
  0
LINE
  8
0
 62
     0
 10
3.354381
 20
-73.543481
 30
0.0
 11
7.354759
 21
-69.543103
 31
0.0
  0
LINE
  8
0
 62
     0
 10
3.354381
 20
-70.891831
 30
0.0
 11
4.703109
 21
-69.543103
 31
0.0
  0
LINE
  8
0
 62
     0
 10
3.354381
 20
-110.666587
 30
0.0
 11
8.354381
 21
-105.666587
 31
0.0
  0
LINE
  8
0
 62
     0
 10
3.354381
 20
-113.318238
 30
0.0
 11
8.354381
 21
-108.318238
 31
0.0
  0
LINE
  8
0
 62
     0
 10
3.354381
 20
-115.969888
 30
0.0
 11
8.354381
 21
-110.969888
 31
0.0
  0
LINE
  8
0
 62
     0
 10
3.354381
 20
-118.621539
 30
0.0
 11
8.354381
 21
-113.621539
 31
0.0
  0
LINE
  8
0
 62
     0
 10
3.354381
 20
-121.273189
 30
0.0
 11
8.354381
 21
-116.273189
 31
0.0
  0
LINE
  8
0
 62
     0
 10
3.354381
 20
-123.924839
 30
0.0
 11
8.354381
 21
-118.924839
 31
0.0
  0
LINE
  8
0
 62
     0
 10
3.354381
 20
-126.57649
 30
0.0
 11
8.354381
 21
-121.57649
 31
0.0
  0
LINE
  8
0
 62
     0
 10
3.354381
 20
-129.22814
 30
0.0
 11
8.354381
 21
-124.22814
 31
0.0
  0
LINE
  8
0
 62
     0
 10
3.354381
 20
-131.879791
 30
0.0
 11
8.354381
 21
-126.879791
 31
0.0
  0
LINE
  8
0
 62
     0
 10
3.354381
 20
-134.531441
 30
0.0
 11
8.354381
 21
-129.531441
 31
0.0
  0
LINE
  8
0
 62
     0
 10
3.674375
 20
-136.863097
 30
0.0
 11
8.354381
 21
-132.183092
 31
0.0
  0
LINE
  8
0
 62
     0
 10
5.64602
 20
-137.543103
 30
0.0
 11
8.354381
 21
-134.834742
 31
0.0
  0
ENDBLK
  8
0
  0
BLOCK
  8
0
  2
*X5
 70
    65
 10
0.0
 20
0.0
 30
0.0
  3
*X
  0
LINE
  8
0
 62
     0
 10
6.096507
 20
-57.543103
 30
0.0
 11
11.096507
 21
-52.543103
 31
0.0
  0
LINE
  8
0
 62
     0
 10
3.444857
 20
-57.543103
 30
0.0
 11
8.444857
 21
-52.543103
 31
0.0
  0
LINE
  8
0
 62
     0
 10
3.354381
 20
-54.981928
 30
0.0
 11
5.793206
 21
-52.543103
 31
0.0
  0
LINE
  8
0
 62
     0
 10
8.748157
 20
-57.543103
 30
0.0
 11
13.748157
 21
-52.543103
 31
0.0
  0
LINE
  8
0
 62
     0
 10
11.399808
 20
-57.543103
 30
0.0
 11
15.354381
 21
-53.58853
 31
0.0
  0
LINE
  8
0
 62
     0
 10
14.051458
 20
-57.543103
 30
0.0
 11
15.354381
 21
-56.24018
 31
0.0
  0
ENDBLK
  8
0
  0
BLOCK
  8
0
  2
*X6
 70
    65
 10
0.0
 20
0.0
 30
0.0
  3
*X
  0
LINE
  8
0
 62
     0
 10
209.219928
 20
-108.978124
 30
0.0
 11
215.469928
 21
-102.728124
 31
0.0
  0
LINE
  8
0
 62
     0
 10
209.219928
 20
-105.44259
 30
0.0
 11
215.469928
 21
-99.19259
 31
0.0
  0
LINE
  8
0
 62
     0
 10
209.219928
 20
-101.907056
 30
0.0
 11
215.469928
 21
-95.657056
 31
0.0
  0
LINE
  8
0
 62
     0
 10
209.219928
 20
-98.371522
 30
0.0
 11
215.469928
 21
-92.121522
 31
0.0
  0
LINE
  8
0
 62
     0
 10
216.838481
 20
-90.752969
 30
0.0
 11
224.219928
 21
-83.371522
 31
0.0
  0
LINE
  8
0
 62
     0
 10
209.219928
 20
-94.835988
 30
0.0
 11
224.219928
 21
-79.835988
 31
0.0
  0
LINE
  8
0
 62
     0
 10
209.219928
 20
-91.300454
 30
0.0
 11
224.219928
 21
-76.300454
 31
0.0
  0
LINE
  8
0
 62
     0
 10
209.219928
 20
-87.76492
 30
0.0
 11
224.219928
 21
-72.76492
 31
0.0
  0
LINE
  8
0
 62
     0
 10
209.219928
 20
-84.229386
 30
0.0
 11
224.219928
 21
-69.229386
 31
0.0
  0
LINE
  8
0
 62
     0
 10
209.219928
 20
-80.693853
 30
0.0
 11
224.219928
 21
-65.693853
 31
0.0
  0
LINE
  8
0
 62
     0
 10
209.219928
 20
-77.158319
 30
0.0
 11
220.835143
 21
-65.543103
 31
0.0
  0
LINE
  8
0
 62
     0
 10
209.219928
 20
-73.622785
 30
0.0
 11
217.299609
 21
-65.543103
 31
0.0
  0
LINE
  8
0
 62
     0
 10
209.219928
 20
-70.087251
 30
0.0
 11
213.764075
 21
-65.543103
 31
0.0
  0
LINE
  8
0
 62
     0
 10
209.219928
 20
-66.551717
 30
0.0
 11
210.228541
 21
-65.543103
 31
0.0
  0
LINE
  8
0
 62
     0
 10
209.219928
 20
-112.513658
 30
0.0
 11
215.469928
 21
-106.263658
 31
0.0
  0
LINE
  8
0
 62
     0
 10
209.219928
 20
-116.049192
 30
0.0
 11
215.469928
 21
-109.799192
 31
0.0
  0
LINE
  8
0
 62
     0
 10
209.219928
 20
-119.584726
 30
0.0
 11
215.469928
 21
-113.334726
 31
0.0
  0
LINE
  8
0
 62
     0
 10
209.219928
 20
-123.120259
 30
0.0
 11
215.469928
 21
-116.870259
 31
0.0
  0
LINE
  8
0
 62
     0
 10
209.219928
 20
-126.655793
 30
0.0
 11
215.469928
 21
-120.405793
 31
0.0
  0
LINE
  8
0
 62
     0
 10
209.219928
 20
-130.191327
 30
0.0
 11
215.469928
 21
-123.941327
 31
0.0
  0
LINE
  8
0
 62
     0
 10
209.219928
 20
-133.726861
 30
0.0
 11
215.469928
 21
-127.476861
 31
0.0
  0
LINE
  8
0
 62
     0
 10
209.579574
 20
-136.902749
 30
0.0
 11
215.469928
 21
-131.012395
 31
0.0
  0
LINE
  8
0
 62
     0
 10
212.474753
 20
-137.543103
 30
0.0
 11
215.469928
 21
-134.547929
 31
0.0
  0
ENDBLK
  8
0
  0
BLOCK
  8
0
  2
*X7
 70
    65
 10
0.0
 20
0.0
 30
0.0
  3
*X
  0
LINE
  8
0
 62
     0
 10
212.086406
 20
-49.543103
 30
0.0
 11
219.086406
 21
-42.543103
 31
0.0
  0
LINE
  8
0
 62
     0
 10
209.219928
 20
-48.874047
 30
0.0
 11
215.550872
 21
-42.543103
 31
0.0
  0
LINE
  8
0
 62
     0
 10
209.219928
 20
-45.338514
 30
0.0
 11
212.015338
 21
-42.543103
 31
0.0
  0
LINE
  8
0
 62
     0
 10
215.62194
 20
-49.543103
 30
0.0
 11
222.62194
 21
-42.543103
 31
0.0
  0
LINE
  8
0
 62
     0
 10
219.157474
 20
-49.543103
 30
0.0
 11
224.219928
 21
-44.480649
 31
0.0
  0
LINE
  8
0
 62
     0
 10
222.693007
 20
-49.543103
 30
0.0
 11
224.219928
 21
-48.016183
 31
0.0
  0
ENDBLK
  8
0
  0
BLOCK
  8
0
  2
*X8
 70
    65
 10
0.0
 20
0.0
 30
0.0
  3
*X
  0
LINE
  8
0
 62
     0
 10
196.357858
 20
-65.543103
 30
0.0
 11
180.357858
 21
-49.543103
 31
0.0
  0
LINE
  8
0
 62
     0
 10
192.822324
 20
-65.543103
 30
0.0
 11
176.822324
 21
-49.543103
 31
0.0
  0
LINE
  8
0
 62
     0
 10
189.28679
 20
-65.543103
 30
0.0
 11
173.28679
 21
-49.543103
 31
0.0
  0
LINE
  8
0
 62
     0
 10
185.751256
 20
-65.543103
 30
0.0
 11
169.751256
 21
-49.543103
 31
0.0
  0
LINE
  8
0
 62
     0
 10
182.215722
 20
-65.543103
 30
0.0
 11
166.215722
 21
-49.543103
 31
0.0
  0
LINE
  8
0
 62
     0
 10
178.680188
 20
-65.543103
 30
0.0
 11
162.680188
 21
-49.543103
 31
0.0
  0
LINE
  8
0
 62
     0
 10
175.144654
 20
-65.543103
 30
0.0
 11
159.144654
 21
-49.543103
 31
0.0
  0
LINE
  8
0
 62
     0
 10
171.60912
 20
-65.543103
 30
0.0
 11
155.60912
 21
-49.543103
 31
0.0
  0
LINE
  8
0
 62
     0
 10
168.073587
 20
-65.543103
 30
0.0
 11
154.219928
 21
-51.689444
 31
0.0
  0
LINE
  8
0
 62
     0
 10
164.538053
 20
-65.543103
 30
0.0
 11
154.219928
 21
-55.224978
 31
0.0
  0
LINE
  8
0
 62
     0
 10
161.002519
 20
-65.543103
 30
0.0
 11
154.219928
 21
-58.760512
 31
0.0
  0
LINE
  8
0
 62
     0
 10
157.466985
 20
-65.543103
 30
0.0
 11
154.219928
 21
-62.296046
 31
0.0
  0
LINE
  8
0
 62
     0
 10
199.893392
 20
-65.543103
 30
0.0
 11
183.893392
 21
-49.543103
 31
0.0
  0
LINE
  8
0
 62
     0
 10
203.428926
 20
-65.543103
 30
0.0
 11
187.428926
 21
-49.543103
 31
0.0
  0
LINE
  8
0
 62
     0
 10
206.96446
 20
-65.543103
 30
0.0
 11
190.96446
 21
-49.543103
 31
0.0
  0
LINE
  8
0
 62
     0
 10
210.499993
 20
-65.543103
 30
0.0
 11
194.499993
 21
-49.543103
 31
0.0
  0
LINE
  8
0
 62
     0
 10
214.035527
 20
-65.543103
 30
0.0
 11
198.035527
 21
-49.543103
 31
0.0
  0
LINE
  8
0
 62
     0
 10
217.571061
 20
-65.543103
 30
0.0
 11
201.571061
 21
-49.543103
 31
0.0
  0
LINE
  8
0
 62
     0
 10
221.106595
 20
-65.543103
 30
0.0
 11
205.106595
 21
-49.543103
 31
0.0
  0
LINE
  8
0
 62
     0
 10
224.219928
 20
-65.120902
 30
0.0
 11
208.642129
 21
-49.543103
 31
0.0
  0
LINE
  8
0
 62
     0
 10
224.219928
 20
-61.585368
 30
0.0
 11
212.177663
 21
-49.543103
 31
0.0
  0
LINE
  8
0
 62
     0
 10
224.219928
 20
-58.049834
 30
0.0
 11
215.713197
 21
-49.543103
 31
0.0
  0
LINE
  8
0
 62
     0
 10
224.219928
 20
-54.5143
 30
0.0
 11
219.248731
 21
-49.543103
 31
0.0
  0
LINE
  8
0
 62
     0
 10
224.219928
 20
-50.978766
 30
0.0
 11
222.784265
 21
-49.543103
 31
0.0
  0
ENDBLK
  8
0
  0
BLOCK
  8
0
  2
*X9
 70
    65
 10
0.0
 20
0.0
 30
0.0
  3
*X
  0
LINE
  8
0
 62
     0
 10
-7.354759
 20
-69.543103
 30
0.0
 11
-19.354759
 21
-57.543103
 31
0.0
  0
LINE
  8
0
 62
     0
 10
-10.00641
 20
-69.543103
 30
0.0
 11
-22.00641
 21
-57.543103
 31
0.0
  0
LINE
  8
0
 62
     0
 10
-12.65806
 20
-69.543103
 30
0.0
 11
-24.65806
 21
-57.543103
 31
0.0
  0
LINE
  8
0
 62
     0
 10
-15.30971
 20
-69.543103
 30
0.0
 11
-27.30971
 21
-57.543103
 31
0.0
  0
LINE
  8
0
 62
     0
 10
-17.961361
 20
-69.543103
 30
0.0
 11
-29.961361
 21
-57.543103
 31
0.0
  0
LINE
  8
0
 62
     0
 10
-20.613011
 20
-69.543103
 30
0.0
 11
-32.613011
 21
-57.543103
 31
0.0
  0
LINE
  8
0
 62
     0
 10
-23.264662
 20
-69.543103
 30
0.0
 11
-35.264662
 21
-57.543103
 31
0.0
  0
LINE
  8
0
 62
     0
 10
-25.916312
 20
-69.543103
 30
0.0
 11
-37.916312
 21
-57.543103
 31
0.0
  0
LINE
  8
0
 62
     0
 10
-28.567963
 20
-69.543103
 30
0.0
 11
-40.567963
 21
-57.543103
 31
0.0
  0
LINE
  8
0
 62
     0
 10
-31.219613
 20
-69.543103
 30
0.0
 11
-43.219613
 21
-57.543103
 31
0.0
  0
LINE
  8
0
 62
     0
 10
-33.871263
 20
-69.543103
 30
0.0
 11
-44.645619
 21
-58.768748
 31
0.0
  0
LINE
  8
0
 62
     0
 10
-36.522914
 20
-69.543103
 30
0.0
 11
-44.645619
 21
-61.420398
 31
0.0
  0
LINE
  8
0
 62
     0
 10
-39.174564
 20
-69.543103
 30
0.0
 11
-44.645619
 21
-64.072049
 31
0.0
  0
LINE
  8
0
 62
     0
 10
-41.826215
 20
-69.543103
 30
0.0
 11
-44.645619
 21
-66.723699
 31
0.0
  0
LINE
  8
0
 62
     0
 10
-4.703109
 20
-69.543103
 30
0.0
 11
-16.703109
 21
-57.543103
 31
0.0
  0
LINE
  8
0
 62
     0
 10
-2.051458
 20
-69.543103
 30
0.0
 11
-14.051458
 21
-57.543103
 31
0.0
  0
LINE
  8
0
 62
     0
 10
0.600192
 20
-69.543103
 30
0.0
 11
-11.399808
 21
-57.543103
 31
0.0
  0
LINE
  8
0
 62
     0
 10
3.251843
 20
-69.543103
 30
0.0
 11
-8.748157
 21
-57.543103
 31
0.0
  0
LINE
  8
0
 62
     0
 10
5.903493
 20
-69.543103
 30
0.0
 11
-6.096507
 21
-57.543103
 31
0.0
  0
LINE
  8
0
 62
     0
 10
8.555143
 20
-69.543103
 30
0.0
 11
-3.444857
 21
-57.543103
 31
0.0
  0
LINE
  8
0
 62
     0
 10
11.206794
 20
-69.543103
 30
0.0
 11
-0.793206
 21
-57.543103
 31
0.0
  0
LINE
  8
0
 62
     0
 10
13.858444
 20
-69.543103
 30
0.0
 11
1.858444
 21
-57.543103
 31
0.0
  0
LINE
  8
0
 62
     0
 10
15.354381
 20
-68.38739
 30
0.0
 11
4.510095
 21
-57.543103
 31
0.0
  0
LINE
  8
0
 62
     0
 10
15.354381
 20
-65.735739
 30
0.0
 11
7.161745
 21
-57.543103
 31
0.0
  0
LINE
  8
0
 62
     0
 10
15.354381
 20
-63.084089
 30
0.0
 11
9.813396
 21
-57.543103
 31
0.0
  0
LINE
  8
0
 62
     0
 10
15.354381
 20
-60.432438
 30
0.0
 11
12.465046
 21
-57.543103
 31
0.0
  0
LINE
  8
0
 62
     0
 10
15.354381
 20
-57.780788
 30
0.0
 11
15.116696
 21
-57.543103
 31
0.0
  0
ENDBLK
  8
0
  0
BLOCK
  8
0
  2
*X10
 70
    65
 10
0.0
 20
0.0
 30
0.0
  3
*X
  0
LINE
  8
0
 62
     0
 10
146.214196
 20
87.131042
 30
0.0
 11
136.214196
 21
97.131042
 31
0.0
  0
LINE
  8
0
 62
     0
 10
143.562546
 20
87.131042
 30
0.0
 11
133.562546
 21
97.131042
 31
0.0
  0
LINE
  8
0
 62
     0
 10
140.910895
 20
87.131042
 30
0.0
 11
130.910895
 21
97.131042
 31
0.0
  0
LINE
  8
0
 62
     0
 10
138.259245
 20
87.131042
 30
0.0
 11
128.259245
 21
97.131042
 31
0.0
  0
LINE
  8
0
 62
     0
 10
135.607595
 20
87.131042
 30
0.0
 11
125.607595
 21
97.131042
 31
0.0
  0
LINE
  8
0
 62
     0
 10
132.955944
 20
87.131042
 30
0.0
 11
122.955944
 21
97.131042
 31
0.0
  0
LINE
  8
0
 62
     0
 10
130.304294
 20
87.131042
 30
0.0
 11
120.304294
 21
97.131042
 31
0.0
  0
LINE
  8
0
 62
     0
 10
127.652643
 20
87.131042
 30
0.0
 11
118.026304
 21
96.757381
 31
0.0
  0
LINE
  8
0
 62
     0
 10
125.000993
 20
87.131042
 30
0.0
 11
117.399965
 21
94.73207
 31
0.0
  0
LINE
  8
0
 62
     0
 10
122.349342
 20
87.131042
 30
0.0
 11
117.399965
 21
92.080419
 31
0.0
  0
LINE
  8
0
 62
     0
 10
119.697692
 20
87.131042
 30
0.0
 11
117.399965
 21
89.428769
 31
0.0
  0
LINE
  8
0
 62
     0
 10
148.865847
 20
87.131042
 30
0.0
 11
138.865847
 21
97.131042
 31
0.0
  0
LINE
  8
0
 62
     0
 10
151.517497
 20
87.131042
 30
0.0
 11
141.517497
 21
97.131042
 31
0.0
  0
LINE
  8
0
 62
     0
 10
154.169148
 20
87.131042
 30
0.0
 11
144.169148
 21
97.131042
 31
0.0
  0
LINE
  8
0
 62
     0
 10
156.820798
 20
87.131042
 30
0.0
 11
146.820798
 21
97.131042
 31
0.0
  0
LINE
  8
0
 62
     0
 10
159.472448
 20
87.131042
 30
0.0
 11
149.472448
 21
97.131042
 31
0.0
  0
LINE
  8
0
 62
     0
 10
162.124099
 20
87.131042
 30
0.0
 11
152.124099
 21
97.131042
 31
0.0
  0
LINE
  8
0
 62
     0
 10
164.775749
 20
87.131042
 30
0.0
 11
154.775749
 21
97.131042
 31
0.0
  0
LINE
  8
0
 62
     0
 10
167.399965
 20
87.158477
 30
0.0
 11
157.4274
 21
97.131042
 31
0.0
  0
LINE
  8
0
 62
     0
 10
167.399965
 20
89.810127
 30
0.0
 11
160.07905
 21
97.131042
 31
0.0
  0
LINE
  8
0
 62
     0
 10
167.399965
 20
92.461778
 30
0.0
 11
162.730701
 21
97.131042
 31
0.0
  0
LINE
  8
0
 62
     0
 10
167.399965
 20
95.113428
 30
0.0
 11
165.382351
 21
97.131042
 31
0.0
  0
ENDBLK
  8
0
  0
BLOCK
  8
0
  2
*X11
 70
    65
 10
0.0
 20
0.0
 30
0.0
  3
*X
  0
LINE
  8
0
 62
     0
 10
-21.794732
 20
80.131042
 30
0.0
 11
-29.794732
 21
88.131042
 31
0.0
  0
LINE
  8
0
 62
     0
 10
-24.446383
 20
80.131042
 30
0.0
 11
-32.446383
 21
88.131042
 31
0.0
  0
LINE
  8
0
 62
     0
 10
-27.098033
 20
80.131042
 30
0.0
 11
-35.098033
 21
88.131042
 31
0.0
  0
LINE
  8
0
 62
     0
 10
-29.749683
 20
80.131042
 30
0.0
 11
-37.749683
 21
88.131042
 31
0.0
  0
LINE
  8
0
 62
     0
 10
-32.401334
 20
80.131042
 30
0.0
 11
-40.401334
 21
88.131042
 31
0.0
  0
LINE
  8
0
 62
     0
 10
-35.052984
 20
80.131042
 30
0.0
 11
-43.052984
 21
88.131042
 31
0.0
  0
LINE
  8
0
 62
     0
 10
-37.704635
 20
80.131042
 30
0.0
 11
-44.645619
 21
87.072026
 31
0.0
  0
LINE
  8
0
 62
     0
 10
-40.356285
 20
80.131042
 30
0.0
 11
-44.645619
 21
84.420375
 31
0.0
  0
LINE
  8
0
 62
     0
 10
-43.007936
 20
80.131042
 30
0.0
 11
-44.645619
 21
81.768725
 31
0.0
  0
LINE
  8
0
 62
     0
 10
-19.143082
 20
80.131042
 30
0.0
 11
-27.143082
 21
88.131042
 31
0.0
  0
LINE
  8
0
 62
     0
 10
-16.491431
 20
80.131042
 30
0.0
 11
-24.491431
 21
88.131042
 31
0.0
  0
LINE
  8
0
 62
     0
 10
-13.839781
 20
80.131042
 30
0.0
 11
-21.839781
 21
88.131042
 31
0.0
  0
LINE
  8
0
 62
     0
 10
-11.18813
 20
80.131042
 30
0.0
 11
-19.18813
 21
88.131042
 31
0.0
  0
LINE
  8
0
 62
     0
 10
-8.53648
 20
80.131042
 30
0.0
 11
-16.53648
 21
88.131042
 31
0.0
  0
LINE
  8
0
 62
     0
 10
-5.884829
 20
80.131042
 30
0.0
 11
-13.884829
 21
88.131042
 31
0.0
  0
LINE
  8
0
 62
     0
 10
-4.645619
 20
81.543481
 30
0.0
 11
-11.233179
 21
88.131042
 31
0.0
  0
LINE
  8
0
 62
     0
 10
-4.645619
 20
84.195132
 30
0.0
 11
-8.581529
 21
88.131042
 31
0.0
  0
LINE
  8
0
 62
     0
 10
-4.645619
 20
86.846782
 30
0.0
 11
-5.929878
 21
88.131042
 31
0.0
  0
ENDBLK
  8
0
  0
ENDSEC
  0
SECTION
  2
ENTITIES
  0
LINE
  8
0
 10
-13.645619
 20
90.131042
 30
0.0
 11
-13.645619
 21
88.131042
 31
0.0
  0
LINE
  8
0
 10
4.354381
 20
90.131042
 30
0.0
 11
4.354381
 21
88.131042
 31
0.0
  0
LINE
  8
0
 10
-12.645619
 20
91.131042
 30
0.0
 11
3.354381
 21
91.131042
 31
0.0
  0
LINE
  8
0
 10
-12.645619
 20
31.131042
 30
0.0
 11
3.354381
 21
31.131042
 31
0.0
  0
LINE
  8
0
 10
-12.645619
 20
91.131042
 30
0.0
 11
-13.645619
 21
90.131042
 31
0.0
  0
LINE
  8
0
 10
3.354381
 20
91.131042
 30
0.0
 11
4.354381
 21
90.131042
 31
0.0
  0
LINE
  8
0
 10
-13.645619
 20
32.131042
 30
0.0
 11
-12.645619
 21
31.131042
 31
0.0
  0
LINE
  8
0
 10
3.354381
 20
31.131042
 30
0.0
 11
4.354381
 21
32.131042
 31
0.0
  0
LINE
  8
0
 10
-44.645619
 20
87.131042
 30
0.0
 11
-44.645619
 21
81.131042
 31
0.0
  0
LINE
  8
0
 10
35.354381
 20
87.131042
 30
0.0
 11
35.354381
 21
81.131042
 31
0.0
  0
LINE
  8
0
 10
-43.645619
 20
88.131042
 30
0.0
 11
-4.645619
 21
88.131042
 31
0.0
  0
LINE
  8
0
 10
-43.645619
 20
80.131042
 30
0.0
 11
-4.645619
 21
80.131042
 31
0.0
  0
LINE
  8
0
 10
4.354381
 20
88.131042
 30
0.0
 11
34.354381
 21
88.131042
 31
0.0
  0
LINE
  8
0
 10
4.354381
 20
80.131042
 30
0.0
 11
34.354381
 21
80.131042
 31
0.0
  0
LINE
  8
0
 10
-43.645619
 20
88.131042
 30
0.0
 11
-44.645619
 21
87.131042
 31
0.0
  0
LINE
  8
0
 10
-44.645619
 20
81.131042
 30
0.0
 11
-43.645619
 21
80.131042
 31
0.0
  0
LINE
  8
0
 10
34.354381
 20
80.131042
 30
0.0
 11
35.354381
 21
81.131042
 31
0.0
  0
LINE
  8
0
 10
35.354381
 20
87.131042
 30
0.0
 11
34.354381
 21
88.131042
 31
0.0
  0
LINE
  8
0
 10
34.354381
 20
88.131042
 30
0.0
 11
34.354381
 21
80.131042
 31
0.0
  0
LINE
  8
0
 10
-4.645619
 20
90.131042
 30
0.0
 11
4.354381
 21
90.131042
 31
0.0
  0
LINE
  8
0
 10
-4.645619
 20
32.131042
 30
0.0
 11
4.354381
 21
32.131042
 31
0.0
  0
CIRCLE
  8
0
 10
-4.645619
 20
5.858396
 30
0.0
 40
9.0
  0
LINE
  8
0
 10
34.354381
 20
9.858396
 30
0.0
 11
34.354381
 21
1.858396
 31
0.0
  0
LINE
  8
0
 10
-43.645619
 20
9.858396
 30
0.0
 11
-43.645619
 21
1.858396
 31
0.0
  0
LINE
  8
0
 10
35.354381
 20
8.858396
 30
0.0
 11
34.354381
 21
9.858396
 31
0.0
  0
LINE
  8
0
 10
34.354381
 20
1.858396
 30
0.0
 11
35.354381
 21
2.858396
 31
0.0
  0
LINE
  8
0
 10
-44.645619
 20
2.858396
 30
0.0
 11
-43.645619
 21
1.858396
 31
0.0
  0
LINE
  8
0
 10
-43.645619
 20
9.858396
 30
0.0
 11
-44.645619
 21
8.858396
 31
0.0
  0
LINE
  8
0
 10
3.416639
 20
1.858396
 30
0.0
 11
34.354381
 21
1.858396
 31
0.0
  0
LINE
  8
0
 10
3.416639
 20
9.858396
 30
0.0
 11
34.354381
 21
9.858396
 31
0.0
  0
LINE
  8
0
 10
-43.645619
 20
1.858396
 30
0.0
 11
-12.707877
 21
1.858396
 31
0.0
  0
LINE
  8
0
 10
-43.645619
 20
9.858396
 30
0.0
 11
-12.707877
 21
9.858396
 31
0.0
  0
LINE
  8
0
 10
35.354381
 20
8.858396
 30
0.0
 11
35.354381
 21
2.858396
 31
0.0
  0
LINE
  8
0
 10
-44.645619
 20
8.858396
 30
0.0
 11
-44.645619
 21
2.858396
 31
0.0
  0
ARC
  8
0
 10
12.416639
 20
84.131042
 30
0.0
 40
9.0
 50
153.6122
 51
206.3878
  0
LINE
  8
0
 10
-13.645619
 20
80.131042
 30
0.0
 11
-13.645619
 21
32.131042
 31
0.0
  0
LINE
  8
0
 10
4.354381
 20
80.131042
 30
0.0
 11
4.354381
 21
32.131042
 31
0.0
  0
CIRCLE
  8
0
 10
-4.645619
 20
5.858396
 30
0.0
 40
8.0
  0
LINE
  8
0
 10
-8.895619
 20
57.131042
 30
0.0
 11
-8.895619
 21
31.881042
 31
0.0
  0
LINE
  8
0
 10
-9.645619
 20
51.131042
 30
0.0
 11
-9.645619
 21
31.131042
 31
0.0
  0
LINE
  8
0
 10
-9.645619
 20
51.131042
 30
0.0
 11
-4.645619
 21
51.131042
 31
0.0
  0
LINE
  8
0
 10
-8.895619
 20
57.131042
 30
0.0
 11
-4.645619
 21
57.131042
 31
0.0
  0
LINE
  8
0
 10
-8.895619
 20
57.131042
 30
0.0
 11
-4.645619
 21
59.58478
 31
0.0
  0
LINE
  8
0
 10
70.410566
 20
90.131042
 30
0.0
 11
70.410566
 21
32.131042
 31
0.0
  0
LINE
  8
0
 10
52.410566
 20
90.131042
 30
0.0
 11
52.410566
 21
32.131042
 31
0.0
  0
LINE
  8
0
 10
52.410566
 20
32.131042
 30
0.0
 11
70.410566
 21
32.131042
 31
0.0
  0
LINE
  8
0
 10
52.410566
 20
90.131042
 30
0.0
 11
70.410566
 21
90.131042
 31
0.0
  0
LINE
  8
0
 10
69.410566
 20
31.131042
 30
0.0
 11
70.410566
 21
32.131042
 31
0.0
  0
LINE
  8
0
 10
52.410566
 20
32.131042
 30
0.0
 11
53.410566
 21
31.131042
 31
0.0
  0
LINE
  8
0
 10
69.410566
 20
91.131042
 30
0.0
 11
70.410566
 21
90.131042
 31
0.0
  0
LINE
  8
0
 10
53.410566
 20
91.131042
 30
0.0
 11
52.410566
 21
90.131042
 31
0.0
  0
LINE
  8
0
 10
53.410566
 20
31.131042
 30
0.0
 11
69.410566
 21
31.131042
 31
0.0
  0
LINE
  8
0
 10
53.410566
 20
91.131042
 30
0.0
 11
69.410566
 21
91.131042
 31
0.0
  0
CIRCLE
  8
0
 10
61.410566
 20
84.131042
 30
0.0
 40
4.0
  0
CIRCLE
  8
0
 10
61.410566
 20
84.131042
 30
0.0
 40
3.0
  0
LINE
  8
0
 10
157.399965
 20
100.131042
 30
0.0
 11
157.399965
 21
97.131042
 31
0.0
  0
LINE
  8
0
 10
177.399965
 20
100.131042
 30
0.0
 11
177.399965
 21
97.131042
 31
0.0
  0
LINE
  8
0
 10
158.399965
 20
101.131042
 30
0.0
 11
176.399965
 21
101.131042
 31
0.0
  0
LINE
  8
0
 10
158.399965
 20
31.131042
 30
0.0
 11
176.399965
 21
31.131042
 31
0.0
  0
LINE
  8
0
 10
117.399965
 20
96.131042
 30
0.0
 11
117.399965
 21
88.131042
 31
0.0
  0
LINE
  8
0
 10
217.399965
 20
96.131042
 30
0.0
 11
217.399965
 21
88.131042
 31
0.0
  0
LINE
  8
0
 10
118.399965
 20
97.131042
 30
0.0
 11
167.399965
 21
97.131042
 31
0.0
  0
LINE
  8
0
 10
118.399965
 20
87.131042
 30
0.0
 11
167.399965
 21
87.131042
 31
0.0
  0
LINE
  8
0
 10
118.399965
 20
97.131042
 30
0.0
 11
117.399965
 21
96.131042
 31
0.0
  0
LINE
  8
0
 10
117.399965
 20
88.131042
 30
0.0
 11
118.399965
 21
87.131042
 31
0.0
  0
LINE
  8
0
 10
158.399965
 20
101.131042
 30
0.0
 11
157.399965
 21
100.131042
 31
0.0
  0
LINE
  8
0
 10
177.399965
 20
100.131042
 30
0.0
 11
176.399965
 21
101.131042
 31
0.0
  0
LINE
  8
0
 10
216.399965
 20
97.131042
 30
0.0
 11
217.399965
 21
96.131042
 31
0.0
  0
LINE
  8
0
 10
217.399965
 20
88.131042
 30
0.0
 11
216.399965
 21
87.131042
 31
0.0
  0
LINE
  8
0
 10
177.399965
 20
32.131042
 30
0.0
 11
176.399965
 21
31.131042
 31
0.0
  0
LINE
  8
0
 10
158.399965
 20
31.131042
 30
0.0
 11
157.399965
 21
32.131042
 31
0.0
  0
LINE
  8
0
 10
167.399965
 20
100.131042
 30
0.0
 11
177.399965
 21
100.131042
 31
0.0
  0
LINE
  8
0
 10
216.399965
 20
97.131042
 30
0.0
 11
216.399965
 21
87.131042
 31
0.0
  0
LINE
  8
0
 10
167.399965
 20
32.131042
 30
0.0
 11
177.399965
 21
32.131042
 31
0.0
  0
LINE
  8
0
 10
177.399965
 20
87.131042
 30
0.0
 11
216.399965
 21
87.131042
 31
0.0
  0
LINE
  8
0
 10
177.399965
 20
97.131042
 30
0.0
 11
216.399965
 21
97.131042
 31
0.0
  0
CIRCLE
  8
0
 10
167.399965
 20
4.514184
 30
0.0
 40
10.0
  0
LINE
  8
0
 10
118.399965
 20
9.514184
 30
0.0
 11
118.399965
 21
-0.485816
 31
0.0
  0
LINE
  8
0
 10
117.399965
 20
0.514184
 30
0.0
 11
118.399965
 21
-0.485816
 31
0.0
  0
LINE
  8
0
 10
118.399965
 20
9.514184
 30
0.0
 11
117.399965
 21
8.514184
 31
0.0
  0
LINE
  8
0
 10
118.399965
 20
-0.485816
 30
0.0
 11
158.739711
 21
-0.485816
 31
0.0
  0
LINE
  8
0
 10
118.399965
 20
9.514184
 30
0.0
 11
158.739711
 21
9.514184
 31
0.0
  0
LINE
  8
0
 10
117.399965
 20
8.514184
 30
0.0
 11
117.399965
 21
0.514184
 31
0.0
  0
LINE
  8
0
 10
176.060219
 20
9.514184
 30
0.0
 11
216.399965
 21
9.514184
 31
0.0
  0
LINE
  8
0
 10
176.060219
 20
-0.485816
 30
0.0
 11
216.399965
 21
-0.485816
 31
0.0
  0
LINE
  8
0
 10
216.399965
 20
9.514184
 30
0.0
 11
216.399965
 21
-0.485816
 31
0.0
  0
LINE
  8
0
 10
217.399965
 20
0.514184
 30
0.0
 11
216.399965
 21
-0.485816
 31
0.0
  0
LINE
  8
0
 10
216.399965
 20
9.514184
 30
0.0
 11
217.399965
 21
8.514184
 31
0.0
  0
LINE
  8
0
 10
217.399965
 20
8.514184
 30
0.0
 11
217.399965
 21
0.514184
 31
0.0
  0
LINE
  8
0
 10
157.399965
 20
87.131042
 30
0.0
 11
157.399965
 21
32.131042
 31
0.0
  0
LINE
  8
0
 10
177.399965
 20
87.131042
 30
0.0
 11
177.399965
 21
32.131042
 31
0.0
  0
ARC
  8
0
 10
186.060219
 20
92.131042
 30
0.0
 40
10.0
 50
150.0
 51
210.0
  0
LINE
  8
0
  6
CENTER
 10
167.399965
 20
108.987342
 30
0.0
 11
167.399965
 21
22.441404
 31
0.0
  0
CIRCLE
  8
0
 10
167.399965
 20
4.514184
 30
0.0
 40
9.0
  0
LINE
  8
0
 10
257.276287
 20
100.131042
 30
0.0
 11
257.276287
 21
32.131042
 31
0.0
  0
LINE
  8
0
 10
237.276287
 20
100.131042
 30
0.0
 11
237.276287
 21
32.131042
 31
0.0
  0
LINE
  8
0
 10
237.276287
 20
32.131042
 30
0.0
 11
257.276287
 21
32.131042
 31
0.0
  0
LINE
  8
0
 10
237.276287
 20
100.131042
 30
0.0
 11
257.276287
 21
100.131042
 31
0.0
  0
LINE
  8
0
 10
238.276287
 20
31.131042
 30
0.0
 11
237.276287
 21
32.131042
 31
0.0
  0
LINE
  8
0
 10
257.276287
 20
32.131042
 30
0.0
 11
256.276287
 21
31.131042
 31
0.0
  0
LINE
  8
0
 10
257.276287
 20
100.131042
 30
0.0
 11
256.276287
 21
101.131042
 31
0.0
  0
LINE
  8
0
 10
238.276287
 20
101.131042
 30
0.0
 11
237.276287
 21
100.131042
 31
0.0
  0
LINE
  8
0
 10
238.276287
 20
31.131042
 30
0.0
 11
256.276287
 21
31.131042
 31
0.0
  0
LINE
  8
0
 10
238.276287
 20
101.131042
 30
0.0
 11
256.276287
 21
101.131042
 31
0.0
  0
CIRCLE
  8
0
 10
247.276287
 20
92.131042
 30
0.0
 40
5.0
  0
CIRCLE
  8
0
 10
247.276287
 20
92.131042
 30
0.0
 40
4.0
  0
LINE
  8
0
 10
162.299965
 20
66.131042
 30
0.0
 11
162.299965
 21
32.031042
 31
0.0
  0
LINE
  8
0
 10
161.399965
 20
56.131042
 30
0.0
 11
161.399965
 21
31.131042
 31
0.0
  0
LINE
  8
0
 10
161.399965
 20
56.131042
 30
0.0
 11
167.399965
 21
56.131042
 31
0.0
  0
LINE
  8
0
 10
162.299965
 20
66.131042
 30
0.0
 11
167.399965
 21
69.075528
 31
0.0
  0
LINE
  8
0
 10
162.299965
 20
66.131042
 30
0.0
 11
167.399965
 21
66.131042
 31
0.0
  0
LINE
  8
0
 10
3.354381
 20
-53.543103
 30
0.0
 11
3.354381
 21
-57.543103
 31
0.0
  0
LINE
  8
0
 10
27.354381
 20
-53.543103
 30
0.0
 11
27.354381
 21
-57.543103
 31
0.0
  0
LINE
  8
0
 10
4.354381
 20
-52.543103
 30
0.0
 11
26.354381
 21
-52.543103
 31
0.0
  0
LINE
  8
0
 10
4.354381
 20
-137.543103
 30
0.0
 11
26.354381
 21
-137.543103
 31
0.0
  0
LINE
  8
0
 10
-44.645619
 20
-58.543103
 30
0.0
 11
-44.645619
 21
-68.543103
 31
0.0
  0
LINE
  8
0
 10
75.354381
 20
-58.543103
 30
0.0
 11
75.354381
 21
-68.543103
 31
0.0
  0
LINE
  8
0
 10
-43.645619
 20
-57.543103
 30
0.0
 11
15.354381
 21
-57.543103
 31
0.0
  0
LINE
  8
0
 10
-43.645619
 20
-69.543103
 30
0.0
 11
15.354381
 21
-69.543103
 31
0.0
  0
LINE
  8
0
 10
3.354381
 20
-69.543103
 30
0.0
 11
3.354381
 21
-136.543103
 31
0.0
  0
LINE
  8
0
 10
27.354381
 20
-69.543103
 30
0.0
 11
27.354381
 21
-136.543103
 31
0.0
  0
LINE
  8
0
 10
27.354381
 20
-69.543103
 30
0.0
 11
74.354381
 21
-69.543103
 31
0.0
  0
LINE
  8
0
 10
27.354381
 20
-57.543103
 30
0.0
 11
74.354381
 21
-57.543103
 31
0.0
  0
LINE
  8
0
 10
26.354381
 20
-52.543103
 30
0.0
 11
27.354381
 21
-53.543103
 31
0.0
  0
LINE
  8
0
 10
74.354381
 20
-57.543103
 30
0.0
 11
75.354381
 21
-58.543103
 31
0.0
  0
LINE
  8
0
 10
75.354381
 20
-68.543103
 30
0.0
 11
74.354381
 21
-69.543103
 31
0.0
  0
LINE
  8
0
 10
27.354381
 20
-136.543103
 30
0.0
 11
26.354381
 21
-137.543103
 31
0.0
  0
LINE
  8
0
 10
27.354381
 20
-53.543103
 30
0.0
 11
15.354381
 21
-53.543103
 31
0.0
  0
LINE
  8
0
 10
74.354381
 20
-57.543103
 30
0.0
 11
74.354381
 21
-69.543103
 31
0.0
  0
LINE
  8
0
 10
27.354381
 20
-136.543103
 30
0.0
 11
15.354381
 21
-136.543103
 31
0.0
  0
CIRCLE
  8
0
 10
15.354381
 20
-164.754576
 30
0.0
 40
12.0
  0
LINE
  8
0
 10
-43.645619
 20
-170.754576
 30
0.0
 11
4.962076
 21
-170.754576
 31
0.0
  0
LINE
  8
0
 10
-43.645619
 20
-158.754576
 30
0.0
 11
4.962076
 21
-158.754576
 31
0.0
  0
LINE
  8
0
 10
-44.645619
 20
-159.754576
 30
0.0
 11
-44.645619
 21
-169.754576
 31
0.0
  0
LINE
  8
0
 10
74.354381
 20
-158.754576
 30
0.0
 11
74.354381
 21
-170.754576
 31
0.0
  0
LINE
  8
0
 10
75.354381
 20
-169.754576
 30
0.0
 11
74.354381
 21
-170.754576
 31
0.0
  0
LINE
  8
0
 10
74.354381
 20
-158.754576
 30
0.0
 11
75.354381
 21
-159.754576
 31
0.0
  0
LINE
  8
0
 10
25.746686
 20
-158.754576
 30
0.0
 11
74.354381
 21
-158.754576
 31
0.0
  0
LINE
  8
0
 10
25.746686
 20
-170.754576
 30
0.0
 11
74.354381
 21
-170.754576
 31
0.0
  0
LINE
  8
0
 10
75.354381
 20
-159.754576
 30
0.0
 11
75.354381
 21
-169.754576
 31
0.0
  0
LINE
  8
0
 10
-43.645619
 20
-158.754576
 30
0.0
 11
-44.645619
 21
-159.754576
 31
0.0
  0
LINE
  8
0
 10
-44.645619
 20
-169.754576
 30
0.0
 11
-43.645619
 21
-170.754576
 31
0.0
  0
LINE
  8
0
 10
-43.645619
 20
-158.754576
 30
0.0
 11
-43.645619
 21
-170.754576
 31
0.0
  0
CIRCLE
  8
0
 10
15.354381
 20
-164.754576
 30
0.0
 40
11.0
  0
LINE
  8
0
 10
7.354381
 20
-102.543103
 30
0.0
 11
15.354381
 21
-102.543103
 31
0.0
  0
LINE
  8
0
 10
8.354381
 20
-95.543103
 30
0.0
 11
8.354381
 21
-136.543103
 31
0.0
  0
LINE
  8
0
 10
7.354381
 20
-102.543103
 30
0.0
 11
7.354381
 21
-137.543103
 31
0.0
  0
LINE
  8
0
 10
8.354381
 20
-95.543103
 30
0.0
 11
15.354381
 21
-95.543103
 31
0.0
  0
LINE
  8
0
 10
8.354381
 20
-95.543103
 30
0.0
 11
15.354381
 21
-91.501651
 31
0.0
  0
LINE
  8
0
 10
-43.645619
 20
-57.543103
 30
0.0
 11
-44.645619
 21
-58.543103
 31
0.0
  0
LINE
  8
0
 10
-44.645619
 20
-68.543103
 30
0.0
 11
-43.645619
 21
-69.543103
 31
0.0
  0
LINE
  8
0
 10
3.354381
 20
-136.543103
 30
0.0
 11
4.354381
 21
-137.543103
 31
0.0
  0
LINE
  8
0
 10
3.354381
 20
-53.543103
 30
0.0
 11
4.354381
 21
-52.543103
 31
0.0
  0
ARC
  8
0
 10
37.746686
 20
-63.543103
 30
0.0
 40
12.0
 50
150.0
 51
210.0
  0
LINE
  8
0
 10
92.011763
 20
-53.543103
 30
0.0
 11
93.011763
 21
-52.543103
 31
0.0
  0
LINE
  8
0
 10
92.011763
 20
-136.543103
 30
0.0
 11
93.011763
 21
-137.543103
 31
0.0
  0
LINE
  8
0
 10
116.011763
 20
-136.543103
 30
0.0
 11
92.011763
 21
-136.543103
 31
0.0
  0
LINE
  8
0
 10
116.011763
 20
-53.543103
 30
0.0
 11
92.011763
 21
-53.543103
 31
0.0
  0
LINE
  8
0
 10
116.011763
 20
-136.543103
 30
0.0
 11
115.011763
 21
-137.543103
 31
0.0
  0
LINE
  8
0
 10
115.011763
 20
-52.543103
 30
0.0
 11
116.011763
 21
-53.543103
 31
0.0
  0
LINE
  8
0
 10
116.011763
 20
-53.543103
 30
0.0
 11
116.011763
 21
-136.543103
 31
0.0
  0
LINE
  8
0
 10
92.011763
 20
-53.543103
 30
0.0
 11
92.011763
 21
-136.543103
 31
0.0
  0
LINE
  8
0
 10
93.011763
 20
-137.543103
 30
0.0
 11
115.011763
 21
-137.543103
 31
0.0
  0
LINE
  8
0
 10
93.011763
 20
-52.543103
 30
0.0
 11
115.011763
 21
-52.543103
 31
0.0
  0
CIRCLE
  8
0
 10
104.011763
 20
-63.543103
 30
0.0
 40
6.0
  0
CIRCLE
  8
0
 10
104.011763
 20
-63.543103
 30
0.0
 40
5.0
  0
LINE
  8
0
  6
CENTER
 10
15.354381
 20
-42.42506
 30
0.0
 11
15.354381
 21
-146.53332
 31
0.0
  0
LINE
  8
0
 10
209.219928
 20
-43.543103
 30
0.0
 11
209.219928
 21
-49.543103
 31
0.0
  0
LINE
  8
0
 10
239.219928
 20
-43.543103
 30
0.0
 11
239.219928
 21
-49.543103
 31
0.0
  0
LINE
  8
0
 10
210.219928
 20
-42.543103
 30
0.0
 11
238.219928
 21
-42.543103
 31
0.0
  0
LINE
  8
0
 10
210.219928
 20
-137.543103
 30
0.0
 11
238.219928
 21
-137.543103
 31
0.0
  0
LINE
  8
0
  6
CENTER
 10
224.219928
 20
-32.083067
 30
0.0
 11
224.219928
 21
-150.203861
 31
0.0
  0
LINE
  8
0
 10
154.219928
 20
-50.543103
 30
0.0
 11
154.219928
 21
-64.543103
 31
0.0
  0
LINE
  8
0
 10
294.219928
 20
-50.543103
 30
0.0
 11
294.219928
 21
-64.543103
 31
0.0
  0
LINE
  8
0
 10
155.219928
 20
-49.543103
 30
0.0
 11
224.219928
 21
-49.543103
 31
0.0
  0
LINE
  8
0
 10
155.219928
 20
-65.543103
 30
0.0
 11
224.219928
 21
-65.543103
 31
0.0
  0
LINE
  8
0
 10
239.219928
 20
-49.543103
 30
0.0
 11
293.219928
 21
-49.543103
 31
0.0
  0
LINE
  8
0
 10
239.219928
 20
-65.543103
 30
0.0
 11
293.219928
 21
-65.543103
 31
0.0
  0
LINE
  8
0
 10
154.219928
 20
-50.543103
 30
0.0
 11
155.219928
 21
-49.543103
 31
0.0
  0
LINE
  8
0
 10
154.219928
 20
-64.543103
 30
0.0
 11
155.219928
 21
-65.543103
 31
0.0
  0
LINE
  8
0
 10
209.219928
 20
-43.543103
 30
0.0
 11
210.219928
 21
-42.543103
 31
0.0
  0
LINE
  8
0
 10
238.219928
 20
-42.543103
 30
0.0
 11
239.219928
 21
-43.543103
 31
0.0
  0
LINE
  8
0
 10
293.219928
 20
-49.543103
 30
0.0
 11
294.219928
 21
-50.543103
 31
0.0
  0
LINE
  8
0
 10
294.219928
 20
-64.543103
 30
0.0
 11
293.219928
 21
-65.543103
 31
0.0
  0
LINE
  8
0
 10
239.219928
 20
-136.543103
 30
0.0
 11
238.219928
 21
-137.543103
 31
0.0
  0
LINE
  8
0
 10
209.219928
 20
-136.543103
 30
0.0
 11
210.219928
 21
-137.543103
 31
0.0
  0
LINE
  8
0
 10
239.219928
 20
-43.543103
 30
0.0
 11
224.219928
 21
-43.543103
 31
0.0
  0
LINE
  8
0
 10
239.219928
 20
-136.543103
 30
0.0
 11
224.219928
 21
-136.543103
 31
0.0
  0
LINE
  8
0
 10
293.219928
 20
-65.543103
 30
0.0
 11
293.219928
 21
-49.543103
 31
0.0
  0
CIRCLE
  8
0
 10
224.219928
 20
-174.4771
 30
0.0
 40
15.0
  0
LINE
  8
0
 10
154.219928
 20
-181.4771
 30
0.0
 11
155.219928
 21
-182.4771
 31
0.0
  0
LINE
  8
0
 10
154.219928
 20
-167.4771
 30
0.0
 11
155.219928
 21
-166.4771
 31
0.0
  0
LINE
  8
0
 10
155.219928
 20
-182.4771
 30
0.0
 11
211.53135
 21
-182.4771
 31
0.0
  0
LINE
  8
0
 10
155.219928
 20
-166.4771
 30
0.0
 11
211.53135
 21
-166.4771
 31
0.0
  0
LINE
  8
0
 10
154.219928
 20
-167.4771
 30
0.0
 11
154.219928
 21
-181.4771
 31
0.0
  0
LINE
  8
0
 10
293.219928
 20
-182.4771
 30
0.0
 11
293.219928
 21
-166.4771
 31
0.0
  0
LINE
  8
0
 10
294.219928
 20
-181.4771
 30
0.0
 11
293.219928
 21
-182.4771
 31
0.0
  0
LINE
  8
0
 10
293.219928
 20
-166.4771
 30
0.0
 11
294.219928
 21
-167.4771
 31
0.0
  0
LINE
  8
0
 10
236.908505
 20
-182.4771
 30
0.0
 11
293.219928
 21
-182.4771
 31
0.0
  0
LINE
  8
0
 10
236.908505
 20
-166.4771
 30
0.0
 11
293.219928
 21
-166.4771
 31
0.0
  0
LINE
  8
0
 10
294.219928
 20
-167.4771
 30
0.0
 11
294.219928
 21
-181.4771
 31
0.0
  0
LINE
  8
0
 10
155.219928
 20
-166.4771
 30
0.0
 11
155.219928
 21
-182.4771
 31
0.0
  0
CIRCLE
  8
0
 10
224.219928
 20
-174.4771
 30
0.0
 40
14.0
  0
ARC
  8
0
 10
251.908505
 20
-57.543103
 30
0.0
 40
15.0
 50
147.769047
 51
212.230953
  0
LINE
  8
0
 10
239.219928
 20
-65.543103
 30
0.0
 11
239.219928
 21
-136.543103
 31
0.0
  0
LINE
  8
0
 10
209.219928
 20
-65.543103
 30
0.0
 11
209.219928
 21
-136.543103
 31
0.0
  0
LINE
  8
0
 10
215.469928
 20
-91.543103
 30
0.0
 11
215.469928
 21
-136.293103
 31
0.0
  0
LINE
  8
0
 10
214.219928
 20
-97.543103
 30
0.0
 11
214.219928
 21
-137.543103
 31
0.0
  0
LINE
  8
0
 10
214.219928
 20
-97.543103
 30
0.0
 11
224.219928
 21
-97.543103
 31
0.0
  0
LINE
  8
0
 10
215.469928
 20
-91.543103
 30
0.0
 11
224.219928
 21
-91.543103
 31
0.0
  0
LINE
  8
0
 10
215.469928
 20
-91.543103
 30
0.0
 11
224.219928
 21
-86.491288
 31
0.0
  0
LINE
  8
0
 10
312.623578
 20
-43.543103
 30
0.0
 11
312.623578
 21
-136.543103
 31
0.0
  0
LINE
  8
0
 10
342.623578
 20
-43.543103
 30
0.0
 11
342.623578
 21
-136.543103
 31
0.0
  0
LINE
  8
0
 10
342.623578
 20
-136.543103
 30
0.0
 11
312.623578
 21
-136.543103
 31
0.0
  0
LINE
  8
0
 10
342.623578
 20
-43.543103
 30
0.0
 11
312.623578
 21
-43.543103
 31
0.0
  0
LINE
  8
0
 10
312.623578
 20
-136.543103
 30
0.0
 11
313.623578
 21
-137.543103
 31
0.0
  0
LINE
  8
0
 10
342.623578
 20
-136.543103
 30
0.0
 11
341.623578
 21
-137.543103
 31
0.0
  0
LINE
  8
0
 10
341.623578
 20
-42.543103
 30
0.0
 11
342.623578
 21
-43.543103
 31
0.0
  0
LINE
  8
0
 10
312.623578
 20
-43.543103
 30
0.0
 11
313.623578
 21
-42.543103
 31
0.0
  0
LINE
  8
0
 10
313.623578
 20
-137.543103
 30
0.0
 11
341.623578
 21
-137.543103
 31
0.0
  0
LINE
  8
0
 10
313.623578
 20
-42.543103
 30
0.0
 11
341.623578
 21
-42.543103
 31
0.0
  0
CIRCLE
  8
0
 10
327.623578
 20
-58.543103
 30
0.0
 40
8.0
  0
CIRCLE
  8
0
 10
327.623578
 20
-58.543103
 30
0.0
 40
7.0
  0
LINE
  8
0
  6
CENTER
 10
-4.645619
 20
101.479903
 30
0.0
 11
-4.645619
 21
22.984472
 31
0.0
  0
LINE
  8
0
 10
-8.895619
 20
31.881042
 30
0.0
 11
-4.645619
 21
31.881042
 31
0.0
  0
LINE
  8
0
 10
-9.645619
 20
31.131042
 30
0.0
 11
-8.895619
 21
31.881042
 31
0.0
  0
LINE
  8
0
 10
162.299965
 20
32.031042
 30
0.0
 11
167.399965
 21
32.031042
 31
0.0
  0
LINE
  8
0
 10
161.399965
 20
31.131042
 30
0.0
 11
162.299965
 21
32.031042
 31
0.0
  0
LINE
  8
0
 10
8.354381
 20
-136.543103
 30
0.0
 11
15.354381
 21
-136.543103
 31
0.0
  0
LINE
  8
0
 10
7.354381
 20
-137.543103
 30
0.0
 11
8.354381
 21
-136.543103
 31
0.0
  0
LINE
  8
0
 10
215.469928
 20
-136.293103
 30
0.0
 11
224.219928
 21
-136.293103
 31
0.0
  0
LINE
  8
0
 10
214.219928
 20
-137.543103
 30
0.0
 11
215.469928
 21
-136.293103
 31
0.0
  0
INSERT
  8
0
  2
*X0
 10
0.0
 20
0.0
 30
0.0
1001
ACAD
1000
HATCH
1002
{
1070
    16
1000
ANSI31
1040
15.0
1040
0.0
1002
}
  0
INSERT
  8
0
  2
*X1
 10
0.0
 20
0.0
 30
0.0
1001
ACAD
1000
HATCH
1002
{
1070
    16
1000
ANSI31
1040
15.0
1040
0.0
1002
}
  0
INSERT
  8
0
  2
*X2
 10
0.0
 20
0.0
 30
0.0
1001
ACAD
1000
HATCH
1002
{
1070
    16
1000
ANSI31
1040
15.0
1040
0.0
1002
}
  0
INSERT
  8
0
  2
*X3
 10
0.0
 20
0.0
 30
0.0
1001
ACAD
1000
HATCH
1002
{
1070
    16
1000
ANSI31
1040
15.0
1040
0.0
1002
}
  0
INSERT
  8
0
  2
*X4
 10
0.0
 20
0.0
 30
0.0
1001
ACAD
1000
HATCH
1002
{
1070
    16
1000
ANSI31
1040
15.0
1040
0.0
1002
}
  0
INSERT
  8
0
  2
*X5
 10
0.0
 20
0.0
 30
0.0
1001
ACAD
1000
HATCH
1002
{
1070
    16
1000
ANSI31
1040
15.0
1040
0.0
1002
}
  0
INSERT
  8
0
  2
*X6
 10
0.0
 20
0.0
 30
0.0
1001
ACAD
1000
HATCH
1002
{
1070
    16
1000
ANSI31
1040
20.0
1040
0.0
1002
}
  0
INSERT
  8
0
  2
*X7
 10
0.0
 20
0.0
 30
0.0
1001
ACAD
1000
HATCH
1002
{
1070
    16
1000
ANSI31
1040
20.0
1040
0.0
1002
}
  0
INSERT
  8
0
  2
*X8
 10
0.0
 20
0.0
 30
0.0
1001
ACAD
1000
HATCH
1002
{
1070
    16
1000
ANSI31
1040
20.0
1040
1.570796
1002
}
  0
INSERT
  8
0
  2
*X9
 10
0.0
 20
0.0
 30
0.0
1001
ACAD
1000
HATCH
1002
{
1070
    16
1000
ANSI31
1040
15.0
1040
1.570796
1002
}
  0
INSERT
  8
0
  2
*X10
 10
0.0
 20
0.0
 30
0.0
1001
ACAD
1000
HATCH
1002
{
1070
    16
1000
ANSI31
1040
15.0
1040
1.570796
1002
}
  0
INSERT
  8
0
  2
*X11
 10
0.0
 20
0.0
 30
0.0
1001
ACAD
1000
HATCH
1002
{
1070
    16
1000
ANSI31
1040
15.0
1040
1.570796
1002
}
  0
ENDSEC
  0
EOF
