  0
SECTION
  2
HEADER
  9
$ACADVER
  1
AC1009
  9
$INSBASE
 10
-235.08366
 20
-241.656063
 30
0.0
  9
$EXTMIN
 10
-460.560819
 20
-386.272101
 30
0.0
  9
$EXTMAX
 10
19.484354
 20
-79.364859
 30
0.0
  9
$LIMMIN
 10
0.0
 20
0.0
  9
$LIMMAX
 10
12.0
 20
9.0
  9
$ORTHOMODE
 70
     1
  9
$REGENMODE
 70
     1
  9
$FILLMODE
 70
     1
  9
$QTEXTMODE
 70
     0
  9
$MIRRTEXT
 70
     1
  9
$DRAGMODE
 70
     2
  9
$LTSCALE
 40
4.0
  9
$OSMODE
 70
     0
  9
$ATTMODE
 70
     1
  9
$TEXTSIZE
 40
0.2
  9
$TRACEWID
 40
0.05
  9
$TEXTSTYLE
  7
STANDARD
  9
$CLAYER
  8
0
  9
$CELTYPE
  6
BYLAYER
  9
$CECOLOR
 62
   256
  9
$DIMSCALE
 40
1.0
  9
$DIMASZ
 40
2.5
  9
$DIMEXO
 40
0.0
  9
$DIMDLI
 40
5.0
  9
$DIMRND
 40
0.0
  9
$DIMDLE
 40
0.0
  9
$DIMEXE
 40
1.0
  9
$DIMTP
 40
0.0
  9
$DIMTM
 40
0.0
  9
$DIMTXT
 40
2.5
  9
$DIMCEN
 40
0.09
  9
$DIMTSZ
 40
0.0
  9
$DIMTOL
 70
     0
  9
$DIMLIM
 70
     0
  9
$DIMTIH
 70
     0
  9
$DIMTOH
 70
     0
  9
$DIMSE1
 70
     0
  9
$DIMSE2
 70
     0
  9
$DIMTAD
 70
     1
  9
$DIMZIN
 70
     0
  9
$DIMBLK
  1

  9
$DIMASO
 70
     0
  9
$DIMSHO
 70
     0
  9
$DIMPOST
  1

  9
$DIMAPOST
  1

  9
$DIMALT
 70
     0
  9
$DIMALTD
 70
     2
  9
$DIMALTF
 40
25.4
  9
$DIMLFAC
 40
1.0
  9
$DIMTOFL
 70
     1
  9
$DIMTVP
 40
0.0
  9
$DIMTIX
 70
     0
  9
$DIMSOXD
 70
     0
  9
$DIMSAH
 70
     0
  9
$DIMBLK1
  1

  9
$DIMBLK2
  1

  9
$DIMSTYLE
  2
*UNNAMED
  9
$DIMCLRD
 70
     0
  9
$DIMCLRE
 70
     0
  9
$DIMCLRT
 70
     0
  9
$DIMTFAC
 40
1.0
  9
$DIMGAP
 40
0.09
  9
$LUNITS
 70
     2
  9
$LUPREC
 70
     4
  9
$SKETCHINC
 40
0.1
  9
$FILLETRAD
 40
0.0
  9
$AUNITS
 70
     0
  9
$AUPREC
 70
     0
  9
$MENU
  1
wiberger
  9
$ELEVATION
 40
0.0
  9
$PELEVATION
 40
0.0
  9
$THICKNESS
 40
0.0
  9
$LIMCHECK
 70
     0
  9
$BLIPMODE
 70
     1
  9
$CHAMFERA
 40
0.0
  9
$CHAMFERB
 40
0.0
  9
$SKPOLY
 70
     0
  9
$TDCREATE
 40
2450192.375307639
  9
$TDUPDATE
 40
2450211.512020601
  9
$TDINDWG
 40
0.0006070602
  9
$TDUSRTIMER
 40
0.0006070602
  9
$USRTIMER
 70
     1
  9
$ANGBASE
 50
0.0
  9
$ANGDIR
 70
     0
  9
$PDMODE
 70
     0
  9
$PDSIZE
 40
0.0
  9
$PLINEWID
 40
0.0
  9
$COORDS
 70
     0
  9
$SPLFRAME
 70
     0
  9
$SPLINETYPE
 70
     6
  9
$SPLINESEGS
 70
     8
  9
$ATTDIA
 70
     0
  9
$ATTREQ
 70
     1
  9
$HANDLING
 70
     0
  9
$HANDSEED
  5
0
  9
$SURFTAB1
 70
     6
  9
$SURFTAB2
 70
     6
  9
$SURFTYPE
 70
     6
  9
$SURFU
 70
     6
  9
$SURFV
 70
     6
  9
$UCSNAME
  2

  9
$UCSORG
 10
0.0
 20
0.0
 30
0.0
  9
$UCSXDIR
 10
1.0
 20
0.0
 30
0.0
  9
$UCSYDIR
 10
0.0
 20
1.0
 30
0.0
  9
$PUCSNAME
  2

  9
$PUCSORG
 10
0.0
 20
0.0
 30
0.0
  9
$PUCSXDIR
 10
1.0
 20
0.0
 30
0.0
  9
$PUCSYDIR
 10
0.0
 20
1.0
 30
0.0
  9
$USERI1
 70
     0
  9
$USERI2
 70
     0
  9
$USERI3
 70
     0
  9
$USERI4
 70
     0
  9
$USERI5
 70
     0
  9
$USERR1
 40
0.0
  9
$USERR2
 40
0.0
  9
$USERR3
 40
0.0
  9
$USERR4
 40
0.0
  9
$USERR5
 40
0.0
  9
$WORLDVIEW
 70
     1
  9
$SHADEDGE
 70
     3
  9
$SHADEDIF
 70
    70
  9
$TILEMODE
 70
     1
  9
$MAXACTVP
 70
    16
  9
$PINSBASE
 10
0.0
 20
0.0
 30
0.0
  9
$PLIMCHECK
 70
     0
  9
$PEXTMIN
 10
1.000000E+20
 20
1.000000E+20
 30
1.000000E+20
  9
$PEXTMAX
 10
-1.000000E+20
 20
-1.000000E+20
 30
-1.000000E+20
  9
$PLIMMIN
 10
0.0
 20
0.0
  9
$PLIMMAX
 10
12.0
 20
9.0
  9
$UNITMODE
 70
     0
  9
$VISRETAIN
 70
     0
  9
$PLINEGEN
 70
     0
  9
$PSLTSCALE
 70
     0
  9
$TREEDEPTH
 70
  3020
  9
$DWGCODEPAGE
  3
undefined
  0
ENDSEC
  0
SECTION
  2
TABLES
  0
TABLE
  2
VPORT
 70
     2
  0
VPORT
  2
*ACTIVE
 70
     0
 10
0.0
 20
0.0
 11
1.0
 21
1.0
 12
-143.341946
 22
-211.886373
 13
0.0
 23
0.0
 14
1.0
 24
1.0
 15
0.0
 25
0.0
 16
0.0
 26
0.0
 36
1.0
 17
0.0
 27
0.0
 37
0.0
 40
382.188182
 41
1.767507
 42
50.0
 43
0.0
 44
0.0
 50
0.0
 51
0.0
 71
     0
 72
   100
 73
     1
 74
     0
 75
     0
 76
     0
 77
     0
 78
     0
  0
ENDTAB
  0
TABLE
  2
LTYPE
 70
     2
  0
LTYPE
  2
CONTINUOUS
 70
    64
  3
Solid line
 72
    65
 73
     0
 40
0.0
  0
LTYPE
  2
CENTER
 70
     0
  3
____ _ ____ _ ____ _ ____ _ ____ _ ____ _ ____
 72
    65
 73
     4
 40
2.0
 49
1.25
 49
-0.25
 49
0.25
 49
-0.25
  0
ENDTAB
  0
TABLE
  2
LAYER
 70
     1
  0
LAYER
  2
0
 70
    64
 62
     7
  6
CONTINUOUS
  0
ENDTAB
  0
TABLE
  2
STYLE
 70
     1
  0
STYLE
  2
STANDARD
 70
     0
 40
0.0
 41
1.0
 50
0.0
 71
     0
 42
0.2
  3
txt
  4

  0
ENDTAB
  0
TABLE
  2
VIEW
 70
     0
  0
ENDTAB
  0
TABLE
  2
UCS
 70
     0
  0
ENDTAB
  0
TABLE
  2
APPID
 70
     1
  0
APPID
  2
ACAD
 70
    64
  0
ENDTAB
  0
TABLE
  2
DIMSTYLE
 70
     0
  0
ENDTAB
  0
ENDSEC
  0
SECTION
  2
BLOCKS
  0
ENDSEC
  0
SECTION
  2
ENTITIES
  0
LINE
  8
0
 10
-315.153189
 20
-328.074253
 30
0.0
 11
-299.153189
 21
-328.074253
 31
0.0
  0
LINE
  8
0
 10
-408.560819
 20
-328.074253
 30
0.0
 11
-392.560819
 21
-328.074253
 31
0.0
  0
LINE
  8
0
 10
-89.967277
 20
-339.174253
 30
0.0
 11
-74.467277
 21
-339.174253
 31
0.0
  0
LINE
  8
0
 10
-200.470194
 20
-339.174253
 30
0.0
 11
-184.970194
 21
-339.174253
 31
0.0
  0
CIRCLE
  8
0
 10
-82.217277
 20
-252.73694
 30
0.0
 40
6.5
  0
CIRCLE
  8
0
 10
-82.217277
 20
-252.73694
 30
0.0
 40
8.0
  0
LINE
  8
0
 10
-92.217277
 20
-266.73694
 30
0.0
 11
-92.217277
 21
-326.53694
 31
0.0
  0
LINE
  8
0
 10
-72.217277
 20
-266.73694
 30
0.0
 11
-72.217277
 21
-326.53694
 31
0.0
  0
LINE
  8
0
 10
-68.717277
 20
-238.73694
 30
0.0
 11
-95.717277
 21
-238.73694
 31
0.0
  0
LINE
  8
0
 10
-68.717277
 20
-266.73694
 30
0.0
 11
-95.717277
 21
-266.73694
 31
0.0
  0
LINE
  8
0
 10
-72.217277
 20
-286.73694
 30
0.0
 11
-92.217277
 21
-286.73694
 31
0.0
  0
LINE
  8
0
 10
-90.967277
 20
-287.98694
 30
0.0
 11
-90.967277
 21
-327.78694
 31
0.0
  0
LINE
  8
0
 10
-73.467277
 20
-287.98694
 30
0.0
 11
-73.467277
 21
-327.78694
 31
0.0
  0
LINE
  8
0
 10
-92.217277
 20
-286.73694
 30
0.0
 11
-90.967277
 21
-287.98694
 31
0.0
  0
LINE
  8
0
 10
-72.217277
 20
-286.73694
 30
0.0
 11
-73.467277
 21
-287.98694
 31
0.0
  0
LINE
  8
0
 10
-90.967277
 20
-287.98694
 30
0.0
 11
-73.467277
 21
-287.98694
 31
0.0
  0
ARC
  8
0
 10
-82.217277
 20
-328.73694
 30
0.0
 40
13.0
 50
233.405069
 51
306.594931
  0
LINE
  8
0
 10
-89.967277
 20
-336.23694
 30
0.0
 11
-89.967277
 21
-339.174253
 31
0.0
  0
LINE
  8
0
 10
-74.467277
 20
-336.23694
 30
0.0
 11
-74.467277
 21
-339.174253
 31
0.0
  0
LINE
  8
0
 10
-75.017277
 20
-329.33694
 30
0.0
 11
-89.417277
 21
-329.33694
 31
0.0
  0
LINE
  8
0
 10
-89.417277
 20
-329.33694
 30
0.0
 11
-89.417277
 21
-336.23694
 31
0.0
  0
LINE
  8
0
 10
-75.017277
 20
-329.33694
 30
0.0
 11
-75.017277
 21
-336.23694
 31
0.0
  0
LINE
  8
0
 10
-74.467277
 20
-336.23694
 30
0.0
 11
-89.967277
 21
-336.23694
 31
0.0
  0
LINE
  8
0
 10
-89.417277
 20
-329.33694
 30
0.0
 11
-92.217277
 21
-326.53694
 31
0.0
  0
LINE
  8
0
 10
-75.017277
 20
-329.33694
 30
0.0
 11
-72.217277
 21
-326.53694
 31
0.0
  0
LINE
  8
0
 10
-90.967277
 20
-327.78694
 30
0.0
 11
-73.467277
 21
-327.78694
 31
0.0
  0
LINE
  8
0
 10
-92.217277
 20
-326.53694
 30
0.0
 11
-72.217277
 21
-326.53694
 31
0.0
  0
LINE
  8
0
 10
-97.217277
 20
-240.23694
 30
0.0
 11
-95.717277
 21
-238.73694
 31
0.0
  0
LINE
  8
0
 10
-68.717277
 20
-238.73694
 30
0.0
 11
-67.217277
 21
-240.23694
 31
0.0
  0
LINE
  8
0
 10
-67.217277
 20
-265.23694
 30
0.0
 11
-68.717277
 21
-266.73694
 31
0.0
  0
LINE
  8
0
 10
-95.717277
 20
-266.73694
 30
0.0
 11
-97.217277
 21
-265.23694
 31
0.0
  0
LINE
  8
0
 10
-97.217277
 20
-240.23694
 30
0.0
 11
-67.217277
 21
-240.23694
 31
0.0
  0
LINE
  8
0
 10
-97.217277
 20
-265.23694
 30
0.0
 11
-67.217277
 21
-265.23694
 31
0.0
  0
LINE
  8
0
 10
-67.217277
 20
-240.23694
 30
0.0
 11
-67.217277
 21
-265.23694
 31
0.0
  0
LINE
  8
0
 10
-97.217277
 20
-240.23694
 30
0.0
 11
-97.217277
 21
-265.23694
 31
0.0
  0
CIRCLE
  8
0
 10
-192.720194
 20
-371.272101
 30
0.0
 40
13.5
  0
LINE
  8
0
 10
-207.720194
 20
-260.73694
 30
0.0
 11
-207.720194
 21
-265.23694
 31
0.0
  0
LINE
  8
0
 10
-177.720194
 20
-260.73694
 30
0.0
 11
-177.720194
 21
-265.23694
 31
0.0
  0
ARC
  8
0
 10
-165.031617
 20
-252.73694
 30
0.0
 40
15.0
 50
147.769047
 51
212.230953
  0
ARC
  8
0
 10
-220.408772
 20
-252.73694
 30
0.0
 40
15.0
 50
327.769047
 51
32.230953
  0
LINE
  8
0
 10
-124.220194
 20
-363.272101
 30
0.0
 11
-124.220194
 21
-379.272101
 31
0.0
  0
LINE
  8
0
 10
-261.220194
 20
-363.272101
 30
0.0
 11
-261.220194
 21
-379.272101
 31
0.0
  0
LINE
  8
0
 10
-124.220194
 20
-363.272101
 30
0.0
 11
-122.720194
 21
-364.772101
 31
0.0
  0
LINE
  8
0
 10
-122.720194
 20
-377.772101
 30
0.0
 11
-124.220194
 21
-379.272101
 31
0.0
  0
LINE
  8
0
 10
-262.720194
 20
-377.772101
 30
0.0
 11
-261.220194
 21
-379.272101
 31
0.0
  0
LINE
  8
0
 10
-261.220194
 20
-363.272101
 30
0.0
 11
-262.720194
 21
-364.772101
 31
0.0
  0
LINE
  8
0
 10
-205.408772
 20
-363.272101
 30
0.0
 11
-261.220194
 21
-363.272101
 31
0.0
  0
LINE
  8
0
 10
-205.408772
 20
-379.272101
 30
0.0
 11
-261.220194
 21
-379.272101
 31
0.0
  0
LINE
  8
0
 10
-122.720194
 20
-364.772101
 30
0.0
 11
-122.720194
 21
-377.772101
 31
0.0
  0
LINE
  8
0
 10
-262.720194
 20
-364.772101
 30
0.0
 11
-262.720194
 21
-377.772101
 31
0.0
  0
LINE
  8
0
 10
-124.220194
 20
-379.272101
 30
0.0
 11
-180.031617
 21
-379.272101
 31
0.0
  0
LINE
  8
0
 10
-124.220194
 20
-363.272101
 30
0.0
 11
-180.031617
 21
-363.272101
 31
0.0
  0
CIRCLE
  8
0
 10
-192.720194
 20
-371.272101
 30
0.0
 40
15.0
  0
LINE
  8
0
 10
-124.220194
 20
-244.73694
 30
0.0
 11
-124.220194
 21
-260.73694
 31
0.0
  0
LINE
  8
0
 10
-207.720194
 20
-265.23694
 30
0.0
 11
-177.720194
 21
-265.23694
 31
0.0
  0
LINE
  8
0
 10
-261.220194
 20
-244.73694
 30
0.0
 11
-261.220194
 21
-260.73694
 31
0.0
  0
LINE
  8
0
 10
-207.720194
 20
-240.23694
 30
0.0
 11
-177.720194
 21
-240.23694
 31
0.0
  0
LINE
  8
0
 10
-206.220194
 20
-266.73694
 30
0.0
 11
-207.720194
 21
-265.23694
 31
0.0
  0
LINE
  8
0
 10
-177.720194
 20
-265.23694
 30
0.0
 11
-179.220194
 21
-266.73694
 31
0.0
  0
LINE
  8
0
 10
-179.220194
 20
-238.73694
 30
0.0
 11
-177.720194
 21
-240.23694
 31
0.0
  0
LINE
  8
0
 10
-207.720194
 20
-240.23694
 30
0.0
 11
-206.220194
 21
-238.73694
 31
0.0
  0
LINE
  8
0
 10
-262.720194
 20
-246.23694
 30
0.0
 11
-261.220194
 21
-244.73694
 31
0.0
  0
LINE
  8
0
 10
-261.220194
 20
-260.73694
 30
0.0
 11
-262.720194
 21
-259.23694
 31
0.0
  0
LINE
  8
0
 10
-122.720194
 20
-259.23694
 30
0.0
 11
-124.220194
 21
-260.73694
 31
0.0
  0
LINE
  8
0
 10
-124.220194
 20
-244.73694
 30
0.0
 11
-122.720194
 21
-246.23694
 31
0.0
  0
LINE
  8
0
 10
-207.720194
 20
-244.73694
 30
0.0
 11
-261.220194
 21
-244.73694
 31
0.0
  0
LINE
  8
0
 10
-207.720194
 20
-260.73694
 30
0.0
 11
-261.220194
 21
-260.73694
 31
0.0
  0
LINE
  8
0
 10
-124.220194
 20
-260.73694
 30
0.0
 11
-177.720194
 21
-260.73694
 31
0.0
  0
LINE
  8
0
 10
-124.220194
 20
-244.73694
 30
0.0
 11
-177.720194
 21
-244.73694
 31
0.0
  0
LINE
  8
0
  6
CONTINUOUS
 10
-122.720194
 20
-246.23694
 30
0.0
 11
-122.720194
 21
-259.23694
 31
0.0
  0
LINE
  8
0
  6
CONTINUOUS
 10
-262.720194
 20
-246.23694
 30
0.0
 11
-262.720194
 21
-259.23694
 31
0.0
  0
LINE
  8
0
 10
-202.720194
 20
-326.53694
 30
0.0
 11
-182.720194
 21
-326.53694
 31
0.0
  0
LINE
  8
0
 10
-201.470194
 20
-327.78694
 30
0.0
 11
-183.970194
 21
-327.78694
 31
0.0
  0
LINE
  8
0
 10
-185.520194
 20
-329.33694
 30
0.0
 11
-182.720194
 21
-326.53694
 31
0.0
  0
LINE
  8
0
 10
-199.920194
 20
-329.33694
 30
0.0
 11
-202.720194
 21
-326.53694
 31
0.0
  0
LINE
  8
0
 10
-184.970194
 20
-336.23694
 30
0.0
 11
-200.470194
 21
-336.23694
 31
0.0
  0
LINE
  8
0
 10
-185.520194
 20
-329.33694
 30
0.0
 11
-185.520194
 21
-336.23694
 31
0.0
  0
LINE
  8
0
 10
-199.920194
 20
-329.33694
 30
0.0
 11
-199.920194
 21
-336.23694
 31
0.0
  0
LINE
  8
0
 10
-185.520194
 20
-329.33694
 30
0.0
 11
-199.920194
 21
-329.33694
 31
0.0
  0
LINE
  8
0
 10
-184.970194
 20
-336.23694
 30
0.0
 11
-184.970194
 21
-339.174253
 31
0.0
  0
LINE
  8
0
 10
-200.470194
 20
-336.23694
 30
0.0
 11
-200.470194
 21
-339.174253
 31
0.0
  0
ARC
  8
0
 10
-192.720194
 20
-328.73694
 30
0.0
 40
13.0
 50
233.405069
 51
306.594931
  0
LINE
  8
0
 10
-201.470194
 20
-287.98694
 30
0.0
 11
-183.970194
 21
-287.98694
 31
0.0
  0
LINE
  8
0
 10
-182.720194
 20
-286.73694
 30
0.0
 11
-183.970194
 21
-287.98694
 31
0.0
  0
LINE
  8
0
 10
-202.720194
 20
-286.73694
 30
0.0
 11
-201.470194
 21
-287.98694
 31
0.0
  0
LINE
  8
0
 10
-183.970194
 20
-287.98694
 30
0.0
 11
-183.970194
 21
-327.78694
 31
0.0
  0
LINE
  8
0
 10
-201.470194
 20
-287.98694
 30
0.0
 11
-201.470194
 21
-327.78694
 31
0.0
  0
LINE
  8
0
 10
-182.720194
 20
-286.73694
 30
0.0
 11
-202.720194
 21
-286.73694
 31
0.0
  0
LINE
  8
0
 10
-179.220194
 20
-266.73694
 30
0.0
 11
-206.220194
 21
-266.73694
 31
0.0
  0
LINE
  8
0
 10
-177.720194
 20
-240.23694
 30
0.0
 11
-177.720194
 21
-244.73694
 31
0.0
  0
LINE
  8
0
 10
-207.720194
 20
-240.23694
 30
0.0
 11
-207.720194
 21
-244.73694
 31
0.0
  0
LINE
  8
0
 10
-179.220194
 20
-238.73694
 30
0.0
 11
-206.220194
 21
-238.73694
 31
0.0
  0
LINE
  8
0
 10
-182.720194
 20
-266.73694
 30
0.0
 11
-182.720194
 21
-326.53694
 31
0.0
  0
LINE
  8
0
 10
-202.720194
 20
-266.73694
 30
0.0
 11
-202.720194
 21
-326.53694
 31
0.0
  0
LINE
  8
0
 10
-314.153189
 20
-329.074253
 30
0.0
 11
-300.153189
 21
-329.074253
 31
0.0
  0
LINE
  8
0
 10
-301.653189
 20
-330.574253
 30
0.0
 11
-299.153189
 21
-328.074253
 31
0.0
  0
LINE
  8
0
 10
-312.653189
 20
-330.574253
 30
0.0
 11
-315.153189
 21
-328.074253
 31
0.0
  0
LINE
  8
0
 10
-313.153189
 20
-339.174253
 30
0.0
 11
-301.153189
 21
-339.174253
 31
0.0
  0
LINE
  8
0
 10
-407.560819
 20
-329.074253
 30
0.0
 11
-393.560819
 21
-329.074253
 31
0.0
  0
LINE
  8
0
 10
-395.060819
 20
-330.574253
 30
0.0
 11
-392.560819
 21
-328.074253
 31
0.0
  0
LINE
  8
0
 10
-406.060819
 20
-330.574253
 30
0.0
 11
-408.560819
 21
-328.074253
 31
0.0
  0
LINE
  8
0
 10
-406.560819
 20
-339.174253
 30
0.0
 11
-394.560819
 21
-339.174253
 31
0.0
  0
CIRCLE
  8
0
 10
-307.153189
 20
-256.174253
 30
0.0
 40
4.5
  0
CIRCLE
  8
0
 10
-307.153189
 20
-256.174253
 30
0.0
 40
6.0
  0
LINE
  8
0
 10
-315.153189
 20
-266.174253
 30
0.0
 11
-315.153189
 21
-328.074253
 31
0.0
  0
LINE
  8
0
 10
-299.153189
 20
-266.174253
 30
0.0
 11
-299.153189
 21
-328.074253
 31
0.0
  0
LINE
  8
0
 10
-296.653189
 20
-246.174253
 30
0.0
 11
-317.653189
 21
-246.174253
 31
0.0
  0
LINE
  8
0
 10
-319.153189
 20
-247.674253
 30
0.0
 11
-319.153189
 21
-264.674253
 31
0.0
  0
LINE
  8
0
 10
-295.153189
 20
-247.674253
 30
0.0
 11
-295.153189
 21
-264.674253
 31
0.0
  0
LINE
  8
0
 10
-296.653189
 20
-266.174253
 30
0.0
 11
-317.653189
 21
-266.174253
 31
0.0
  0
LINE
  8
0
 10
-299.153189
 20
-286.174253
 30
0.0
 11
-315.153189
 21
-286.174253
 31
0.0
  0
LINE
  8
0
 10
-314.153189
 20
-287.174253
 30
0.0
 11
-314.153189
 21
-329.074253
 31
0.0
  0
LINE
  8
0
 10
-300.153189
 20
-287.174253
 30
0.0
 11
-300.153189
 21
-329.074253
 31
0.0
  0
LINE
  8
0
 10
-315.153189
 20
-286.174253
 30
0.0
 11
-314.153189
 21
-287.174253
 31
0.0
  0
LINE
  8
0
 10
-299.153189
 20
-286.174253
 30
0.0
 11
-300.153189
 21
-287.174253
 31
0.0
  0
LINE
  8
0
 10
-314.153189
 20
-287.174253
 30
0.0
 11
-300.153189
 21
-287.174253
 31
0.0
  0
ARC
  8
0
 10
-307.153189
 20
-331.174253
 30
0.0
 40
10.0
 50
233.130102
 51
306.869898
  0
LINE
  8
0
 10
-301.653189
 20
-330.574253
 30
0.0
 11
-312.653189
 21
-330.574253
 31
0.0
  0
LINE
  8
0
 10
-313.153189
 20
-336.174253
 30
0.0
 11
-313.153189
 21
-339.174253
 31
0.0
  0
LINE
  8
0
 10
-301.153189
 20
-336.174253
 30
0.0
 11
-301.153189
 21
-339.174253
 31
0.0
  0
LINE
  8
0
 10
-301.153189
 20
-336.174253
 30
0.0
 11
-313.153189
 21
-336.174253
 31
0.0
  0
LINE
  8
0
 10
-312.653189
 20
-330.574253
 30
0.0
 11
-312.653189
 21
-336.174253
 31
0.0
  0
LINE
  8
0
 10
-301.653189
 20
-330.574253
 30
0.0
 11
-301.653189
 21
-336.174253
 31
0.0
  0
LINE
  8
0
 10
-317.653189
 20
-246.174253
 30
0.0
 11
-319.153189
 21
-247.674253
 31
0.0
  0
LINE
  8
0
 10
-319.153189
 20
-264.674253
 30
0.0
 11
-317.653189
 21
-266.174253
 31
0.0
  0
LINE
  8
0
 10
-296.653189
 20
-266.174253
 30
0.0
 11
-295.153189
 21
-264.674253
 31
0.0
  0
LINE
  8
0
 10
-295.153189
 20
-247.674253
 30
0.0
 11
-296.653189
 21
-246.174253
 31
0.0
  0
LINE
  8
0
 10
-319.153189
 20
-247.674253
 30
0.0
 11
-295.153189
 21
-247.674253
 31
0.0
  0
LINE
  8
0
 10
-319.153189
 20
-264.674253
 30
0.0
 11
-295.153189
 21
-264.674253
 31
0.0
  0
CIRCLE
  8
0
 10
-400.560819
 20
-365.202488
 30
0.0
 40
10.5
  0
LINE
  8
0
 10
-342.060819
 20
-359.202488
 30
0.0
 11
-342.060819
 21
-371.202488
 31
0.0
  0
LINE
  8
0
 10
-459.060819
 20
-359.202488
 30
0.0
 11
-459.060819
 21
-371.202488
 31
0.0
  0
LINE
  8
0
 10
-340.560819
 20
-360.702488
 30
0.0
 11
-342.060819
 21
-359.202488
 31
0.0
  0
LINE
  8
0
 10
-342.060819
 20
-371.202488
 30
0.0
 11
-340.560819
 21
-369.702488
 31
0.0
  0
LINE
  8
0
 10
-460.560819
 20
-369.702488
 30
0.0
 11
-459.060819
 21
-371.202488
 31
0.0
  0
LINE
  8
0
 10
-459.060819
 20
-359.202488
 30
0.0
 11
-460.560819
 21
-360.702488
 31
0.0
  0
LINE
  8
0
 10
-412.560819
 20
-262.174253
 30
0.0
 11
-412.560819
 21
-264.674253
 31
0.0
  0
LINE
  8
0
 10
-388.560819
 20
-262.174253
 30
0.0
 11
-388.560819
 21
-264.674253
 31
0.0
  0
ARC
  8
0
 10
-378.168514
 20
-256.174253
 30
0.0
 40
12.0
 50
150.0
 51
210.0
  0
ARC
  8
0
 10
-422.953124
 20
-256.174253
 30
0.0
 40
12.0
 50
330.0
 51
30.0
  0
LINE
  8
0
 10
-390.168514
 20
-371.202488
 30
0.0
 11
-342.060819
 21
-371.202488
 31
0.0
  0
LINE
  8
0
 10
-390.168514
 20
-359.202488
 30
0.0
 11
-342.060819
 21
-359.202488
 31
0.0
  0
LINE
  8
0
 10
-459.060819
 20
-371.202488
 30
0.0
 11
-410.953124
 21
-371.202488
 31
0.0
  0
LINE
  8
0
 10
-459.060819
 20
-359.202488
 30
0.0
 11
-410.953124
 21
-359.202488
 31
0.0
  0
LINE
  8
0
 10
-340.560819
 20
-369.702488
 30
0.0
 11
-340.560819
 21
-360.702488
 31
0.0
  0
LINE
  8
0
 10
-460.560819
 20
-369.702488
 30
0.0
 11
-460.560819
 21
-360.702488
 31
0.0
  0
CIRCLE
  8
0
 10
-400.560819
 20
-365.202488
 30
0.0
 40
12.0
  0
LINE
  8
0
 10
-342.060819
 20
-250.174253
 30
0.0
 11
-342.060819
 21
-262.174253
 31
0.0
  0
LINE
  8
0
 10
-412.560819
 20
-264.674253
 30
0.0
 11
-388.560819
 21
-264.674253
 31
0.0
  0
LINE
  8
0
 10
-412.560819
 20
-247.674253
 30
0.0
 11
-388.560819
 21
-247.674253
 31
0.0
  0
LINE
  8
0
 10
-459.060819
 20
-250.174253
 30
0.0
 11
-459.060819
 21
-262.174253
 31
0.0
  0
LINE
  8
0
 10
-460.560819
 20
-260.674253
 30
0.0
 11
-459.060819
 21
-262.174253
 31
0.0
  0
LINE
  8
0
 10
-459.060819
 20
-250.174253
 30
0.0
 11
-460.560819
 21
-251.674253
 31
0.0
  0
LINE
  8
0
 10
-340.560819
 20
-251.674253
 30
0.0
 11
-342.060819
 21
-250.174253
 31
0.0
  0
LINE
  8
0
 10
-342.060819
 20
-262.174253
 30
0.0
 11
-340.560819
 21
-260.674253
 31
0.0
  0
LINE
  8
0
 10
-388.560819
 20
-247.674253
 30
0.0
 11
-390.060819
 21
-246.174253
 31
0.0
  0
LINE
  8
0
 10
-390.060819
 20
-266.174253
 30
0.0
 11
-388.560819
 21
-264.674253
 31
0.0
  0
LINE
  8
0
 10
-412.560819
 20
-264.674253
 30
0.0
 11
-411.060819
 21
-266.174253
 31
0.0
  0
LINE
  8
0
 10
-411.060819
 20
-246.174253
 30
0.0
 11
-412.560819
 21
-247.674253
 31
0.0
  0
LINE
  8
0
 10
-395.060819
 20
-330.574253
 30
0.0
 11
-395.060819
 21
-336.174253
 31
0.0
  0
LINE
  8
0
 10
-406.060819
 20
-330.574253
 30
0.0
 11
-406.060819
 21
-336.174253
 31
0.0
  0
LINE
  8
0
 10
-394.560819
 20
-336.174253
 30
0.0
 11
-406.560819
 21
-336.174253
 31
0.0
  0
LINE
  8
0
 10
-394.560819
 20
-336.174253
 30
0.0
 11
-394.560819
 21
-339.174253
 31
0.0
  0
LINE
  8
0
 10
-406.560819
 20
-336.174253
 30
0.0
 11
-406.560819
 21
-339.174253
 31
0.0
  0
LINE
  8
0
 10
-395.060819
 20
-330.574253
 30
0.0
 11
-406.060819
 21
-330.574253
 31
0.0
  0
ARC
  8
0
 10
-400.560819
 20
-331.174253
 30
0.0
 40
10.0
 50
233.130102
 51
306.869898
  0
LINE
  8
0
 10
-412.560819
 20
-250.174253
 30
0.0
 11
-459.060819
 21
-250.174253
 31
0.0
  0
LINE
  8
0
 10
-412.560819
 20
-262.174253
 30
0.0
 11
-459.060819
 21
-262.174253
 31
0.0
  0
LINE
  8
0
 10
-342.060819
 20
-262.174253
 30
0.0
 11
-388.560819
 21
-262.174253
 31
0.0
  0
LINE
  8
0
 10
-342.060819
 20
-250.174253
 30
0.0
 11
-388.560819
 21
-250.174253
 31
0.0
  0
LINE
  8
0
 10
-340.560819
 20
-251.674253
 30
0.0
 11
-340.560819
 21
-260.674253
 31
0.0
  0
LINE
  8
0
 10
-460.560819
 20
-251.674253
 30
0.0
 11
-460.560819
 21
-260.674253
 31
0.0
  0
LINE
  8
0
 10
-407.560819
 20
-287.174253
 30
0.0
 11
-393.560819
 21
-287.174253
 31
0.0
  0
LINE
  8
0
 10
-392.560819
 20
-286.174253
 30
0.0
 11
-393.560819
 21
-287.174253
 31
0.0
  0
LINE
  8
0
 10
-408.560819
 20
-286.174253
 30
0.0
 11
-407.560819
 21
-287.174253
 31
0.0
  0
LINE
  8
0
 10
-393.560819
 20
-287.174253
 30
0.0
 11
-393.560819
 21
-329.074253
 31
0.0
  0
LINE
  8
0
 10
-407.560819
 20
-287.174253
 30
0.0
 11
-407.560819
 21
-329.074253
 31
0.0
  0
LINE
  8
0
 10
-392.560819
 20
-286.174253
 30
0.0
 11
-408.560819
 21
-286.174253
 31
0.0
  0
LINE
  8
0
 10
-390.060819
 20
-266.174253
 30
0.0
 11
-411.060819
 21
-266.174253
 31
0.0
  0
LINE
  8
0
 10
-388.560819
 20
-247.674253
 30
0.0
 11
-388.560819
 21
-250.174253
 31
0.0
  0
LINE
  8
0
 10
-412.560819
 20
-247.674253
 30
0.0
 11
-412.560819
 21
-250.174253
 31
0.0
  0
LINE
  8
0
 10
-390.060819
 20
-246.174253
 30
0.0
 11
-411.060819
 21
-246.174253
 31
0.0
  0
LINE
  8
0
 10
-392.560819
 20
-266.174253
 30
0.0
 11
-392.560819
 21
-328.074253
 31
0.0
  0
LINE
  8
0
 10
-408.560819
 20
-266.174253
 30
0.0
 11
-408.560819
 21
-328.074253
 31
0.0
  0
LINE
  8
0
 10
-157.124117
 20
-165.836995
 30
0.0
 11
-149.124117
 21
-165.836995
 31
0.0
  0
LINE
  8
0
 10
-158.124117
 20
-157.764859
 30
0.0
 11
-148.124117
 21
-157.764859
 31
0.0
  0
LINE
  8
0
 10
-218.576739
 20
-165.836995
 30
0.0
 11
-210.576739
 21
-165.836995
 31
0.0
  0
LINE
  8
0
 10
-219.576739
 20
-157.764859
 30
0.0
 11
-209.576739
 21
-157.764859
 31
0.0
  0
LINE
  8
0
 10
14.584354
 20
-118.264859
 30
0.0
 11
14.584354
 21
-157.164859
 31
0.0
  0
LINE
  8
0
 10
14.584354
 20
-118.264859
 30
0.0
 11
15.484354
 21
-117.364859
 31
0.0
  0
LINE
  8
0
 10
15.484354
 20
-117.364859
 30
0.0
 11
13.387811
 21
-117.364859
 31
0.0
  0
LINE
  8
0
 10
4.384354
 20
-118.264859
 30
0.0
 11
4.384354
 21
-157.164859
 31
0.0
  0
LINE
  8
0
 10
4.384354
 20
-118.264859
 30
0.0
 11
3.484354
 21
-117.364859
 31
0.0
  0
LINE
  8
0
 10
4.384354
 20
-118.264859
 30
0.0
 11
14.584354
 21
-118.264859
 31
0.0
  0
LINE
  8
0
 10
3.484354
 20
-117.364859
 30
0.0
 11
15.484354
 21
-117.364859
 31
0.0
  0
CIRCLE
  8
0
 10
9.484354
 20
-88.364859
 30
0.0
 40
4.0
  0
CIRCLE
  8
0
 10
9.484354
 20
-88.364859
 30
0.0
 40
5.0
  0
LINE
  8
0
 10
-60.13458
 20
-117.364859
 30
0.0
 11
-62.231122
 21
-117.364859
 31
0.0
  0
LINE
  8
0
 10
-72.13458
 20
-117.364859
 30
0.0
 11
-60.13458
 21
-117.364859
 31
0.0
  0
LINE
  8
0
 10
-61.03458
 20
-118.264859
 30
0.0
 11
-60.13458
 21
-117.364859
 31
0.0
  0
LINE
  8
0
 10
-71.23458
 20
-118.264859
 30
0.0
 11
-72.13458
 21
-117.364859
 31
0.0
  0
LINE
  8
0
 10
-71.23458
 20
-118.264859
 30
0.0
 11
-61.03458
 21
-118.264859
 31
0.0
  0
LINE
  8
0
 10
3.484354
 20
-97.364859
 30
0.0
 11
3.484354
 21
-156.264859
 31
0.0
  0
LINE
  8
0
 10
15.484354
 20
-97.364859
 30
0.0
 11
15.484354
 21
-156.264859
 31
0.0
  0
LINE
  8
0
 10
0.484354
 20
-79.364859
 30
0.0
 11
18.484354
 21
-79.364859
 31
0.0
  0
LINE
  8
0
 10
0.484354
 20
-97.364859
 30
0.0
 11
18.484354
 21
-97.364859
 31
0.0
  0
LINE
  8
0
 10
5.984354
 20
-158.764859
 30
0.0
 11
12.984354
 21
-158.764859
 31
0.0
  0
LINE
  8
0
 10
5.484354
 20
-163.364859
 30
0.0
 11
5.484354
 21
-165.836995
 31
0.0
  0
LINE
  8
0
 10
13.484354
 20
-163.364859
 30
0.0
 11
13.484354
 21
-165.836995
 31
0.0
  0
ARC
  8
0
 10
9.484354
 20
-161.364859
 30
0.0
 40
6.0
 50
228.189685
 51
311.810315
  0
LINE
  8
0
 10
5.484354
 20
-165.836995
 30
0.0
 11
13.484354
 21
-165.836995
 31
0.0
  0
LINE
  8
0
 10
5.984354
 20
-158.764859
 30
0.0
 11
5.984354
 21
-163.364859
 31
0.0
  0
LINE
  8
0
 10
12.984354
 20
-158.764859
 30
0.0
 11
12.984354
 21
-163.364859
 31
0.0
  0
LINE
  8
0
 10
5.484354
 20
-163.364859
 30
0.0
 11
13.484354
 21
-163.364859
 31
0.0
  0
LINE
  8
0
 10
5.984354
 20
-158.764859
 30
0.0
 11
3.484354
 21
-156.264859
 31
0.0
  0
LINE
  8
0
 10
12.984354
 20
-158.764859
 30
0.0
 11
15.484354
 21
-156.264859
 31
0.0
  0
LINE
  8
0
 10
4.384354
 20
-157.164859
 30
0.0
 11
14.584354
 21
-157.164859
 31
0.0
  0
LINE
  8
0
 10
3.484354
 20
-156.264859
 30
0.0
 11
15.484354
 21
-156.264859
 31
0.0
  0
LINE
  8
0
 10
-0.515646
 20
-80.364859
 30
0.0
 11
0.484354
 21
-79.364859
 31
0.0
  0
LINE
  8
0
 10
18.484354
 20
-79.364859
 30
0.0
 11
19.484354
 21
-80.364859
 31
0.0
  0
LINE
  8
0
 10
19.484354
 20
-96.364859
 30
0.0
 11
18.484354
 21
-97.364859
 31
0.0
  0
LINE
  8
0
 10
0.484354
 20
-97.364859
 30
0.0
 11
-0.515646
 21
-96.364859
 31
0.0
  0
LINE
  8
0
 10
-0.515646
 20
-80.364859
 30
0.0
 11
19.484354
 21
-80.364859
 31
0.0
  0
LINE
  8
0
 10
-0.515646
 20
-96.364859
 30
0.0
 11
19.484354
 21
-96.364859
 31
0.0
  0
LINE
  8
0
 10
19.484354
 20
-96.364859
 30
0.0
 11
19.484354
 21
-80.364859
 31
0.0
  0
LINE
  8
0
 10
-0.515646
 20
-96.364859
 30
0.0
 11
-0.515646
 21
-80.364859
 31
0.0
  0
CIRCLE
  8
0
 10
-66.13458
 20
-192.492427
 30
0.0
 40
9.0
  0
LINE
  8
0
 10
-17.13458
 20
-187.492427
 30
0.0
 11
-17.13458
 21
-197.492427
 31
0.0
  0
LINE
  8
0
 10
-115.13458
 20
-187.492427
 30
0.0
 11
-115.13458
 21
-197.492427
 31
0.0
  0
LINE
  8
0
 10
-16.13458
 20
-188.492427
 30
0.0
 11
-17.13458
 21
-187.492427
 31
0.0
  0
LINE
  8
0
 10
-17.13458
 20
-197.492427
 30
0.0
 11
-16.13458
 21
-196.492427
 31
0.0
  0
LINE
  8
0
 10
-116.13458
 20
-196.492427
 30
0.0
 11
-115.13458
 21
-197.492427
 31
0.0
  0
LINE
  8
0
 10
-115.13458
 20
-187.492427
 30
0.0
 11
-116.13458
 21
-188.492427
 31
0.0
  0
LINE
  8
0
 10
-76.13458
 20
-96.364859
 30
0.0
 11
-76.13458
 21
-93.364859
 31
0.0
  0
LINE
  8
0
 10
-56.13458
 20
-96.364859
 30
0.0
 11
-56.13458
 21
-93.364859
 31
0.0
  0
ARC
  8
0
 10
-47.474326
 20
-88.364859
 30
0.0
 40
10.0
 50
150.0
 51
210.0
  0
ARC
  8
0
 10
-84.794834
 20
-88.364859
 30
0.0
 40
10.0
 50
330.0
 51
30.0
  0
LINE
  8
0
 10
-16.13458
 20
-188.492427
 30
0.0
 11
-16.13458
 21
-196.492427
 31
0.0
  0
LINE
  8
0
 10
-116.13458
 20
-188.492427
 30
0.0
 11
-116.13458
 21
-196.492427
 31
0.0
  0
LINE
  8
0
 10
-57.474326
 20
-197.492427
 30
0.0
 11
-17.13458
 21
-197.492427
 31
0.0
  0
LINE
  8
0
 10
-57.474326
 20
-187.492427
 30
0.0
 11
-17.13458
 21
-187.492427
 31
0.0
  0
LINE
  8
0
 10
-74.794834
 20
-197.492427
 30
0.0
 11
-115.13458
 21
-197.492427
 31
0.0
  0
LINE
  8
0
 10
-74.794834
 20
-187.492427
 30
0.0
 11
-115.13458
 21
-187.492427
 31
0.0
  0
CIRCLE
  8
0
 10
-66.13458
 20
-192.492427
 30
0.0
 40
10.0
  0
LINE
  8
0
 10
-76.13458
 20
-96.364859
 30
0.0
 11
-56.13458
 21
-96.364859
 31
0.0
  0
LINE
  8
0
 10
-76.13458
 20
-80.364859
 30
0.0
 11
-56.13458
 21
-80.364859
 31
0.0
  0
LINE
  8
0
 10
-75.13458
 20
-97.364859
 30
0.0
 11
-76.13458
 21
-96.364859
 31
0.0
  0
LINE
  8
0
 10
-56.13458
 20
-96.364859
 30
0.0
 11
-57.13458
 21
-97.364859
 31
0.0
  0
LINE
  8
0
 10
-57.13458
 20
-79.364859
 30
0.0
 11
-56.13458
 21
-80.364859
 31
0.0
  0
LINE
  8
0
 10
-76.13458
 20
-80.364859
 30
0.0
 11
-75.13458
 21
-79.364859
 31
0.0
  0
LINE
  8
0
 10
-17.13458
 20
-83.364859
 30
0.0
 11
-17.13458
 21
-93.364859
 31
0.0
  0
LINE
  8
0
 10
-115.13458
 20
-83.364859
 30
0.0
 11
-115.13458
 21
-93.364859
 31
0.0
  0
LINE
  8
0
 10
-16.13458
 20
-84.364859
 30
0.0
 11
-17.13458
 21
-83.364859
 31
0.0
  0
LINE
  8
0
 10
-17.13458
 20
-93.364859
 30
0.0
 11
-16.13458
 21
-92.364859
 31
0.0
  0
LINE
  8
0
 10
-116.13458
 20
-92.364859
 30
0.0
 11
-115.13458
 21
-93.364859
 31
0.0
  0
LINE
  8
0
 10
-115.13458
 20
-83.364859
 30
0.0
 11
-116.13458
 21
-84.364859
 31
0.0
  0
LINE
  8
0
 10
-56.13458
 20
-83.364859
 30
0.0
 11
-17.13458
 21
-83.364859
 31
0.0
  0
LINE
  8
0
 10
-56.13458
 20
-93.364859
 30
0.0
 11
-17.13458
 21
-93.364859
 31
0.0
  0
LINE
  8
0
 10
-115.13458
 20
-93.364859
 30
0.0
 11
-76.13458
 21
-93.364859
 31
0.0
  0
LINE
  8
0
 10
-115.13458
 20
-83.364859
 30
0.0
 11
-76.13458
 21
-83.364859
 31
0.0
  0
LINE
  8
0
 10
-16.13458
 20
-84.364859
 30
0.0
 11
-16.13458
 21
-92.364859
 31
0.0
  0
LINE
  8
0
 10
-116.13458
 20
-84.364859
 30
0.0
 11
-116.13458
 21
-92.364859
 31
0.0
  0
LINE
  8
0
 10
-72.13458
 20
-156.264859
 30
0.0
 11
-60.13458
 21
-156.264859
 31
0.0
  0
LINE
  8
0
 10
-71.23458
 20
-157.164859
 30
0.0
 11
-61.03458
 21
-157.164859
 31
0.0
  0
LINE
  8
0
 10
-62.63458
 20
-158.764859
 30
0.0
 11
-60.13458
 21
-156.264859
 31
0.0
  0
LINE
  8
0
 10
-69.63458
 20
-158.764859
 30
0.0
 11
-72.13458
 21
-156.264859
 31
0.0
  0
LINE
  8
0
 10
-70.13458
 20
-163.364859
 30
0.0
 11
-62.13458
 21
-163.364859
 31
0.0
  0
LINE
  8
0
 10
-62.63458
 20
-158.764859
 30
0.0
 11
-62.63458
 21
-163.364859
 31
0.0
  0
LINE
  8
0
 10
-69.63458
 20
-158.764859
 30
0.0
 11
-69.63458
 21
-163.364859
 31
0.0
  0
LINE
  8
0
 10
-70.13458
 20
-165.836995
 30
0.0
 11
-62.13458
 21
-165.836995
 31
0.0
  0
ARC
  8
0
 10
-66.13458
 20
-161.364859
 30
0.0
 40
6.0
 50
228.189685
 51
311.810315
  0
LINE
  8
0
 10
-62.13458
 20
-163.364859
 30
0.0
 11
-62.13458
 21
-165.836995
 31
0.0
  0
LINE
  8
0
 10
-70.13458
 20
-163.364859
 30
0.0
 11
-70.13458
 21
-165.836995
 31
0.0
  0
LINE
  8
0
 10
-61.03458
 20
-118.264859
 30
0.0
 11
-61.03458
 21
-157.164859
 31
0.0
  0
LINE
  8
0
 10
-71.23458
 20
-118.264859
 30
0.0
 11
-71.23458
 21
-157.164859
 31
0.0
  0
LINE
  8
0
 10
-69.63458
 20
-158.764859
 30
0.0
 11
-62.63458
 21
-158.764859
 31
0.0
  0
LINE
  8
0
 10
-75.13458
 20
-97.364859
 30
0.0
 11
-57.13458
 21
-97.364859
 31
0.0
  0
LINE
  8
0
 10
-56.13458
 20
-80.364859
 30
0.0
 11
-56.13458
 21
-83.364859
 31
0.0
  0
LINE
  8
0
 10
-76.13458
 20
-80.364859
 30
0.0
 11
-76.13458
 21
-83.364859
 31
0.0
  0
LINE
  8
0
 10
-75.13458
 20
-79.364859
 30
0.0
 11
-57.13458
 21
-79.364859
 31
0.0
  0
LINE
  8
0
 10
-60.13458
 20
-97.364859
 30
0.0
 11
-60.13458
 21
-156.264859
 31
0.0
  0
LINE
  8
0
 10
-72.13458
 20
-97.364859
 30
0.0
 11
-72.13458
 21
-156.264859
 31
0.0
  0
CIRCLE
  8
0
 10
-153.124117
 20
-100.364859
 30
0.0
 40
3.0
  0
CIRCLE
  8
0
 10
-153.124117
 20
-100.364859
 30
0.0
 40
4.0
  0
LINE
  8
0
 10
-158.124117
 20
-107.364859
 30
0.0
 11
-158.124117
 21
-157.764859
 31
0.0
  0
LINE
  8
0
 10
-148.124117
 20
-107.364859
 30
0.0
 11
-148.124117
 21
-157.764859
 31
0.0
  0
LINE
  8
0
 10
-161.124117
 20
-93.364859
 30
0.0
 11
-145.124117
 21
-93.364859
 31
0.0
  0
LINE
  8
0
 10
-161.124117
 20
-107.364859
 30
0.0
 11
-145.124117
 21
-107.364859
 31
0.0
  0
LINE
  8
0
 10
-157.374117
 20
-127.364859
 30
0.0
 11
-148.874117
 21
-127.364859
 31
0.0
  0
LINE
  8
0
 10
-157.374117
 20
-127.364859
 30
0.0
 11
-157.374117
 21
-158.514859
 31
0.0
  0
LINE
  8
0
 10
-148.874117
 20
-127.364859
 30
0.0
 11
-148.874117
 21
-158.514859
 31
0.0
  0
LINE
  8
0
 10
-157.374117
 20
-127.364859
 30
0.0
 11
-158.124117
 21
-126.614859
 31
0.0
  0
LINE
  8
0
 10
-148.874117
 20
-127.364859
 30
0.0
 11
-148.124117
 21
-126.614859
 31
0.0
  0
LINE
  8
0
 10
-158.124117
 20
-126.614859
 30
0.0
 11
-148.124117
 21
-126.614859
 31
0.0
  0
LINE
  8
0
 10
-161.124117
 20
-93.364859
 30
0.0
 11
-162.124117
 21
-94.364859
 31
0.0
  0
LINE
  8
0
 10
-162.124117
 20
-106.364859
 30
0.0
 11
-161.124117
 21
-107.364859
 31
0.0
  0
LINE
  8
0
 10
-145.124117
 20
-107.364859
 30
0.0
 11
-144.124117
 21
-106.364859
 31
0.0
  0
LINE
  8
0
 10
-144.124117
 20
-94.364859
 30
0.0
 11
-145.124117
 21
-93.364859
 31
0.0
  0
LINE
  8
0
 10
-162.124117
 20
-94.364859
 30
0.0
 11
-144.124117
 21
-94.364859
 31
0.0
  0
LINE
  8
0
 10
-162.124117
 20
-106.364859
 30
0.0
 11
-144.124117
 21
-106.364859
 31
0.0
  0
LINE
  8
0
 10
-156.724117
 20
-159.164859
 30
0.0
 11
-149.524117
 21
-159.164859
 31
0.0
  0
LINE
  8
0
 10
-157.124117
 20
-162.864859
 30
0.0
 11
-157.124117
 21
-165.836995
 31
0.0
  0
LINE
  8
0
 10
-149.124117
 20
-162.864859
 30
0.0
 11
-149.124117
 21
-165.836995
 31
0.0
  0
LINE
  8
0
 10
-156.724117
 20
-159.164859
 30
0.0
 11
-156.724117
 21
-162.864859
 31
0.0
  0
LINE
  8
0
 10
-149.524117
 20
-159.164859
 30
0.0
 11
-149.524117
 21
-162.864859
 31
0.0
  0
LINE
  8
0
 10
-157.124117
 20
-162.864859
 30
0.0
 11
-149.124117
 21
-162.864859
 31
0.0
  0
ARC
  8
0
 10
-153.124117
 20
-161.364859
 30
0.0
 40
6.0
 50
228.189685
 51
311.810315
  0
LINE
  8
0
 10
-156.724117
 20
-159.164859
 30
0.0
 11
-158.124117
 21
-157.764859
 31
0.0
  0
LINE
  8
0
 10
-149.524117
 20
-159.164859
 30
0.0
 11
-148.124117
 21
-157.764859
 31
0.0
  0
LINE
  8
0
 10
-157.374117
 20
-158.514859
 30
0.0
 11
-148.874117
 21
-158.514859
 31
0.0
  0
LINE
  8
0
 10
-162.124117
 20
-94.364859
 30
0.0
 11
-162.124117
 21
-106.364859
 31
0.0
  0
LINE
  8
0
 10
-144.124117
 20
-94.364859
 30
0.0
 11
-144.124117
 21
-106.364859
 31
0.0
  0
LINE
  8
0
 10
-205.576739
 20
-104.364859
 30
0.0
 11
-205.576739
 21
-106.364859
 31
0.0
  0
LINE
  8
0
 10
-223.576739
 20
-104.364859
 30
0.0
 11
-223.576739
 21
-106.364859
 31
0.0
  0
CIRCLE
  8
0
 10
-214.576739
 20
-188.347377
 30
0.0
 40
8.0
  0
LINE
  8
0
 10
-206.514481
 20
-192.347377
 30
0.0
 11
-175.576739
 21
-192.347377
 31
0.0
  0
LINE
  8
0
 10
-206.514481
 20
-184.347377
 30
0.0
 11
-175.576739
 21
-184.347377
 31
0.0
  0
LINE
  8
0
 10
-175.576739
 20
-184.347377
 30
0.0
 11
-175.576739
 21
-192.347377
 31
0.0
  0
LINE
  8
0
 10
-253.576739
 20
-184.347377
 30
0.0
 11
-253.576739
 21
-192.347377
 31
0.0
  0
LINE
  8
0
 10
-174.576739
 20
-185.347377
 30
0.0
 11
-175.576739
 21
-184.347377
 31
0.0
  0
LINE
  8
0
 10
-175.576739
 20
-192.347377
 30
0.0
 11
-174.576739
 21
-191.347377
 31
0.0
  0
LINE
  8
0
 10
-254.576739
 20
-191.347377
 30
0.0
 11
-253.576739
 21
-192.347377
 31
0.0
  0
LINE
  8
0
 10
-253.576739
 20
-184.347377
 30
0.0
 11
-254.576739
 21
-185.347377
 31
0.0
  0
ARC
  8
0
 10
-197.514481
 20
-100.364859
 30
0.0
 40
9.0
 50
153.6122
 51
206.3878
  0
ARC
  8
0
 10
-231.638996
 20
-100.364859
 30
0.0
 40
9.0
 50
333.6122
 51
26.3878
  0
LINE
  8
0
 10
-174.576739
 20
-191.347377
 30
0.0
 11
-174.576739
 21
-185.347377
 31
0.0
  0
LINE
  8
0
 10
-254.576739
 20
-191.347377
 30
0.0
 11
-254.576739
 21
-185.347377
 31
0.0
  0
LINE
  8
0
 10
-253.576739
 20
-192.347377
 30
0.0
 11
-222.638996
 21
-192.347377
 31
0.0
  0
LINE
  8
0
 10
-253.576739
 20
-184.347377
 30
0.0
 11
-222.638996
 21
-184.347377
 31
0.0
  0
CIRCLE
  8
0
 10
-214.576739
 20
-188.347377
 30
0.0
 40
9.0
  0
LINE
  8
0
 10
-205.576739
 20
-96.364859
 30
0.0
 11
-175.576739
 21
-96.364859
 31
0.0
  0
LINE
  8
0
 10
-205.576739
 20
-104.364859
 30
0.0
 11
-175.576739
 21
-104.364859
 31
0.0
  0
LINE
  8
0
 10
-174.576739
 20
-97.364859
 30
0.0
 11
-174.576739
 21
-103.364859
 31
0.0
  0
LINE
  8
0
 10
-175.576739
 20
-96.364859
 30
0.0
 11
-174.576739
 21
-97.364859
 31
0.0
  0
LINE
  8
0
 10
-174.576739
 20
-103.364859
 30
0.0
 11
-175.576739
 21
-104.364859
 31
0.0
  0
LINE
  8
0
 10
-175.576739
 20
-96.364859
 30
0.0
 11
-175.576739
 21
-104.364859
 31
0.0
  0
LINE
  8
0
 10
-253.576739
 20
-96.364859
 30
0.0
 11
-253.576739
 21
-104.364859
 31
0.0
  0
LINE
  8
0
 10
-254.576739
 20
-103.364859
 30
0.0
 11
-253.576739
 21
-104.364859
 31
0.0
  0
LINE
  8
0
 10
-253.576739
 20
-96.364859
 30
0.0
 11
-254.576739
 21
-97.364859
 31
0.0
  0
LINE
  8
0
 10
-218.826739
 20
-158.514859
 30
0.0
 11
-210.326739
 21
-158.514859
 31
0.0
  0
LINE
  8
0
 10
-210.976739
 20
-159.164859
 30
0.0
 11
-209.576739
 21
-157.764859
 31
0.0
  0
LINE
  8
0
 10
-218.176739
 20
-159.164859
 30
0.0
 11
-219.576739
 21
-157.764859
 31
0.0
  0
LINE
  8
0
 10
-223.576739
 20
-104.364859
 30
0.0
 11
-253.576739
 21
-104.364859
 31
0.0
  0
LINE
  8
0
 10
-223.576739
 20
-96.364859
 30
0.0
 11
-253.576739
 21
-96.364859
 31
0.0
  0
LINE
  8
0
 10
-254.576739
 20
-97.364859
 30
0.0
 11
-254.576739
 21
-103.364859
 31
0.0
  0
ARC
  8
0
 10
-214.576739
 20
-161.364859
 30
0.0
 40
6.0
 50
228.189685
 51
311.810315
  0
LINE
  8
0
 10
-218.576739
 20
-162.864859
 30
0.0
 11
-210.576739
 21
-162.864859
 31
0.0
  0
LINE
  8
0
 10
-210.976739
 20
-159.164859
 30
0.0
 11
-210.976739
 21
-162.864859
 31
0.0
  0
LINE
  8
0
 10
-218.176739
 20
-159.164859
 30
0.0
 11
-218.176739
 21
-162.864859
 31
0.0
  0
LINE
  8
0
 10
-210.576739
 20
-162.864859
 30
0.0
 11
-210.576739
 21
-165.836995
 31
0.0
  0
LINE
  8
0
 10
-218.576739
 20
-162.864859
 30
0.0
 11
-218.576739
 21
-165.836995
 31
0.0
  0
LINE
  8
0
 10
-218.176739
 20
-159.164859
 30
0.0
 11
-210.976739
 21
-159.164859
 31
0.0
  0
LINE
  8
0
 10
-223.576739
 20
-106.364859
 30
0.0
 11
-205.576739
 21
-106.364859
 31
0.0
  0
LINE
  8
0
 10
-223.576739
 20
-94.364859
 30
0.0
 11
-205.576739
 21
-94.364859
 31
0.0
  0
LINE
  8
0
 10
-205.576739
 20
-94.364859
 30
0.0
 11
-206.576739
 21
-93.364859
 31
0.0
  0
LINE
  8
0
 10
-206.576739
 20
-107.364859
 30
0.0
 11
-205.576739
 21
-106.364859
 31
0.0
  0
LINE
  8
0
 10
-223.576739
 20
-106.364859
 30
0.0
 11
-222.576739
 21
-107.364859
 31
0.0
  0
LINE
  8
0
 10
-222.576739
 20
-93.364859
 30
0.0
 11
-223.576739
 21
-94.364859
 31
0.0
  0
LINE
  8
0
 10
-219.576739
 20
-126.614859
 30
0.0
 11
-209.576739
 21
-126.614859
 31
0.0
  0
LINE
  8
0
 10
-210.326739
 20
-127.364859
 30
0.0
 11
-209.576739
 21
-126.614859
 31
0.0
  0
LINE
  8
0
 10
-218.826739
 20
-127.364859
 30
0.0
 11
-219.576739
 21
-126.614859
 31
0.0
  0
LINE
  8
0
 10
-210.326739
 20
-127.364859
 30
0.0
 11
-210.326739
 21
-158.514859
 31
0.0
  0
LINE
  8
0
 10
-218.826739
 20
-127.364859
 30
0.0
 11
-218.826739
 21
-158.514859
 31
0.0
  0
LINE
  8
0
 10
-218.826739
 20
-127.364859
 30
0.0
 11
-210.326739
 21
-127.364859
 31
0.0
  0
LINE
  8
0
 10
-222.573739
 20
-107.364859
 30
0.0
 11
-222.569739
 21
-107.364859
 31
0.0
  0
LINE
  8
0
 10
-205.576739
 20
-94.364859
 30
0.0
 11
-205.576739
 21
-96.364859
 31
0.0
  0
LINE
  8
0
 10
-223.576739
 20
-94.364859
 30
0.0
 11
-223.576739
 21
-96.364859
 31
0.0
  0
LINE
  8
0
 10
-222.576739
 20
-93.364859
 30
0.0
 11
-206.576739
 21
-93.364859
 31
0.0
  0
LINE
  8
0
 10
-209.576739
 20
-107.364859
 30
0.0
 11
-209.576739
 21
-157.764859
 31
0.0
  0
LINE
  8
0
 10
-219.576739
 20
-107.364859
 30
0.0
 11
-219.576739
 21
-157.764859
 31
0.0
  0
CIRCLE
  8
0
 10
-435.560819
 20
-183.612297
 30
0.0
 40
5.5
  0
LINE
  8
0
 10
-411.060819
 20
-186.112297
 30
0.0
 11
-430.106463
 21
-186.112297
 31
0.0
  0
LINE
  8
0
 10
-411.060819
 20
-181.112297
 30
0.0
 11
-430.106463
 21
-181.112297
 31
0.0
  0
LINE
  8
0
 10
-410.560819
 20
-181.612297
 30
0.0
 11
-410.560819
 21
-185.612297
 31
0.0
  0
LINE
  8
0
 10
-411.060819
 20
-186.112297
 30
0.0
 11
-410.560819
 21
-185.612297
 31
0.0
  0
LINE
  8
0
 10
-410.560819
 20
-181.612297
 30
0.0
 11
-411.060819
 21
-181.112297
 31
0.0
  0
LINE
  8
0
 10
-411.060819
 20
-181.112297
 30
0.0
 11
-411.060819
 21
-186.112297
 31
0.0
  0
LINE
  8
0
 10
-460.560819
 20
-181.612297
 30
0.0
 11
-460.560819
 21
-185.612297
 31
0.0
  0
LINE
  8
0
 10
-460.060819
 20
-181.112297
 30
0.0
 11
-460.560819
 21
-181.612297
 31
0.0
  0
LINE
  8
0
 10
-460.560819
 20
-185.612297
 30
0.0
 11
-460.060819
 21
-186.112297
 31
0.0
  0
LINE
  8
0
 10
-441.015175
 20
-186.112297
 30
0.0
 11
-460.060819
 21
-186.112297
 31
0.0
  0
LINE
  8
0
 10
-441.015175
 20
-181.112297
 30
0.0
 11
-460.060819
 21
-181.112297
 31
0.0
  0
LINE
  8
0
 10
-460.060819
 20
-181.112297
 30
0.0
 11
-460.060819
 21
-186.112297
 31
0.0
  0
CIRCLE
  8
0
 10
-435.560819
 20
-183.612297
 30
0.0
 40
6.0
  0
CIRCLE
  8
0
 10
-397.337987
 20
-121.656043
 30
0.0
 40
2.0
  0
CIRCLE
  8
0
 10
-397.337987
 20
-121.656043
 30
0.0
 40
2.5
  0
LINE
  8
0
 10
-403.337987
 20
-126.156043
 30
0.0
 11
-391.337987
 21
-126.156043
 31
0.0
  0
LINE
  8
0
 10
-391.837987
 20
-126.656043
 30
0.0
 11
-391.337987
 21
-126.156043
 31
0.0
  0
LINE
  8
0
 10
-403.337987
 20
-126.156043
 30
0.0
 11
-402.837987
 21
-126.656043
 31
0.0
  0
LINE
  8
0
 10
-441.560819
 20
-126.156043
 30
0.0
 11
-429.560819
 21
-126.156043
 31
0.0
  0
LINE
  8
0
 10
-430.060819
 20
-126.656043
 30
0.0
 11
-429.560819
 21
-126.156043
 31
0.0
  0
LINE
  8
0
 10
-441.060819
 20
-126.656043
 30
0.0
 11
-441.560819
 21
-126.156043
 31
0.0
  0
LINE
  8
0
 10
-394.337987
 20
-126.656043
 30
0.0
 11
-394.337987
 21
-158.656043
 31
0.0
  0
LINE
  8
0
 10
-400.337987
 20
-126.656043
 30
0.0
 11
-400.337987
 21
-158.656043
 31
0.0
  0
LINE
  8
0
 10
-402.837987
 20
-116.656043
 30
0.0
 11
-391.837987
 21
-116.656043
 31
0.0
  0
LINE
  8
0
 10
-402.837987
 20
-126.656043
 30
0.0
 11
-391.837987
 21
-126.656043
 31
0.0
  0
LINE
  8
0
 10
-403.337987
 20
-117.156043
 30
0.0
 11
-403.337987
 21
-126.156043
 31
0.0
  0
LINE
  8
0
 10
-391.337987
 20
-117.156043
 30
0.0
 11
-391.337987
 21
-126.156043
 31
0.0
  0
LINE
  8
0
 10
-402.837987
 20
-116.656043
 30
0.0
 11
-403.337987
 21
-117.156043
 31
0.0
  0
LINE
  8
0
 10
-391.837987
 20
-116.656043
 30
0.0
 11
-391.337987
 21
-117.156043
 31
0.0
  0
LINE
  8
0
 10
-400.337987
 20
-136.656043
 30
0.0
 11
-394.337987
 21
-136.656043
 31
0.0
  0
LINE
  8
0
 10
-399.337987
 20
-159.656043
 30
0.0
 11
-395.337987
 21
-159.656043
 31
0.0
  0
LINE
  8
0
 10
-399.337987
 20
-159.656043
 30
0.0
 11
-399.337987
 21
-164.156043
 31
0.0
  0
LINE
  8
0
 10
-395.337987
 20
-159.656043
 30
0.0
 11
-395.337987
 21
-164.156043
 31
0.0
  0
LINE
  8
0
 10
-399.587987
 20
-164.156043
 30
0.0
 11
-395.087987
 21
-164.156043
 31
0.0
  0
LINE
  8
0
 10
-399.587987
 20
-164.156043
 30
0.0
 11
-399.587987
 21
-165.836995
 31
0.0
  0
LINE
  8
0
 10
-395.087987
 20
-164.156043
 30
0.0
 11
-395.087987
 21
-165.836995
 31
0.0
  0
ARC
  8
0
 10
-397.337987
 20
-163.156043
 30
0.0
 40
3.5
 50
229.994799
 51
310.005201
  0
LINE
  8
0
 10
-399.837987
 20
-137.156043
 30
0.0
 11
-399.837987
 21
-159.156043
 31
0.0
  0
LINE
  8
0
 10
-394.837987
 20
-137.156043
 30
0.0
 11
-394.837987
 21
-159.156043
 31
0.0
  0
LINE
  8
0
 10
-400.337987
 20
-136.656043
 30
0.0
 11
-399.837987
 21
-137.156043
 31
0.0
  0
LINE
  8
0
 10
-394.337987
 20
-136.656043
 30
0.0
 11
-394.837987
 21
-137.156043
 31
0.0
  0
LINE
  8
0
 10
-399.837987
 20
-137.156043
 30
0.0
 11
-394.837987
 21
-137.156043
 31
0.0
  0
LINE
  8
0
 10
-399.337987
 20
-159.656043
 30
0.0
 11
-400.337987
 21
-158.656043
 31
0.0
  0
LINE
  8
0
 10
-395.337987
 20
-159.656043
 30
0.0
 11
-394.337987
 21
-158.656043
 31
0.0
  0
LINE
  8
0
 10
-399.837987
 20
-159.156043
 30
0.0
 11
-394.837987
 21
-159.156043
 31
0.0
  0
LINE
  8
0
 10
-403.337987
 20
-117.156043
 30
0.0
 11
-391.337987
 21
-117.156043
 31
0.0
  0
LINE
  8
0
 10
-399.587987
 20
-165.836995
 30
0.0
 11
-395.087987
 21
-165.836995
 31
0.0
  0
CIRCLE
  8
0
 10
-291.416736
 20
-110.727223
 30
0.0
 40
2.0
  0
CIRCLE
  8
0
 10
-291.416736
 20
-110.727223
 30
0.0
 40
3.0
  0
LINE
  8
0
 10
-295.416736
 20
-116.727223
 30
0.0
 11
-295.416736
 21
-158.627223
 31
0.0
  0
LINE
  8
0
 10
-297.416736
 20
-104.727223
 30
0.0
 11
-285.416736
 21
-104.727223
 31
0.0
  0
LINE
  8
0
 10
-297.416736
 20
-116.727223
 30
0.0
 11
-285.416736
 21
-116.727223
 31
0.0
  0
LINE
  8
0
 10
-294.816736
 20
-131.727223
 30
0.0
 11
-288.016736
 21
-131.727223
 31
0.0
  0
LINE
  8
0
 10
-294.116736
 20
-159.927223
 30
0.0
 11
-288.716736
 21
-159.927223
 31
0.0
  0
LINE
  8
0
 10
-294.816736
 20
-131.727223
 30
0.0
 11
-294.816736
 21
-159.227223
 31
0.0
  0
LINE
  8
0
 10
-288.016736
 20
-131.727223
 30
0.0
 11
-288.016736
 21
-159.227223
 31
0.0
  0
LINE
  8
0
 10
-288.716736
 20
-159.927223
 30
0.0
 11
-288.716736
 21
-163.727223
 31
0.0
  0
LINE
  8
0
 10
-294.116736
 20
-159.927223
 30
0.0
 11
-294.116736
 21
-163.727223
 31
0.0
  0
LINE
  8
0
 10
-294.416736
 20
-163.727223
 30
0.0
 11
-294.416736
 21
-165.836995
 31
0.0
  0
LINE
  8
0
 10
-288.416736
 20
-163.727223
 30
0.0
 11
-288.416736
 21
-165.836995
 31
0.0
  0
LINE
  8
0
 10
-294.416736
 20
-163.727223
 30
0.0
 11
-288.416736
 21
-163.727223
 31
0.0
  0
ARC
  8
0
 10
-291.416736
 20
-161.227223
 30
0.0
 40
5.5
 50
236.944269
 51
303.055731
  0
LINE
  8
0
 10
-294.116736
 20
-159.927223
 30
0.0
 11
-295.416736
 21
-158.627223
 31
0.0
  0
LINE
  8
0
 10
-288.716736
 20
-159.927223
 30
0.0
 11
-287.416736
 21
-158.627223
 31
0.0
  0
LINE
  8
0
 10
-294.816736
 20
-131.727223
 30
0.0
 11
-295.416736
 21
-131.127223
 31
0.0
  0
LINE
  8
0
 10
-288.016736
 20
-131.727223
 30
0.0
 11
-287.416736
 21
-131.127223
 31
0.0
  0
LINE
  8
0
 10
-295.416736
 20
-131.127223
 30
0.0
 11
-287.416736
 21
-131.127223
 31
0.0
  0
LINE
  8
0
 10
-287.416736
 20
-116.727223
 30
0.0
 11
-287.416736
 21
-158.627223
 31
0.0
  0
LINE
  8
0
 10
-297.416736
 20
-104.727223
 30
0.0
 11
-298.416736
 21
-105.727223
 31
0.0
  0
LINE
  8
0
 10
-298.416736
 20
-115.727223
 30
0.0
 11
-297.416736
 21
-116.727223
 31
0.0
  0
LINE
  8
0
 10
-285.416736
 20
-116.727223
 30
0.0
 11
-284.416736
 21
-115.727223
 31
0.0
  0
LINE
  8
0
 10
-284.416736
 20
-105.727223
 30
0.0
 11
-285.416736
 21
-104.727223
 31
0.0
  0
LINE
  8
0
 10
-294.416736
 20
-165.836995
 30
0.0
 11
-288.416736
 21
-165.836995
 31
0.0
  0
LINE
  8
0
 10
-294.816736
 20
-159.227223
 30
0.0
 11
-288.016736
 21
-159.227223
 31
0.0
  0
LINE
  8
0
 10
-298.416736
 20
-105.727223
 30
0.0
 11
-284.416736
 21
-105.727223
 31
0.0
  0
LINE
  8
0
 10
-298.416736
 20
-115.727223
 30
0.0
 11
-284.416736
 21
-115.727223
 31
0.0
  0
LINE
  8
0
 10
-298.416736
 20
-105.727223
 30
0.0
 11
-298.416736
 21
-115.727223
 31
0.0
  0
LINE
  8
0
 10
-284.416736
 20
-105.727223
 30
0.0
 11
-284.416736
 21
-115.727223
 31
0.0
  0
CIRCLE
  8
0
 10
-336.831857
 20
-183.210469
 30
0.0
 40
6.0
  0
ARC
  8
0
 10
-323.507301
 20
-110.727223
 30
0.0
 40
7.0
 50
154.623066
 51
205.376934
  0
LINE
  8
0
 10
-329.831857
 20
-113.727223
 30
0.0
 11
-329.831857
 21
-115.727223
 31
0.0
  0
LINE
  8
0
 10
-343.831857
 20
-113.727223
 30
0.0
 11
-343.831857
 21
-115.727223
 31
0.0
  0
ARC
  8
0
 10
-350.156412
 20
-110.727223
 30
0.0
 40
7.0
 50
334.623066
 51
25.376934
  0
LINE
  8
0
 10
-366.831857
 20
-181.210469
 30
0.0
 11
-366.831857
 21
-185.210469
 31
0.0
  0
LINE
  8
0
 10
-343.156412
 20
-180.210469
 30
0.0
 11
-365.831857
 21
-180.210469
 31
0.0
  0
LINE
  8
0
 10
-343.156412
 20
-186.210469
 30
0.0
 11
-365.831857
 21
-186.210469
 31
0.0
  0
LINE
  8
0
 10
-365.831857
 20
-180.210469
 30
0.0
 11
-366.831857
 21
-181.210469
 31
0.0
  0
LINE
  8
0
 10
-366.831857
 20
-185.210469
 30
0.0
 11
-365.831857
 21
-186.210469
 31
0.0
  0
LINE
  8
0
 10
-365.831857
 20
-180.210469
 30
0.0
 11
-365.831857
 21
-186.210469
 31
0.0
  0
LINE
  8
0
 10
-330.507301
 20
-186.210469
 30
0.0
 11
-307.831857
 21
-186.210469
 31
0.0
  0
LINE
  8
0
 10
-330.507301
 20
-180.210469
 30
0.0
 11
-307.831857
 21
-180.210469
 31
0.0
  0
LINE
  8
0
 10
-306.831857
 20
-181.210469
 30
0.0
 11
-306.831857
 21
-185.210469
 31
0.0
  0
LINE
  8
0
 10
-307.831857
 20
-186.210469
 30
0.0
 11
-306.831857
 21
-185.210469
 31
0.0
  0
LINE
  8
0
 10
-306.831857
 20
-181.210469
 30
0.0
 11
-307.831857
 21
-180.210469
 31
0.0
  0
LINE
  8
0
 10
-307.831857
 20
-180.210469
 30
0.0
 11
-307.831857
 21
-186.210469
 31
0.0
  0
CIRCLE
  8
0
 10
-336.831857
 20
-183.210469
 30
0.0
 40
7.0
  0
LINE
  8
0
 10
-343.831857
 20
-115.727223
 30
0.0
 11
-329.831857
 21
-115.727223
 31
0.0
  0
LINE
  8
0
 10
-343.831857
 20
-105.727223
 30
0.0
 11
-329.831857
 21
-105.727223
 31
0.0
  0
LINE
  8
0
 10
-307.831857
 20
-107.727223
 30
0.0
 11
-307.831857
 21
-113.727223
 31
0.0
  0
LINE
  8
0
 10
-365.831857
 20
-107.727223
 30
0.0
 11
-365.831857
 21
-113.727223
 31
0.0
  0
LINE
  8
0
 10
-340.231857
 20
-159.227223
 30
0.0
 11
-333.431857
 21
-159.227223
 31
0.0
  0
LINE
  8
0
 10
-339.831857
 20
-165.836995
 30
0.0
 11
-333.831857
 21
-165.836995
 31
0.0
  0
LINE
  8
0
 10
-306.831857
 20
-108.727223
 30
0.0
 11
-307.831857
 21
-107.727223
 31
0.0
  0
LINE
  8
0
 10
-307.831857
 20
-113.727223
 30
0.0
 11
-306.831857
 21
-112.727223
 31
0.0
  0
LINE
  8
0
 10
-366.831857
 20
-112.727223
 30
0.0
 11
-365.831857
 21
-113.727223
 31
0.0
  0
LINE
  8
0
 10
-365.831857
 20
-107.727223
 30
0.0
 11
-366.831857
 21
-108.727223
 31
0.0
  0
LINE
  8
0
 10
-329.831857
 20
-105.727223
 30
0.0
 11
-330.831857
 21
-104.727223
 31
0.0
  0
LINE
  8
0
 10
-330.831857
 20
-116.727223
 30
0.0
 11
-329.831857
 21
-115.727223
 31
0.0
  0
LINE
  8
0
 10
-343.831857
 20
-115.727223
 30
0.0
 11
-342.831857
 21
-116.727223
 31
0.0
  0
LINE
  8
0
 10
-342.831857
 20
-104.727223
 30
0.0
 11
-343.831857
 21
-105.727223
 31
0.0
  0
LINE
  8
0
 10
-332.831857
 20
-116.727223
 30
0.0
 11
-332.831857
 21
-158.627223
 31
0.0
  0
LINE
  8
0
 10
-329.831857
 20
-113.727223
 30
0.0
 11
-307.831857
 21
-113.727223
 31
0.0
  0
LINE
  8
0
 10
-329.831857
 20
-107.727223
 30
0.0
 11
-307.831857
 21
-107.727223
 31
0.0
  0
LINE
  8
0
 10
-343.831857
 20
-113.727223
 30
0.0
 11
-365.831857
 21
-113.727223
 31
0.0
  0
LINE
  8
0
 10
-343.831857
 20
-107.727223
 30
0.0
 11
-365.831857
 21
-107.727223
 31
0.0
  0
LINE
  8
0
 10
-306.831857
 20
-108.727223
 30
0.0
 11
-306.831857
 21
-112.727223
 31
0.0
  0
LINE
  8
0
 10
-366.831857
 20
-108.727223
 30
0.0
 11
-366.831857
 21
-112.727223
 31
0.0
  0
LINE
  8
0
 10
-340.831857
 20
-131.127223
 30
0.0
 11
-332.831857
 21
-131.127223
 31
0.0
  0
LINE
  8
0
 10
-333.431857
 20
-131.727223
 30
0.0
 11
-332.831857
 21
-131.127223
 31
0.0
  0
LINE
  8
0
 10
-340.231857
 20
-131.727223
 30
0.0
 11
-340.831857
 21
-131.127223
 31
0.0
  0
LINE
  8
0
 10
-334.131857
 20
-159.927223
 30
0.0
 11
-332.831857
 21
-158.627223
 31
0.0
  0
LINE
  8
0
 10
-339.531857
 20
-159.927223
 30
0.0
 11
-340.831857
 21
-158.627223
 31
0.0
  0
ARC
  8
0
 10
-336.831857
 20
-161.227223
 30
0.0
 40
5.5
 50
236.944269
 51
303.055731
  0
LINE
  8
0
 10
-339.831857
 20
-163.727223
 30
0.0
 11
-333.831857
 21
-163.727223
 31
0.0
  0
LINE
  8
0
 10
-333.831857
 20
-163.727223
 30
0.0
 11
-333.831857
 21
-165.836995
 31
0.0
  0
LINE
  8
0
 10
-339.831857
 20
-163.727223
 30
0.0
 11
-339.831857
 21
-165.836995
 31
0.0
  0
LINE
  8
0
 10
-339.531857
 20
-159.927223
 30
0.0
 11
-339.531857
 21
-163.727223
 31
0.0
  0
LINE
  8
0
 10
-334.131857
 20
-159.927223
 30
0.0
 11
-334.131857
 21
-163.727223
 31
0.0
  0
LINE
  8
0
 10
-333.431857
 20
-131.727223
 30
0.0
 11
-333.431857
 21
-159.227223
 31
0.0
  0
LINE
  8
0
 10
-340.231857
 20
-131.727223
 30
0.0
 11
-340.231857
 21
-159.227223
 31
0.0
  0
LINE
  8
0
 10
-339.531857
 20
-159.927223
 30
0.0
 11
-334.131857
 21
-159.927223
 31
0.0
  0
LINE
  8
0
 10
-340.231857
 20
-131.727223
 30
0.0
 11
-333.431857
 21
-131.727223
 31
0.0
  0
LINE
  8
0
 10
-342.831857
 20
-116.727223
 30
0.0
 11
-330.831857
 21
-116.727223
 31
0.0
  0
LINE
  8
0
 10
-329.831857
 20
-105.727223
 30
0.0
 11
-329.831857
 21
-107.727223
 31
0.0
  0
LINE
  8
0
 10
-343.831857
 20
-105.727223
 30
0.0
 11
-343.831857
 21
-107.727223
 31
0.0
  0
LINE
  8
0
 10
-342.831857
 20
-104.727223
 30
0.0
 11
-330.831857
 21
-104.727223
 31
0.0
  0
LINE
  8
0
 10
-340.831857
 20
-116.727223
 30
0.0
 11
-340.831857
 21
-158.627223
 31
0.0
  0
LINE
  8
0
 10
-437.810819
 20
-165.836995
 30
0.0
 11
-433.310819
 21
-165.836995
 31
0.0
  0
LINE
  8
0
 10
-441.560819
 20
-117.156043
 30
0.0
 11
-429.560819
 21
-117.156043
 31
0.0
  0
LINE
  8
0
 10
-411.060819
 20
-119.156043
 30
0.0
 11
-411.060819
 21
-124.156043
 31
0.0
  0
LINE
  8
0
 10
-460.060819
 20
-119.156043
 30
0.0
 11
-460.060819
 21
-124.156043
 31
0.0
  0
ARC
  8
0
 10
-447.015175
 20
-121.656043
 30
0.0
 40
6.0
 50
335.375682
 51
24.624318
  0
ARC
  8
0
 10
-424.106463
 20
-121.656043
 30
0.0
 40
6.0
 50
155.375682
 51
204.624318
  0
LINE
  8
0
 10
-438.060819
 20
-159.156043
 30
0.0
 11
-433.060819
 21
-159.156043
 31
0.0
  0
LINE
  8
0
 10
-433.560819
 20
-159.656043
 30
0.0
 11
-432.560819
 21
-158.656043
 31
0.0
  0
LINE
  8
0
 10
-437.560819
 20
-159.656043
 30
0.0
 11
-438.560819
 21
-158.656043
 31
0.0
  0
LINE
  8
0
 10
-438.060819
 20
-137.156043
 30
0.0
 11
-433.060819
 21
-137.156043
 31
0.0
  0
LINE
  8
0
 10
-432.560819
 20
-136.656043
 30
0.0
 11
-433.060819
 21
-137.156043
 31
0.0
  0
LINE
  8
0
 10
-438.560819
 20
-136.656043
 30
0.0
 11
-438.060819
 21
-137.156043
 31
0.0
  0
LINE
  8
0
 10
-433.060819
 20
-137.156043
 30
0.0
 11
-433.060819
 21
-159.156043
 31
0.0
  0
LINE
  8
0
 10
-438.060819
 20
-137.156043
 30
0.0
 11
-438.060819
 21
-159.156043
 31
0.0
  0
ARC
  8
0
 10
-435.560819
 20
-163.156043
 30
0.0
 40
3.5
 50
229.994799
 51
310.005201
  0
LINE
  8
0
 10
-433.310819
 20
-164.156043
 30
0.0
 11
-433.310819
 21
-165.836995
 31
0.0
  0
LINE
  8
0
 10
-437.810819
 20
-164.156043
 30
0.0
 11
-437.810819
 21
-165.836995
 31
0.0
  0
LINE
  8
0
 10
-437.810819
 20
-164.156043
 30
0.0
 11
-433.310819
 21
-164.156043
 31
0.0
  0
LINE
  8
0
 10
-433.560819
 20
-159.656043
 30
0.0
 11
-433.560819
 21
-164.156043
 31
0.0
  0
LINE
  8
0
 10
-437.560819
 20
-159.656043
 30
0.0
 11
-437.560819
 21
-164.156043
 31
0.0
  0
LINE
  8
0
 10
-437.560819
 20
-159.656043
 30
0.0
 11
-433.560819
 21
-159.656043
 31
0.0
  0
LINE
  8
0
 10
-438.560819
 20
-136.656043
 30
0.0
 11
-432.560819
 21
-136.656043
 31
0.0
  0
LINE
  8
0
 10
-430.060819
 20
-116.656043
 30
0.0
 11
-429.560819
 21
-117.156043
 31
0.0
  0
LINE
  8
0
 10
-441.060819
 20
-116.656043
 30
0.0
 11
-441.560819
 21
-117.156043
 31
0.0
  0
LINE
  8
0
 10
-441.560819
 20
-119.156043
 30
0.0
 11
-460.060819
 21
-119.156043
 31
0.0
  0
LINE
  8
0
 10
-441.560819
 20
-124.156043
 30
0.0
 11
-460.060819
 21
-124.156043
 31
0.0
  0
LINE
  8
0
 10
-429.560819
 20
-124.156043
 30
0.0
 11
-429.560819
 21
-126.156043
 31
0.0
  0
LINE
  8
0
 10
-441.560819
 20
-124.156043
 30
0.0
 11
-441.560819
 21
-126.156043
 31
0.0
  0
LINE
  8
0
 10
-410.560819
 20
-119.656043
 30
0.0
 11
-411.060819
 21
-119.156043
 31
0.0
  0
LINE
  8
0
 10
-411.060819
 20
-124.156043
 30
0.0
 11
-410.560819
 21
-123.656043
 31
0.0
  0
LINE
  8
0
 10
-460.560819
 20
-123.656043
 30
0.0
 11
-460.060819
 21
-124.156043
 31
0.0
  0
LINE
  8
0
 10
-460.060819
 20
-119.156043
 30
0.0
 11
-460.560819
 21
-119.656043
 31
0.0
  0
LINE
  8
0
 10
-460.560819
 20
-119.656043
 30
0.0
 11
-460.560819
 21
-123.656043
 31
0.0
  0
LINE
  8
0
 10
-410.560819
 20
-119.656043
 30
0.0
 11
-410.560819
 21
-123.656043
 31
0.0
  0
LINE
  8
0
 10
-411.060819
 20
-119.156043
 30
0.0
 11
-429.560819
 21
-119.156043
 31
0.0
  0
LINE
  8
0
 10
-411.060819
 20
-124.156043
 30
0.0
 11
-429.560819
 21
-124.156043
 31
0.0
  0
LINE
  8
0
 10
-441.560819
 20
-117.156043
 30
0.0
 11
-441.560819
 21
-119.156043
 31
0.0
  0
LINE
  8
0
 10
-429.560819
 20
-117.156043
 30
0.0
 11
-429.560819
 21
-119.156043
 31
0.0
  0
LINE
  8
0
 10
-441.060819
 20
-126.656043
 30
0.0
 11
-430.060819
 21
-126.656043
 31
0.0
  0
LINE
  8
0
 10
-441.060819
 20
-116.656043
 30
0.0
 11
-430.060819
 21
-116.656043
 31
0.0
  0
LINE
  8
0
 10
-438.560819
 20
-126.656043
 30
0.0
 11
-438.560819
 21
-158.656043
 31
0.0
  0
LINE
  8
0
 10
-432.560819
 20
-126.656043
 30
0.0
 11
-432.560819
 21
-158.656043
 31
0.0
  0
LINE
  8
0
 10
-222.555739
 20
-107.364859
 30
0.0
 11
-222.547039
 21
-107.364859
 31
0.0
  0
LINE
  8
0
 10
-222.566739
 20
-107.364859
 30
0.0
 11
-222.558739
 21
-107.364859
 31
0.0
  0
LINE
  8
0
 10
-206.576739
 20
-107.364859
 30
0.0
 11
-222.576739
 21
-107.364859
 31
0.0
  0
ENDSEC
  0
EOF
