  0
SECTION
  2
HEADER
  9
$ACADVER
  1
AC1009
  9
$INSBASE
 10
0.0
 20
0.0
 30
0.0
  9
$EXTMIN
 10
366.771951
 20
-979.559529
 30
0.0
  9
$EXTMAX
 10
1530.550644
 20
-354.922904
 30
0.0
  9
$LIMMIN
 10
0.0
 20
0.0
  9
$LIMMAX
 10
12.0
 20
9.0
  9
$ORTHOMODE
 70
     1
  9
$REGENMODE
 70
     1
  9
$FILLMODE
 70
     1
  9
$QTEXTMODE
 70
     0
  9
$MIRRTEXT
 70
     1
  9
$DRAGMODE
 70
     2
  9
$LTSCALE
 40
7.0
  9
$OSMODE
 70
     0
  9
$ATTMODE
 70
     1
  9
$TEXTSIZE
 40
13.001489
  9
$TRACEWID
 40
0.05
  9
$TEXTSTYLE
  7
STANDARD
  9
$CLAYER
  8
0
  9
$CELTYPE
  6
BYLAYER
  9
$CECOLOR
 62
   256
  9
$DIMSCALE
 40
1.0
  9
$DIMASZ
 40
2.5
  9
$DIMEXO
 40
0.0
  9
$DIMDLI
 40
5.0
  9
$DIMRND
 40
0.0
  9
$DIMDLE
 40
0.0
  9
$DIMEXE
 40
1.0
  9
$DIMTP
 40
0.0
  9
$DIMTM
 40
0.0
  9
$DIMTXT
 40
2.5
  9
$DIMCEN
 40
0.09
  9
$DIMTSZ
 40
0.0
  9
$DIMTOL
 70
     0
  9
$DIMLIM
 70
     0
  9
$DIMTIH
 70
     0
  9
$DIMTOH
 70
     0
  9
$DIMSE1
 70
     0
  9
$DIMSE2
 70
     0
  9
$DIMTAD
 70
     1
  9
$DIMZIN
 70
     0
  9
$DIMBLK
  1

  9
$DIMASO
 70
     0
  9
$DIMSHO
 70
     0
  9
$DIMPOST
  1

  9
$DIMAPOST
  1

  9
$DIMALT
 70
     0
  9
$DIMALTD
 70
     2
  9
$DIMALTF
 40
25.4
  9
$DIMLFAC
 40
1.0
  9
$DIMTOFL
 70
     1
  9
$DIMTVP
 40
0.0
  9
$DIMTIX
 70
     0
  9
$DIMSOXD
 70
     0
  9
$DIMSAH
 70
     0
  9
$DIMBLK1
  1

  9
$DIMBLK2
  1

  9
$DIMSTYLE
  2
*UNNAMED
  9
$DIMCLRD
 70
     0
  9
$DIMCLRE
 70
     0
  9
$DIMCLRT
 70
     0
  9
$DIMTFAC
 40
1.0
  9
$DIMGAP
 40
0.09
  9
$LUNITS
 70
     2
  9
$LUPREC
 70
     4
  9
$SKETCHINC
 40
0.1
  9
$FILLETRAD
 40
10.0
  9
$AUNITS
 70
     0
  9
$AUPREC
 70
     3
  9
$MENU
  1
wiberger
  9
$ELEVATION
 40
0.0
  9
$PELEVATION
 40
0.0
  9
$THICKNESS
 40
0.0
  9
$LIMCHECK
 70
     0
  9
$BLIPMODE
 70
     1
  9
$CHAMFERA
 40
1.5
  9
$CHAMFERB
 40
1.5
  9
$SKPOLY
 70
     0
  9
$TDCREATE
 40
2450191.308943171
  9
$TDUPDATE
 40
2450218.522118865
  9
$TDINDWG
 40
0.0024354167
  9
$TDUSRTIMER
 40
0.0024354167
  9
$USRTIMER
 70
     1
  9
$ANGBASE
 50
0.0
  9
$ANGDIR
 70
     0
  9
$PDMODE
 70
     0
  9
$PDSIZE
 40
0.0
  9
$PLINEWID
 40
0.0
  9
$COORDS
 70
     0
  9
$SPLFRAME
 70
     0
  9
$SPLINETYPE
 70
     6
  9
$SPLINESEGS
 70
     8
  9
$ATTDIA
 70
     0
  9
$ATTREQ
 70
     1
  9
$HANDLING
 70
     0
  9
$HANDSEED
  5
0
  9
$SURFTAB1
 70
     6
  9
$SURFTAB2
 70
     6
  9
$SURFTYPE
 70
     6
  9
$SURFU
 70
     6
  9
$SURFV
 70
     6
  9
$UCSNAME
  2

  9
$UCSORG
 10
0.0
 20
0.0
 30
0.0
  9
$UCSXDIR
 10
1.0
 20
0.0
 30
0.0
  9
$UCSYDIR
 10
0.0
 20
1.0
 30
0.0
  9
$PUCSNAME
  2

  9
$PUCSORG
 10
0.0
 20
0.0
 30
0.0
  9
$PUCSXDIR
 10
1.0
 20
0.0
 30
0.0
  9
$PUCSYDIR
 10
0.0
 20
1.0
 30
0.0
  9
$USERI1
 70
     0
  9
$USERI2
 70
     0
  9
$USERI3
 70
     0
  9
$USERI4
 70
     0
  9
$USERI5
 70
     0
  9
$USERR1
 40
0.0
  9
$USERR2
 40
0.0
  9
$USERR3
 40
0.0
  9
$USERR4
 40
0.0
  9
$USERR5
 40
0.0
  9
$WORLDVIEW
 70
     1
  9
$SHADEDGE
 70
     3
  9
$SHADEDIF
 70
    70
  9
$TILEMODE
 70
     1
  9
$MAXACTVP
 70
    16
  9
$PINSBASE
 10
0.0
 20
0.0
 30
0.0
  9
$PLIMCHECK
 70
     0
  9
$PEXTMIN
 10
1.000000E+20
 20
1.000000E+20
 30
1.000000E+20
  9
$PEXTMAX
 10
-1.000000E+20
 20
-1.000000E+20
 30
-1.000000E+20
  9
$PLIMMIN
 10
0.0
 20
0.0
  9
$PLIMMAX
 10
12.0
 20
9.0
  9
$UNITMODE
 70
     0
  9
$VISRETAIN
 70
     0
  9
$PLINEGEN
 70
     0
  9
$PSLTSCALE
 70
     0
  9
$TREEDEPTH
 70
  3020
  9
$DWGCODEPAGE
  3
undefined
  0
ENDSEC
  0
SECTION
  2
TABLES
  0
TABLE
  2
VPORT
 70
     2
  0
VPORT
  2
*ACTIVE
 70
     0
 10
0.0
 20
0.0
 11
1.0
 21
1.0
 12
1125.789895
 22
-647.950972
 13
0.0
 23
0.0
 14
1.0
 24
1.0
 15
0.0
 25
0.0
 16
0.0
 26
0.0
 36
1.0
 17
0.0
 27
0.0
 37
0.0
 40
932.015901
 41
1.767507
 42
50.0
 43
0.0
 44
0.0
 50
0.0
 51
0.0
 71
     0
 72
   100
 73
     1
 74
     0
 75
     0
 76
     0
 77
     0
 78
     0
  0
ENDTAB
  0
TABLE
  2
LTYPE
 70
     2
  0
LTYPE
  2
CONTINUOUS
 70
    64
  3
Solid line
 72
    65
 73
     0
 40
0.0
  0
LTYPE
  2
CENTER
 70
    64
  3
____ _ ____ _ ____ _ ____ _ ____ _ ____ _ ____
 72
    65
 73
     4
 40
2.0
 49
1.25
 49
-0.25
 49
0.25
 49
-0.25
  0
ENDTAB
  0
TABLE
  2
LAYER
 70
     1
  0
LAYER
  2
0
 70
    64
 62
     7
  6
CONTINUOUS
  0
ENDTAB
  0
TABLE
  2
STYLE
 70
     1
  0
STYLE
  2
STANDARD
 70
    64
 40
0.0
 41
1.0
 50
0.0
 71
     0
 42
13.001489
  3
txt
  4

  0
ENDTAB
  0
TABLE
  2
VIEW
 70
     0
  0
ENDTAB
  0
TABLE
  2
UCS
 70
     0
  0
ENDTAB
  0
TABLE
  2
APPID
 70
     1
  0
APPID
  2
ACAD
 70
    64
  0
ENDTAB
  0
TABLE
  2
DIMSTYLE
 70
     0
  0
ENDTAB
  0
ENDSEC
  0
SECTION
  2
BLOCKS
  0
BLOCK
  8
0
  2
*X0
 70
    65
 10
0.0
 20
0.0
 30
0.0
  3
*X
  0
LINE
  8
0
 62
     0
 10
-101.597007
 20
-133.416812
 30
0.0
 11
-98.147007
 21
-129.966812
 31
0.0
  0
LINE
  8
0
 62
     0
 10
-101.597007
 20
-131.295492
 30
0.0
 11
-98.147007
 21
-127.845492
 31
0.0
  0
LINE
  8
0
 62
     0
 10
-101.597007
 20
-129.174172
 30
0.0
 11
-98.147007
 21
-125.724172
 31
0.0
  0
LINE
  8
0
 62
     0
 10
-103.172459
 20
-128.628303
 30
0.0
 11
-98.147007
 21
-123.602851
 31
0.0
  0
LINE
  8
0
 62
     0
 10
-103.597007
 20
-126.931531
 30
0.0
 11
-99.475943
 21
-122.810467
 31
0.0
  0
LINE
  8
0
 62
     0
 10
-103.597007
 20
-124.810211
 30
0.0
 11
-101.597264
 21
-122.810467
 31
0.0
  0
LINE
  8
0
 62
     0
 10
-101.597007
 20
-135.538133
 30
0.0
 11
-98.147007
 21
-132.088133
 31
0.0
  0
LINE
  8
0
 62
     0
 10
-101.597007
 20
-137.659453
 30
0.0
 11
-98.147007
 21
-134.209453
 31
0.0
  0
LINE
  8
0
 62
     0
 10
-101.597007
 20
-139.780773
 30
0.0
 11
-98.147007
 21
-136.330773
 31
0.0
  0
LINE
  8
0
 62
     0
 10
-101.597007
 20
-141.902094
 30
0.0
 11
-98.147007
 21
-138.452094
 31
0.0
  0
LINE
  8
0
 62
     0
 10
-100.38406
 20
-142.810467
 30
0.0
 11
-98.147007
 21
-140.573414
 31
0.0
  0
ENDBLK
  8
0
  0
BLOCK
  8
0
  2
*X1
 70
    65
 10
0.0
 20
0.0
 30
0.0
  3
*X
  0
LINE
  8
0
 62
     0
 10
-107.156457
 20
-425.354508
 30
0.0
 11
-101.706457
 21
-419.904508
 31
0.0
  0
LINE
  8
0
 62
     0
 10
-107.156457
 20
-423.233188
 30
0.0
 11
-101.706457
 21
-417.783188
 31
0.0
  0
LINE
  8
0
 62
     0
 10
-107.156457
 20
-421.111868
 30
0.0
 11
-101.706457
 21
-415.661868
 31
0.0
  0
LINE
  8
0
 62
     0
 10
-108.719955
 20
-420.554045
 30
0.0
 11
-101.706457
 21
-413.540547
 31
0.0
  0
LINE
  8
0
 62
     0
 10
-109.156457
 20
-418.869227
 30
0.0
 11
-103.215158
 21
-412.927928
 31
0.0
  0
LINE
  8
0
 62
     0
 10
-109.156457
 20
-416.747907
 30
0.0
 11
-105.336478
 21
-412.927928
 31
0.0
  0
LINE
  8
0
 62
     0
 10
-109.156457
 20
-414.626586
 30
0.0
 11
-107.457798
 21
-412.927928
 31
0.0
  0
LINE
  8
0
 62
     0
 10
-107.156457
 20
-427.475829
 30
0.0
 11
-101.706457
 21
-422.025829
 31
0.0
  0
LINE
  8
0
 62
     0
 10
-107.156457
 20
-429.597149
 30
0.0
 11
-101.706457
 21
-424.147149
 31
0.0
  0
LINE
  8
0
 62
     0
 10
-107.156457
 20
-431.718469
 30
0.0
 11
-101.706457
 21
-426.268469
 31
0.0
  0
LINE
  8
0
 62
     0
 10
-107.156457
 20
-433.83979
 30
0.0
 11
-101.706457
 21
-428.38979
 31
0.0
  0
LINE
  8
0
 62
     0
 10
-107.156457
 20
-435.96111
 30
0.0
 11
-101.706457
 21
-430.51111
 31
0.0
  0
LINE
  8
0
 62
     0
 10
-106.001954
 20
-436.927928
 30
0.0
 11
-101.706457
 21
-432.63243
 31
0.0
  0
LINE
  8
0
 62
     0
 10
-103.880634
 20
-436.927928
 30
0.0
 11
-101.706457
 21
-434.753751
 31
0.0
  0
ENDBLK
  8
0
  0
BLOCK
  8
0
  2
*X2
 70
    65
 10
0.0
 20
0.0
 30
0.0
  3
*X
  0
LINE
  8
0
 62
     0
 10
-116.743833
 20
-787.081062
 30
0.0
 11
-108.793833
 21
-779.131062
 31
0.0
  0
LINE
  8
0
 62
     0
 10
-116.743833
 20
-784.252635
 30
0.0
 11
-108.793833
 21
-776.302635
 31
0.0
  0
LINE
  8
0
 62
     0
 10
-116.743833
 20
-781.424208
 30
0.0
 11
-108.793833
 21
-773.474208
 31
0.0
  0
LINE
  8
0
 62
     0
 10
-119.066747
 20
-780.918694
 30
0.0
 11
-108.793833
 21
-770.645781
 31
0.0
  0
LINE
  8
0
 62
     0
 10
-119.743833
 20
-778.767353
 30
0.0
 11
-111.395207
 21
-770.418727
 31
0.0
  0
LINE
  8
0
 62
     0
 10
-119.743833
 20
-775.938926
 30
0.0
 11
-114.223634
 21
-770.418727
 31
0.0
  0
LINE
  8
0
 62
     0
 10
-119.743833
 20
-773.110499
 30
0.0
 11
-117.052062
 21
-770.418727
 31
0.0
  0
LINE
  8
0
 62
     0
 10
-116.743833
 20
-789.909489
 30
0.0
 11
-108.793833
 21
-781.959489
 31
0.0
  0
LINE
  8
0
 62
     0
 10
-116.743833
 20
-792.737916
 30
0.0
 11
-108.793833
 21
-784.787916
 31
0.0
  0
LINE
  8
0
 62
     0
 10
-116.743833
 20
-795.566343
 30
0.0
 11
-108.793833
 21
-787.616343
 31
0.0
  0
LINE
  8
0
 62
     0
 10
-116.743833
 20
-798.39477
 30
0.0
 11
-108.793833
 21
-790.44477
 31
0.0
  0
LINE
  8
0
 62
     0
 10
-116.743833
 20
-801.223198
 30
0.0
 11
-108.793833
 21
-793.273198
 31
0.0
  0
LINE
  8
0
 62
     0
 10
-116.427385
 20
-803.735176
 30
0.0
 11
-108.793833
 21
-796.101625
 31
0.0
  0
LINE
  8
0
 62
     0
 10
-114.282509
 20
-804.418727
 30
0.0
 11
-108.793833
 21
-798.930052
 31
0.0
  0
LINE
  8
0
 62
     0
 10
-111.454082
 20
-804.418727
 30
0.0
 11
-108.793833
 21
-801.758479
 31
0.0
  0
ENDBLK
  8
0
  0
BLOCK
  8
0
  2
*X3
 70
    65
 10
0.0
 20
0.0
 30
0.0
  3
*X
  0
LINE
  8
0
 62
     0
 10
321.19231
 20
-38.017934
 30
0.0
 11
329.09231
 21
-30.117934
 31
0.0
  0
LINE
  8
0
 62
     0
 10
321.19231
 20
-35.189507
 30
0.0
 11
329.09231
 21
-27.289507
 31
0.0
  0
LINE
  8
0
 62
     0
 10
321.19231
 20
-32.36108
 30
0.0
 11
329.09231
 21
-24.46108
 31
0.0
  0
LINE
  8
0
 62
     0
 10
321.19231
 20
-29.532653
 30
0.0
 11
329.09231
 21
-21.632653
 31
0.0
  0
LINE
  8
0
 62
     0
 10
319.296533
 20
-28.600004
 30
0.0
 11
329.09231
 21
-18.804226
 31
0.0
  0
LINE
  8
0
 62
     0
 10
318.44231
 20
-26.625799
 30
0.0
 11
327.607372
 21
-17.460737
 31
0.0
  0
LINE
  8
0
 62
     0
 10
318.44231
 20
-23.797372
 30
0.0
 11
324.778945
 21
-17.460737
 31
0.0
  0
LINE
  8
0
 62
     0
 10
318.44231
 20
-20.968945
 30
0.0
 11
321.950517
 21
-17.460737
 31
0.0
  0
LINE
  8
0
 62
     0
 10
321.19231
 20
-40.846362
 30
0.0
 11
329.09231
 21
-32.946362
 31
0.0
  0
LINE
  8
0
 62
     0
 10
321.19231
 20
-43.674789
 30
0.0
 11
329.09231
 21
-35.774789
 31
0.0
  0
LINE
  8
0
 62
     0
 10
321.19231
 20
-46.503216
 30
0.0
 11
329.09231
 21
-38.603216
 31
0.0
  0
LINE
  8
0
 62
     0
 10
321.19231
 20
-49.331643
 30
0.0
 11
329.09231
 21
-41.431643
 31
0.0
  0
LINE
  8
0
 62
     0
 10
321.19231
 20
-52.16007
 30
0.0
 11
329.09231
 21
-44.26007
 31
0.0
  0
LINE
  8
0
 62
     0
 10
321.55619
 20
-54.624617
 30
0.0
 11
329.09231
 21
-47.088497
 31
0.0
  0
LINE
  8
0
 62
     0
 10
323.548497
 20
-55.460737
 30
0.0
 11
329.09231
 21
-49.916924
 31
0.0
  0
LINE
  8
0
 62
     0
 10
326.376924
 20
-55.460737
 30
0.0
 11
329.09231
 21
-52.745351
 31
0.0
  0
ENDBLK
  8
0
  0
BLOCK
  8
0
  2
*X4
 70
    65
 10
0.0
 20
0.0
 30
0.0
  3
*X
  0
LINE
  8
0
 62
     0
 10
314.017531
 20
-325.914106
 30
0.0
 11
323.417531
 21
-316.514106
 31
0.0
  0
LINE
  8
0
 62
     0
 10
314.017531
 20
-322.378572
 30
0.0
 11
323.417531
 21
-312.978572
 31
0.0
  0
LINE
  8
0
 62
     0
 10
314.017531
 20
-318.843038
 30
0.0
 11
323.417531
 21
-309.443038
 31
0.0
  0
LINE
  8
0
 62
     0
 10
313.354368
 20
-315.970667
 30
0.0
 11
323.417531
 21
-305.907504
 31
0.0
  0
LINE
  8
0
 62
     0
 10
311.137253
 20
-314.652249
 30
0.0
 11
322.318835
 21
-303.470667
 31
0.0
  0
LINE
  8
0
 62
     0
 10
311.017531
 20
-311.236437
 30
0.0
 11
318.783301
 21
-303.470667
 31
0.0
  0
LINE
  8
0
 62
     0
 10
311.017531
 20
-307.700903
 30
0.0
 11
315.247767
 21
-303.470667
 31
0.0
  0
LINE
  8
0
 62
     0
 10
314.017531
 20
-329.44964
 30
0.0
 11
323.417531
 21
-320.04964
 31
0.0
  0
LINE
  8
0
 62
     0
 10
314.017531
 20
-332.985174
 30
0.0
 11
323.417531
 21
-323.585174
 31
0.0
  0
LINE
  8
0
 62
     0
 10
314.017531
 20
-336.520708
 30
0.0
 11
323.417531
 21
-327.120708
 31
0.0
  0
LINE
  8
0
 62
     0
 10
314.017531
 20
-340.056242
 30
0.0
 11
323.417531
 21
-330.656242
 31
0.0
  0
LINE
  8
0
 62
     0
 10
314.017531
 20
-343.591776
 30
0.0
 11
323.417531
 21
-334.191776
 31
0.0
  0
LINE
  8
0
 62
     0
 10
314.445852
 20
-346.698988
 30
0.0
 11
323.417531
 21
-337.72731
 31
0.0
  0
LINE
  8
0
 62
     0
 10
317.209707
 20
-347.470667
 30
0.0
 11
323.417531
 21
-341.262844
 31
0.0
  0
LINE
  8
0
 62
     0
 10
320.745241
 20
-347.470667
 30
0.0
 11
323.417531
 21
-344.798377
 31
0.0
  0
ENDBLK
  8
0
  0
BLOCK
  8
0
  2
*X5
 70
    65
 10
0.0
 20
0.0
 30
0.0
  3
*X
  0
LINE
  8
0
 62
     0
 10
-110.091427
 20
-576.781903
 30
0.0
 11
-104.141427
 21
-570.831903
 31
0.0
  0
LINE
  8
0
 62
     0
 10
-110.091427
 20
-573.953476
 30
0.0
 11
-104.141427
 21
-568.003476
 31
0.0
  0
LINE
  8
0
 62
     0
 10
-110.091427
 20
-571.125049
 30
0.0
 11
-104.141427
 21
-565.175049
 31
0.0
  0
LINE
  8
0
 62
     0
 10
-112.18774
 20
-570.392934
 30
0.0
 11
-104.141427
 21
-562.346622
 31
0.0
  0
LINE
  8
0
 62
     0
 10
-112.591427
 20
-567.968195
 30
0.0
 11
-106.713415
 21
-562.090182
 31
0.0
  0
LINE
  8
0
 62
     0
 10
-112.591427
 20
-565.139767
 30
0.0
 11
-109.541842
 21
-562.090182
 31
0.0
  0
LINE
  8
0
 62
     0
 10
-110.091427
 20
-579.61033
 30
0.0
 11
-104.141427
 21
-573.66033
 31
0.0
  0
LINE
  8
0
 62
     0
 10
-110.091427
 20
-582.438757
 30
0.0
 11
-104.141427
 21
-576.488757
 31
0.0
  0
LINE
  8
0
 62
     0
 10
-110.091427
 20
-585.267184
 30
0.0
 11
-104.141427
 21
-579.317184
 31
0.0
  0
LINE
  8
0
 62
     0
 10
-110.091427
 20
-588.095612
 30
0.0
 11
-104.141427
 21
-582.145612
 31
0.0
  0
LINE
  8
0
 62
     0
 10
-109.174499
 20
-590.00711
 30
0.0
 11
-104.141427
 21
-584.974039
 31
0.0
  0
LINE
  8
0
 62
     0
 10
-106.429144
 20
-590.090182
 30
0.0
 11
-104.141427
 21
-587.802466
 31
0.0
  0
ENDBLK
  8
0
  0
BLOCK
  8
0
  2
*X6
 70
    65
 10
0.0
 20
0.0
 30
0.0
  3
*X
  0
LINE
  8
0
 62
     0
 10
303.871563
 20
-530.514439
 30
0.0
 11
313.771563
 21
-520.614439
 31
0.0
  0
LINE
  8
0
 62
     0
 10
303.871563
 20
-526.978905
 30
0.0
 11
313.771563
 21
-517.078905
 31
0.0
  0
LINE
  8
0
 62
     0
 10
303.871563
 20
-523.443371
 30
0.0
 11
313.771563
 21
-513.543371
 31
0.0
  0
LINE
  8
0
 62
     0
 10
303.871563
 20
-519.907837
 30
0.0
 11
313.771563
 21
-510.007837
 31
0.0
  0
LINE
  8
0
 62
     0
 10
302.514234
 20
-517.729632
 30
0.0
 11
313.771563
 21
-506.472303
 31
0.0
  0
LINE
  8
0
 62
     0
 10
300.872918
 20
-515.835415
 30
0.0
 11
311.94652
 21
-504.761812
 31
0.0
  0
LINE
  8
0
 62
     0
 10
300.871563
 20
-512.301235
 30
0.0
 11
308.410986
 21
-504.761812
 31
0.0
  0
LINE
  8
0
 62
     0
 10
300.871563
 20
-508.765701
 30
0.0
 11
304.875452
 21
-504.761812
 31
0.0
  0
LINE
  8
0
 62
     0
 10
303.871563
 20
-534.049973
 30
0.0
 11
313.771563
 21
-524.149973
 31
0.0
  0
LINE
  8
0
 62
     0
 10
303.871563
 20
-537.585507
 30
0.0
 11
313.771563
 21
-527.685507
 31
0.0
  0
LINE
  8
0
 62
     0
 10
303.871563
 20
-541.121041
 30
0.0
 11
313.771563
 21
-531.221041
 31
0.0
  0
LINE
  8
0
 62
     0
 10
303.871563
 20
-544.656574
 30
0.0
 11
313.771563
 21
-534.756574
 31
0.0
  0
LINE
  8
0
 62
     0
 10
303.871563
 20
-548.192108
 30
0.0
 11
313.771563
 21
-538.292108
 31
0.0
  0
LINE
  8
0
 62
     0
 10
303.954478
 20
-551.644727
 30
0.0
 11
313.771563
 21
-541.827642
 31
0.0
  0
LINE
  8
0
 62
     0
 10
306.372927
 20
-552.761812
 30
0.0
 11
313.771563
 21
-545.363176
 31
0.0
  0
LINE
  8
0
 62
     0
 10
309.908461
 20
-552.761812
 30
0.0
 11
313.771563
 21
-548.89871
 31
0.0
  0
ENDBLK
  8
0
  0
ENDSEC
  0
SECTION
  2
ENTITIES
  0
CIRCLE
  8
0
 10
751.168838
 20
-511.13481
 30
0.0
 40
10.0
  0
CIRCLE
  8
0
 10
776.168838
 20
-723.695234
 30
0.0
 40
11.0
  0
CIRCLE
  8
0
 10
1270.563809
 20
-567.751545
 30
0.0
 40
14.0
  0
CIRCLE
  8
0
 10
1320.563809
 20
-839.589804
 30
0.0
 40
16.0
  0
CIRCLE
  8
0
 10
811.168838
 20
-957.809529
 30
0.0
 40
12.5
  0
INSERT
  8
0
  2
*X0
 10
472.576065
 20
-488.331465
 30
0.0
  0
ARC
  8
0
 10
377.443523
 20
-636.982651
 30
0.0
 40
6.840718
 50
63.853673
 51
121.370766
  0
LINE
  8
0
 10
380.45799
 20
-630.841932
 30
0.0
 11
380.979057
 21
-630.841932
 31
0.0
  0
LINE
  8
0
 10
532.645126
 20
-612.141932
 30
0.0
 11
532.645126
 21
-616.141932
 31
0.0
  0
ARC
  8
0
 10
531.645126
 20
-612.141932
 30
0.0
 40
1.0
 50
0.0
 51
90.0
  0
LINE
  8
0
 10
513.545126
 20
-605.241932
 30
0.0
 11
513.545126
 21
-611.141932
 31
0.0
  0
LINE
  8
0
 10
527.745126
 20
-605.241932
 30
0.0
 11
527.745126
 21
-611.141932
 31
0.0
  0
LINE
  8
0
 10
513.545126
 20
-605.241932
 30
0.0
 11
527.745126
 21
-605.241932
 31
0.0
  0
LINE
  8
0
 10
510.645126
 20
-617.141932
 30
0.0
 11
510.645126
 21
-630.441932
 31
0.0
  0
LINE
  8
0
 10
530.645126
 20
-617.141932
 30
0.0
 11
530.645126
 21
-630.441932
 31
0.0
  0
LINE
  8
0
 10
511.345126
 20
-631.141932
 30
0.0
 11
529.945126
 21
-631.141932
 31
0.0
  0
LINE
  8
0
 10
508.645126
 20
-612.141932
 30
0.0
 11
508.645126
 21
-616.141932
 31
0.0
  0
LINE
  8
0
 10
509.645126
 20
-611.141932
 30
0.0
 11
531.645126
 21
-611.141932
 31
0.0
  0
ARC
  8
0
 10
509.645126
 20
-612.141932
 30
0.0
 40
1.0
 50
90.0
 51
180.0
  0
ARC
  8
0
 10
509.645126
 20
-616.141932
 30
0.0
 40
1.0
 50
180.0
 51
270.0
  0
ARC
  8
0
 10
531.645126
 20
-616.141932
 30
0.0
 40
1.0
 50
270.0
 51
354.26083
  0
LINE
  8
0
 10
510.645126
 20
-630.441932
 30
0.0
 11
511.345126
 21
-631.141932
 31
0.0
  0
LINE
  8
0
 10
529.945126
 20
-631.141932
 30
0.0
 11
530.645126
 21
-630.441932
 31
0.0
  0
LINE
  8
0
 10
509.645127
 20
-617.141932
 30
0.0
 11
531.645126
 21
-617.141932
 31
0.0
  0
LINE
  8
0
 10
530.645126
 20
-630.441932
 30
0.0
 11
510.645126
 21
-630.441932
 31
0.0
  0
LINE
  8
0
 10
397.157108
 20
-645.388656
 30
0.0
 11
438.687555
 21
-646.98413
 31
0.0
  0
ARC
  8
0
 10
401.859948
 20
-592.917674
 30
0.0
 40
52.681312
 50
255.776977
 51
264.878411
  0
ARC
  8
0
 10
401.859948
 20
-713.050586
 30
0.0
 40
52.681312
 50
95.121589
 51
104.223023
  0
LINE
  8
0
 10
397.157108
 20
-660.579604
 30
0.0
 11
438.687555
 21
-658.98413
 31
0.0
  0
CIRCLE
  8
0
 10
443.979057
 20
-652.98413
 30
0.0
 40
8.0
  0
ARC
  8
0
 10
380.979057
 20
-652.98413
 30
0.0
 40
12.0
 50
23.83908
 51
336.16092
  0
LINE
  8
0
 10
390.979057
 20
-630.441932
 30
0.0
 11
380.979057
 21
-630.441932
 31
0.0
  0
LINE
  8
0
 10
380.979057
 20
-617.141932
 30
0.0
 11
391.979057
 21
-617.141932
 31
0.0
  0
LINE
  8
0
 10
374.429057
 20
-653.505198
 30
0.0
 11
374.429057
 21
-652.463062
 31
0.0
  0
LINE
  8
0
 10
380.45799
 20
-659.53413
 30
0.0
 11
381.500125
 21
-659.53413
 31
0.0
  0
LINE
  8
0
 10
381.500125
 20
-659.53413
 30
0.0
 11
387.529057
 21
-653.505198
 31
0.0
  0
LINE
  8
0
 10
387.529057
 20
-653.505198
 30
0.0
 11
387.529057
 21
-652.463062
 31
0.0
  0
LINE
  8
0
 10
374.429057
 20
-652.463062
 30
0.0
 11
380.45799
 21
-646.43413
 31
0.0
  0
LINE
  8
0
 10
387.529057
 20
-652.463062
 30
0.0
 11
381.500125
 21
-646.43413
 31
0.0
  0
LINE
  8
0
 10
380.45799
 20
-659.53413
 30
0.0
 11
374.429057
 21
-653.505198
 31
0.0
  0
LINE
  8
0
 10
380.45799
 20
-646.43413
 30
0.0
 11
381.500125
 21
-646.43413
 31
0.0
  0
LINE
  8
0
  6
CENTER
 10
380.979057
 20
-632.381957
 30
0.0
 11
380.979057
 21
-608.466152
 31
0.0
  0
LINE
  8
0
 10
380.45799
 20
-630.841932
 30
0.0
 11
380.45799
 21
-611.141932
 31
0.0
  0
LINE
  8
0
 10
374.429057
 20
-630.841932
 30
0.0
 11
374.429057
 21
-611.141932
 31
0.0
  0
LINE
  8
0
 10
390.279057
 20
-631.141932
 30
0.0
 11
390.979057
 21
-630.441932
 31
0.0
  0
LINE
  8
0
 10
370.979057
 20
-630.441932
 30
0.0
 11
371.679057
 21
-631.141932
 31
0.0
  0
LINE
  8
0
 10
436.879057
 20
-605.241932
 30
0.0
 11
451.079057
 21
-605.241932
 31
0.0
  0
LINE
  8
0
 10
451.079057
 20
-605.241932
 30
0.0
 11
451.079057
 21
-615.241932
 31
0.0
  0
LINE
  8
0
 10
436.879057
 20
-605.241932
 30
0.0
 11
436.879057
 21
-611.141932
 31
0.0
  0
ARC
  8
0
 10
391.979057
 20
-616.141932
 30
0.0
 40
1.0
 50
270.0
 51
354.26083
  0
ARC
  8
0
 10
369.979057
 20
-616.141932
 30
0.0
 40
1.0
 50
180.0
 51
270.0
  0
ARC
  8
0
 10
369.979057
 20
-612.141932
 30
0.0
 40
1.0
 50
90.0
 51
180.0
  0
LINE
  8
0
 10
387.969614
 20
-616.241932
 30
0.0
 11
450.079057
 21
-616.241932
 31
0.0
  0
LINE
  8
0
 10
369.979057
 20
-611.141932
 30
0.0
 11
443.979057
 21
-611.141932
 31
0.0
  0
LINE
  8
0
 10
369.979057
 20
-617.141932
 30
0.0
 11
370.979057
 21
-617.141932
 31
0.0
  0
LINE
  8
0
 10
368.979057
 20
-612.141932
 30
0.0
 11
368.979057
 21
-616.141932
 31
0.0
  0
LINE
  8
0
 10
371.679057
 20
-631.141932
 30
0.0
 11
390.279057
 21
-631.141932
 31
0.0
  0
LINE
  8
0
 10
390.979057
 20
-617.141932
 30
0.0
 11
390.979057
 21
-630.441932
 31
0.0
  0
LINE
  8
0
 10
370.979057
 20
-617.141932
 30
0.0
 11
370.979057
 21
-630.441932
 31
0.0
  0
ARC
  8
0
 10
450.079057
 20
-615.241932
 30
0.0
 40
1.0
 50
270.0
 51
0.0
  0
ARC
  8
0
 10
552.44759
 20
-798.483075
 30
0.0
 40
1.0
 50
270.0
 51
0.0
  0
LINE
  8
0
 10
553.44759
 20
-798.483075
 30
0.0
 11
553.44759
 21
-792.683075
 31
0.0
  0
ARC
  8
0
 10
552.44759
 20
-792.683075
 30
0.0
 40
1.0
 50
0.0
 51
90.0
  0
LINE
  8
0
 10
532.19759
 20
-791.683075
 30
0.0
 11
532.19759
 21
-785.983075
 31
0.0
  0
LINE
  8
0
 10
546.69759
 20
-791.683075
 30
0.0
 11
546.69759
 21
-785.983075
 31
0.0
  0
LINE
  8
0
 10
532.19759
 20
-785.983075
 30
0.0
 11
546.69759
 21
-785.983075
 31
0.0
  0
LINE
  8
0
 10
527.44759
 20
-814.883075
 30
0.0
 11
527.44759
 21
-799.483075
 31
0.0
  0
LINE
  8
0
 10
551.44759
 20
-814.883075
 30
0.0
 11
551.44759
 21
-799.483075
 31
0.0
  0
LINE
  8
0
 10
528.24759
 20
-815.683075
 30
0.0
 11
550.64759
 21
-815.683075
 31
0.0
  0
LINE
  8
0
 10
526.44759
 20
-791.683075
 30
0.0
 11
552.44759
 21
-791.683075
 31
0.0
  0
LINE
  8
0
 10
525.44759
 20
-798.483075
 30
0.0
 11
525.44759
 21
-792.683075
 31
0.0
  0
LINE
  8
0
 10
526.447588
 20
-799.483075
 30
0.0
 11
552.447593
 21
-799.483075
 31
0.0
  0
ARC
  8
0
 10
526.44759
 20
-792.683075
 30
0.0
 40
1.0
 50
90.0
 51
180.0
  0
ARC
  8
0
 10
526.44759
 20
-798.483075
 30
0.0
 40
1.0
 50
180.0
 51
270.0
  0
LINE
  8
0
 10
527.44759
 20
-814.883075
 30
0.0
 11
528.24759
 21
-815.683075
 31
0.0
  0
LINE
  8
0
 10
550.64759
 20
-815.683075
 30
0.0
 11
551.44759
 21
-814.883075
 31
0.0
  0
LINE
  8
0
 10
551.44759
 20
-814.883075
 30
0.0
 11
527.44759
 21
-814.883075
 31
0.0
  0
INSERT
  8
0
  2
*X1
 10
476.135514
 20
-378.755148
 30
0.0
  0
LINE
  8
0
 10
392.979057
 20
-814.883075
 30
0.0
 11
380.979057
 21
-814.883075
 31
0.0
  0
LINE
  8
0
 10
392.179057
 20
-815.683075
 30
0.0
 11
392.979057
 21
-814.883075
 31
0.0
  0
LINE
  8
0
 10
368.979057
 20
-814.883075
 30
0.0
 11
369.779057
 21
-815.683075
 31
0.0
  0
ARC
  8
0
 10
467.229057
 20
-797.483075
 30
0.0
 40
1.0
 50
270.0
 51
0.0
  0
ARC
  8
0
 10
367.979057
 20
-798.483075
 30
0.0
 40
1.0
 50
180.0
 51
270.0
  0
ARC
  8
0
 10
367.979057
 20
-792.683075
 30
0.0
 40
1.0
 50
90.0
 51
180.0
  0
LINE
  8
0
 10
380.979057
 20
-799.483075
 30
0.0
 11
392.979057
 21
-799.483075
 31
0.0
  0
LINE
  8
0
 10
380.45799
 20
-815.383075
 30
0.0
 11
380.979057
 21
-815.383075
 31
0.0
  0
ARC
  8
0
 10
377.443523
 20
-821.523794
 30
0.0
 40
6.840718
 50
63.853673
 51
121.370766
  0
LINE
  8
0
 10
380.45799
 20
-815.383075
 30
0.0
 11
380.45799
 21
-791.683075
 31
0.0
  0
LINE
  8
0
 10
374.429057
 20
-815.383075
 30
0.0
 11
374.429057
 21
-791.683075
 31
0.0
  0
LINE
  8
0
 10
380.45799
 20
-853.997925
 30
0.0
 11
381.500125
 21
-853.997925
 31
0.0
  0
LINE
  8
0
 10
387.529057
 20
-847.968993
 30
0.0
 11
387.529057
 21
-846.926857
 31
0.0
  0
LINE
  8
0
 10
374.429057
 20
-847.968993
 30
0.0
 11
374.429057
 21
-846.926857
 31
0.0
  0
LINE
  8
0
 10
381.500125
 20
-853.997925
 30
0.0
 11
387.529057
 21
-847.968993
 31
0.0
  0
LINE
  8
0
 10
374.429057
 20
-846.926857
 30
0.0
 11
380.45799
 21
-840.897925
 31
0.0
  0
LINE
  8
0
 10
387.529057
 20
-846.926857
 30
0.0
 11
381.500125
 21
-840.897925
 31
0.0
  0
LINE
  8
0
 10
380.45799
 20
-853.997925
 30
0.0
 11
374.429057
 21
-847.968993
 31
0.0
  0
LINE
  8
0
 10
380.45799
 20
-840.897925
 30
0.0
 11
381.500125
 21
-840.897925
 31
0.0
  0
LINE
  8
0
 10
454.408099
 20
-853.597925
 30
0.0
 11
394.713982
 21
-856.44806
 31
0.0
  0
ARC
  8
0
 10
396.311657
 20
-867.921631
 30
0.0
 40
11.584274
 50
97.927367
 51
125.494668
  0
ARC
  8
0
 10
396.311657
 20
-826.974219
 30
0.0
 40
11.584274
 50
234.505332
 51
262.072633
  0
LINE
  8
0
 10
454.408099
 20
-841.297925
 30
0.0
 11
394.713982
 21
-838.44779
 31
0.0
  0
ARC
  8
0
 10
380.979057
 20
-847.447925
 30
0.0
 40
14.0
 50
20.892732
 51
339.107268
  0
LINE
  8
0
 10
366.979057
 20
-798.483075
 30
0.0
 11
366.979057
 21
-792.683075
 31
0.0
  0
LINE
  8
0
 10
453.729057
 20
-785.983075
 30
0.0
 11
468.229057
 21
-785.983075
 31
0.0
  0
LINE
  8
0
 10
453.729057
 20
-798.483075
 30
0.0
 11
392.979057
 21
-799.483075
 31
0.0
  0
LINE
  8
0
 10
453.729057
 20
-798.483075
 30
0.0
 11
467.229057
 21
-798.483075
 31
0.0
  0
LINE
  8
0
 10
367.979057
 20
-799.483075
 30
0.0
 11
368.979057
 21
-799.483075
 31
0.0
  0
LINE
  8
0
 10
468.229057
 20
-797.483075
 30
0.0
 11
468.229057
 21
-785.983075
 31
0.0
  0
LINE
  8
0
 10
453.729057
 20
-791.683075
 30
0.0
 11
453.729057
 21
-785.983075
 31
0.0
  0
LINE
  8
0
 10
367.979057
 20
-791.683075
 30
0.0
 11
460.979057
 21
-791.683075
 31
0.0
  0
LINE
  8
0
 10
369.779057
 20
-815.683075
 30
0.0
 11
392.179057
 21
-815.683075
 31
0.0
  0
LINE
  8
0
 10
392.979057
 20
-814.883075
 30
0.0
 11
392.979057
 21
-799.483075
 31
0.0
  0
LINE
  8
0
 10
368.979057
 20
-814.883075
 30
0.0
 11
368.979057
 21
-799.483075
 31
0.0
  0
LINE
  8
0
  6
CENTER
 10
380.979057
 20
-818.68793
 30
0.0
 11
380.979057
 21
-787.865583
 31
0.0
  0
CIRCLE
  8
0
 10
460.979057
 20
-847.447925
 30
0.0
 40
9.0
  0
LINE
  8
0
 10
637.168838
 20
-454.734503
 30
0.0
 11
637.168838
 21
-473.234503
 31
0.0
  0
LINE
  8
0
 10
665.168838
 20
-454.734503
 30
0.0
 11
665.168838
 21
-473.234503
 31
0.0
  0
LINE
  8
0
 10
638.168838
 20
-474.234503
 30
0.0
 11
664.168838
 21
-474.234503
 31
0.0
  0
LINE
  8
0
 10
635.668838
 20
-446.234503
 30
0.0
 11
751.168838
 21
-446.234503
 31
0.0
  0
LINE
  8
0
 10
742.968838
 20
-440.234503
 30
0.0
 11
742.968838
 21
-446.234503
 31
0.0
  0
LINE
  8
0
 10
759.368838
 20
-440.234503
 30
0.0
 11
759.368838
 21
-451.234503
 31
0.0
  0
LINE
  8
0
 10
635.668838
 20
-454.734503
 30
0.0
 11
637.168838
 21
-454.734503
 31
0.0
  0
LINE
  8
0
 10
742.968838
 20
-452.234503
 30
0.0
 11
758.368838
 21
-452.234503
 31
0.0
  0
LINE
  8
0
 10
634.668838
 20
-447.234503
 30
0.0
 11
634.668838
 21
-453.734503
 31
0.0
  0
LINE
  8
0
 10
667.668838
 20
-454.734503
 30
0.0
 11
742.968838
 21
-452.234503
 31
0.0
  0
LINE
  8
0
 10
742.968838
 20
-440.234503
 30
0.0
 11
759.368838
 21
-440.234503
 31
0.0
  0
ARC
  8
0
 10
635.668838
 20
-447.234503
 30
0.0
 40
1.0
 50
90.0
 51
180.0
  0
ARC
  8
0
 10
635.668838
 20
-453.734503
 30
0.0
 40
1.0
 50
180.0
 51
270.0
  0
ARC
  8
0
 10
758.368838
 20
-451.234503
 30
0.0
 40
1.0
 50
270.0
 51
0.0
  0
LINE
  8
0
 10
637.168838
 20
-473.234503
 30
0.0
 11
638.168838
 21
-474.234503
 31
0.0
  0
LINE
  8
0
 10
664.168838
 20
-474.234503
 30
0.0
 11
665.168838
 21
-473.234503
 31
0.0
  0
LINE
  8
0
 10
665.168838
 20
-473.234503
 30
0.0
 11
651.168838
 21
-473.234503
 31
0.0
  0
ARC
  8
0
 10
651.168838
 20
-511.13481
 30
0.0
 40
16.5
 50
29.360722
 51
330.639278
  0
ARC
  8
0
 10
676.316293
 20
-460.25795
 30
0.0
 40
40.270572
 50
244.622278
 51
265.158067
  0
LINE
  8
0
 10
672.91717
 20
-500.38481
 30
0.0
 11
743.656182
 21
-504.53481
 31
0.0
  0
LINE
  8
0
 10
672.91717
 20
-521.88481
 30
0.0
 11
743.656182
 21
-517.73481
 31
0.0
  0
ARC
  8
0
 10
676.316293
 20
-562.01167
 30
0.0
 40
40.270572
 50
94.841933
 51
115.377722
  0
LINE
  8
0
 10
643.118838
 20
-510.699529
 30
0.0
 11
650.733557
 21
-503.08481
 31
0.0
  0
LINE
  8
0
 10
651.604119
 20
-519.18481
 30
0.0
 11
659.218838
 21
-511.570092
 31
0.0
  0
LINE
  8
0
 10
643.118838
 20
-511.570092
 30
0.0
 11
650.733557
 21
-519.18481
 31
0.0
  0
LINE
  8
0
 10
651.604119
 20
-503.08481
 30
0.0
 11
659.218838
 21
-510.699529
 31
0.0
  0
LINE
  8
0
 10
643.118838
 20
-511.570092
 30
0.0
 11
643.118838
 21
-510.699529
 31
0.0
  0
LINE
  8
0
 10
659.218838
 20
-511.570092
 30
0.0
 11
659.218838
 21
-510.699529
 31
0.0
  0
LINE
  8
0
 10
651.604119
 20
-503.08481
 30
0.0
 11
650.733557
 21
-503.08481
 31
0.0
  0
LINE
  8
0
 10
651.604119
 20
-519.18481
 30
0.0
 11
650.733557
 21
-519.18481
 31
0.0
  0
LINE
  8
0
 10
650.733557
 20
-473.4117
 30
0.0
 11
650.733557
 21
-446.234503
 31
0.0
  0
LINE
  8
0
 10
643.118838
 20
-473.646667
 30
0.0
 11
643.118838
 21
-446.234503
 31
0.0
  0
LINE
  8
0
  6
CENTER
 10
651.168838
 20
-443.335813
 30
0.0
 11
651.168838
 21
-476.955963
 31
0.0
  0
LINE
  8
0
 10
651.168838
 20
-454.734503
 30
0.0
 11
667.668838
 21
-454.734503
 31
0.0
  0
LINE
  8
0
 10
850.380909
 20
-473.234503
 30
0.0
 11
822.380909
 21
-473.234503
 31
0.0
  0
LINE
  8
0
 10
849.380909
 20
-474.234503
 30
0.0
 11
850.380909
 21
-473.234503
 31
0.0
  0
LINE
  8
0
 10
822.380909
 20
-473.234503
 30
0.0
 11
823.380909
 21
-474.234503
 31
0.0
  0
ARC
  8
0
 10
820.880909
 20
-453.734503
 30
0.0
 40
1.0
 50
180.0
 51
270.0
  0
ARC
  8
0
 10
820.880909
 20
-447.234503
 30
0.0
 40
1.0
 50
90.0
 51
180.0
  0
LINE
  8
0
 10
819.880909
 20
-447.234503
 30
0.0
 11
819.880909
 21
-453.734503
 31
0.0
  0
LINE
  8
0
 10
820.880909
 20
-454.734503
 30
0.0
 11
851.880909
 21
-454.734503
 31
0.0
  0
LINE
  8
0
 10
820.880909
 20
-446.234503
 30
0.0
 11
851.880909
 21
-446.234503
 31
0.0
  0
LINE
  8
0
 10
823.380909
 20
-474.234503
 30
0.0
 11
849.380909
 21
-474.234503
 31
0.0
  0
LINE
  8
0
 10
850.380909
 20
-454.734503
 30
0.0
 11
850.380909
 21
-473.234503
 31
0.0
  0
LINE
  8
0
 10
822.380909
 20
-454.734503
 30
0.0
 11
822.380909
 21
-473.234503
 31
0.0
  0
LINE
  8
0
 10
828.180909
 20
-440.234503
 30
0.0
 11
844.580909
 21
-440.234503
 31
0.0
  0
LINE
  8
0
 10
844.580909
 20
-440.234503
 30
0.0
 11
844.580909
 21
-446.234503
 31
0.0
  0
LINE
  8
0
 10
828.180909
 20
-440.234503
 30
0.0
 11
828.180909
 21
-446.234503
 31
0.0
  0
ARC
  8
0
 10
851.880909
 20
-447.234503
 30
0.0
 40
1.0
 50
0.0
 51
90.0
  0
LINE
  8
0
 10
852.880909
 20
-447.234503
 30
0.0
 11
852.880909
 21
-453.734503
 31
0.0
  0
ARC
  8
0
 10
851.880909
 20
-453.734503
 30
0.0
 40
1.0
 50
270.0
 51
0.0
  0
ARC
  8
0
 10
647.278154
 20
-484.935234
 30
0.0
 40
12.030446
 50
73.308316
 51
117.193175
  0
LINE
  8
0
 10
650.733557
 20
-473.4117
 30
0.0
 11
651.168838
 21
-473.4117
 31
0.0
  0
LINE
  8
0
 10
634.168838
 20
-656.10807
 30
0.0
 11
634.168838
 21
-678.10807
 31
0.0
  0
LINE
  8
0
 10
668.168838
 20
-656.10807
 30
0.0
 11
668.168838
 21
-678.10807
 31
0.0
  0
LINE
  8
0
 10
635.168838
 20
-679.10807
 30
0.0
 11
667.168838
 21
-679.10807
 31
0.0
  0
LINE
  8
0
 10
633.168838
 20
-645.10807
 30
0.0
 11
776.168838
 21
-645.10807
 31
0.0
  0
LINE
  8
0
 10
766.168838
 20
-639.30807
 30
0.0
 11
766.168838
 21
-645.10807
 31
0.0
  0
LINE
  8
0
 10
786.168838
 20
-639.30807
 30
0.0
 11
786.168838
 21
-650.60807
 31
0.0
  0
LINE
  8
0
 10
633.168838
 20
-656.10807
 30
0.0
 11
634.168838
 21
-656.10807
 31
0.0
  0
LINE
  8
0
 10
766.168838
 20
-652.60807
 30
0.0
 11
784.168838
 21
-652.60807
 31
0.0
  0
LINE
  8
0
 10
631.168838
 20
-647.10807
 30
0.0
 11
631.168838
 21
-654.10807
 31
0.0
  0
LINE
  8
0
 10
676.085583
 20
-654.030437
 30
0.0
 11
766.168838
 21
-652.60807
 31
0.0
  0
LINE
  8
0
 10
671.168838
 20
-656.10807
 30
0.0
 11
676.085583
 21
-654.030437
 31
0.0
  0
ARC
  8
0
 10
633.168838
 20
-647.10807
 30
0.0
 40
2.0
 50
90.0
 51
180.0
  0
ARC
  8
0
 10
633.168838
 20
-654.10807
 30
0.0
 40
2.0
 50
180.0
 51
270.0
  0
LINE
  8
0
 10
634.168838
 20
-678.10807
 30
0.0
 11
635.168838
 21
-679.10807
 31
0.0
  0
LINE
  8
0
 10
667.168838
 20
-679.10807
 30
0.0
 11
668.168838
 21
-678.10807
 31
0.0
  0
LINE
  8
0
 10
766.168838
 20
-639.30807
 30
0.0
 11
786.168838
 21
-639.30807
 31
0.0
  0
ARC
  8
0
 10
651.168838
 20
-723.695234
 30
0.0
 40
20.0
 50
31.10402
 51
328.89598
  0
ARC
  8
0
 10
682.852905
 20
-658.548417
 30
0.0
 40
52.45165
 50
244.610843
 51
269.587726
  0
LINE
  8
0
 10
682.475491
 20
-710.998708
 30
0.0
 11
768.362591
 21
-715.945234
 31
0.0
  0
LINE
  8
0
 10
682.475491
 20
-736.391759
 30
0.0
 11
768.362591
 21
-731.445234
 31
0.0
  0
ARC
  8
0
 10
682.852905
 20
-788.84205
 30
0.0
 40
52.45165
 50
90.412274
 51
115.389157
  0
LINE
  8
0
 10
652.018333
 20
-714.645234
 30
0.0
 11
660.218838
 21
-722.845739
 31
0.0
  0
LINE
  8
0
 10
642.118838
 20
-724.544729
 30
0.0
 11
650.319343
 21
-732.745234
 31
0.0
  0
LINE
  8
0
 10
642.118838
 20
-722.845739
 30
0.0
 11
650.319343
 21
-714.645234
 31
0.0
  0
LINE
  8
0
 10
652.018333
 20
-732.745234
 30
0.0
 11
660.218838
 21
-724.544729
 31
0.0
  0
LINE
  8
0
 10
642.118838
 20
-724.544729
 30
0.0
 11
642.118838
 21
-722.845739
 31
0.0
  0
LINE
  8
0
 10
660.218838
 20
-724.544729
 30
0.0
 11
660.218838
 21
-722.845739
 31
0.0
  0
LINE
  8
0
 10
652.018333
 20
-714.645234
 30
0.0
 11
650.319343
 21
-714.645234
 31
0.0
  0
LINE
  8
0
 10
652.018333
 20
-732.745234
 30
0.0
 11
650.319343
 21
-732.745234
 31
0.0
  0
LINE
  8
0
 10
642.118838
 20
-678.399665
 30
0.0
 11
642.118838
 21
-645.10807
 31
0.0
  0
LINE
  8
0
 10
650.319343
 20
-678.403662
 30
0.0
 11
650.319343
 21
-645.10807
 31
0.0
  0
LINE
  8
0
 10
651.168838
 20
-656.10807
 30
0.0
 11
671.168838
 21
-656.10807
 31
0.0
  0
LINE
  8
0
  6
CENTER
 10
651.168838
 20
-641.669348
 30
0.0
 11
651.168838
 21
-682.296355
 31
0.0
  0
LINE
  8
0
 10
668.168838
 20
-678.10807
 30
0.0
 11
651.168838
 21
-678.10807
 31
0.0
  0
ARC
  8
0
 10
646.212952
 20
-690.994467
 30
0.0
 40
13.24352
 50
71.936672
 51
116.165303
  0
LINE
  8
0
 10
650.319343
 20
-678.403662
 30
0.0
 11
651.168838
 21
-678.403662
 31
0.0
  0
ARC
  8
0
 10
784.168838
 20
-650.60807
 30
0.0
 40
2.0
 50
270.0
 51
0.0
  0
INSERT
  8
0
  2
*X2
 10
750.912671
 20
125.310658
 30
0.0
  0
LINE
  8
0
 10
893.612719
 20
-678.10807
 30
0.0
 11
859.612719
 21
-678.10807
 31
0.0
  0
LINE
  8
0
 10
892.612719
 20
-679.10807
 30
0.0
 11
893.612719
 21
-678.10807
 31
0.0
  0
LINE
  8
0
 10
859.612719
 20
-678.10807
 30
0.0
 11
860.612719
 21
-679.10807
 31
0.0
  0
ARC
  8
0
 10
858.612719
 20
-654.10807
 30
0.0
 40
2.0
 50
180.0
 51
270.0
  0
ARC
  8
0
 10
858.612719
 20
-647.10807
 30
0.0
 40
2.0
 50
90.0
 51
180.0
  0
LINE
  8
0
 10
856.612719
 20
-647.10807
 30
0.0
 11
856.612719
 21
-654.10807
 31
0.0
  0
LINE
  8
0
 10
858.612719
 20
-656.10807
 30
0.0
 11
894.612719
 21
-656.10807
 31
0.0
  0
LINE
  8
0
 10
858.612719
 20
-645.10807
 30
0.0
 11
894.612719
 21
-645.10807
 31
0.0
  0
LINE
  8
0
 10
860.612719
 20
-679.10807
 30
0.0
 11
892.612719
 21
-679.10807
 31
0.0
  0
LINE
  8
0
 10
893.612719
 20
-656.10807
 30
0.0
 11
893.612719
 21
-678.10807
 31
0.0
  0
LINE
  8
0
 10
859.612719
 20
-656.10807
 30
0.0
 11
859.612719
 21
-678.10807
 31
0.0
  0
ARC
  8
0
 10
894.612719
 20
-647.10807
 30
0.0
 40
2.0
 50
0.0
 51
90.0
  0
LINE
  8
0
 10
896.612719
 20
-647.10807
 30
0.0
 11
896.612719
 21
-654.10807
 31
0.0
  0
ARC
  8
0
 10
894.612719
 20
-654.10807
 30
0.0
 40
2.0
 50
270.0
 51
360.0
  0
LINE
  8
0
 10
866.612719
 20
-639.30807
 30
0.0
 11
886.612719
 21
-639.30807
 31
0.0
  0
LINE
  8
0
 10
886.612719
 20
-639.30807
 30
0.0
 11
886.612719
 21
-645.10807
 31
0.0
  0
LINE
  8
0
 10
866.612719
 20
-639.30807
 30
0.0
 11
866.612719
 21
-645.10807
 31
0.0
  0
LINE
  8
0
  6
CENTER
 10
651.168838
 20
-919.558338
 30
0.0
 11
651.168838
 21
-875.485776
 31
0.0
  0
LINE
  8
0
 10
632.168838
 20
-915.06535
 30
0.0
 11
632.168838
 21
-889.76535
 31
0.0
  0
LINE
  8
0
 10
670.168838
 20
-915.06535
 30
0.0
 11
670.168838
 21
-889.76535
 31
0.0
  0
LINE
  8
0
 10
633.368838
 20
-916.26535
 30
0.0
 11
668.968838
 21
-916.26535
 31
0.0
  0
LINE
  8
0
 10
631.418838
 20
-878.26535
 30
0.0
 11
811.168838
 21
-878.26535
 31
0.0
  0
LINE
  8
0
 10
799.668838
 20
-878.26235
 30
0.0
 11
799.668838
 21
-878.25835
 31
0.0
  0
LINE
  8
0
 10
822.668838
 20
-885.26535
 30
0.0
 11
822.668838
 21
-872.96535
 31
0.0
  0
LINE
  8
0
 10
631.418838
 20
-889.76535
 30
0.0
 11
632.168838
 21
-889.76535
 31
0.0
  0
LINE
  8
0
 10
799.668838
 20
-887.26535
 30
0.0
 11
820.668838
 21
-887.26535
 31
0.0
  0
LINE
  8
0
 10
629.418838
 20
-887.76535
 30
0.0
 11
629.418838
 21
-880.26535
 31
0.0
  0
LINE
  8
0
 10
799.668838
 20
-887.26535
 30
0.0
 11
660.503661
 21
-888.912275
 31
0.0
  0
LINE
  8
0
 10
672.918838
 20
-889.76535
 30
0.0
 11
675.203975
 21
-888.738307
 31
0.0
  0
LINE
  8
0
 10
799.668838
 20
-872.96535
 30
0.0
 11
822.668838
 21
-872.96535
 31
0.0
  0
ARC
  8
0
 10
631.418838
 20
-880.26535
 30
0.0
 40
2.0
 50
90.0
 51
180.0
  0
ARC
  8
0
 10
631.418838
 20
-887.76535
 30
0.0
 40
2.0
 50
180.0
 51
270.0
  0
ARC
  8
0
 10
820.668838
 20
-885.26535
 30
0.0
 40
2.0
 50
270.0
 51
0.0
  0
ARC
  8
0
 10
651.168838
 20
-957.809529
 30
0.0
 40
21.75
 50
30.482451
 51
329.517549
  0
LINE
  8
0
 10
802.599124
 20
-948.709529
 30
0.0
 11
684.001423
 21
-943.804451
 31
0.0
  0
ARC
  8
0
 10
690.050436
 20
-866.915647
 30
0.0
 40
77.126382
 50
246.301775
 51
265.501679
  0
ARC
  8
0
 10
690.050436
 20
-1048.70341
 30
0.0
 40
77.126382
 50
94.498321
 51
113.698225
  0
LINE
  8
0
 10
802.599124
 20
-966.909529
 30
0.0
 11
684.001423
 21
-971.814606
 31
0.0
  0
LINE
  8
0
 10
652.089653
 20
-946.709529
 30
0.0
 11
662.268838
 21
-956.888713
 31
0.0
  0
LINE
  8
0
 10
640.068838
 20
-958.730344
 30
0.0
 11
650.248023
 21
-968.909529
 31
0.0
  0
LINE
  8
0
 10
640.068838
 20
-956.888713
 30
0.0
 11
650.248023
 21
-946.709529
 31
0.0
  0
LINE
  8
0
 10
652.089653
 20
-968.909529
 30
0.0
 11
662.268838
 21
-958.730344
 31
0.0
  0
LINE
  8
0
 10
640.068838
 20
-958.730344
 30
0.0
 11
640.068838
 21
-956.888713
 31
0.0
  0
LINE
  8
0
 10
662.268838
 20
-958.730344
 30
0.0
 11
662.268838
 21
-956.888713
 31
0.0
  0
LINE
  8
0
 10
650.248023
 20
-946.709529
 30
0.0
 11
652.089653
 21
-946.709529
 31
0.0
  0
LINE
  8
0
 10
650.248023
 20
-968.909529
 30
0.0
 11
652.089653
 21
-968.909529
 31
0.0
  0
LINE
  8
0
 10
650.248023
 20
-915.438047
 30
0.0
 11
650.248023
 21
-878.26535
 31
0.0
  0
LINE
  8
0
 10
640.068838
 20
-915.461102
 30
0.0
 11
640.068838
 21
-878.26535
 31
0.0
  0
LINE
  8
0
 10
632.168838
 20
-915.06535
 30
0.0
 11
633.368838
 21
-916.26535
 31
0.0
  0
LINE
  8
0
 10
668.968838
 20
-916.26535
 30
0.0
 11
670.168838
 21
-915.06535
 31
0.0
  0
LINE
  8
0
 10
670.168838
 20
-915.06535
 30
0.0
 11
651.168838
 21
-915.06535
 31
0.0
  0
LINE
  8
0
 10
651.168838
 20
-889.76535
 30
0.0
 11
672.918838
 21
-889.76535
 31
0.0
  0
ARC
  8
0
 10
645.186985
 20
-928.056425
 30
0.0
 40
13.595499
 50
68.145036
 51
119.856162
  0
LINE
  8
0
 10
650.248023
 20
-915.438047
 30
0.0
 11
651.168838
 21
-915.438047
 31
0.0
  0
LINE
  8
0
 10
942.310036
 20
-915.06535
 30
0.0
 11
904.310036
 21
-915.06535
 31
0.0
  0
LINE
  8
0
 10
941.110036
 20
-916.26535
 30
0.0
 11
942.310036
 21
-915.06535
 31
0.0
  0
LINE
  8
0
 10
904.310036
 20
-915.06535
 30
0.0
 11
905.510036
 21
-916.26535
 31
0.0
  0
ARC
  8
0
 10
903.560036
 20
-887.76535
 30
0.0
 40
2.0
 50
180.0
 51
270.0
  0
ARC
  8
0
 10
903.560036
 20
-880.26535
 30
0.0
 40
2.0
 50
90.0
 51
180.0
  0
LINE
  8
0
 10
901.560036
 20
-887.76535
 30
0.0
 11
901.560036
 21
-880.26535
 31
0.0
  0
LINE
  8
0
 10
903.560036
 20
-889.76535
 30
0.0
 11
943.060036
 21
-889.76535
 31
0.0
  0
LINE
  8
0
 10
903.560036
 20
-878.26535
 30
0.0
 11
943.060036
 21
-878.26535
 31
0.0
  0
LINE
  8
0
 10
905.510036
 20
-916.26535
 30
0.0
 11
941.110036
 21
-916.26535
 31
0.0
  0
LINE
  8
0
 10
942.310036
 20
-915.06535
 30
0.0
 11
942.310036
 21
-889.76535
 31
0.0
  0
LINE
  8
0
 10
904.310036
 20
-915.06535
 30
0.0
 11
904.310036
 21
-889.76535
 31
0.0
  0
LINE
  8
0
 10
945.060036
 20
-887.76535
 30
0.0
 11
945.060036
 21
-880.26535
 31
0.0
  0
ARC
  8
0
 10
943.060036
 20
-880.26535
 30
0.0
 40
2.0
 50
0.0
 51
90.0
  0
ARC
  8
0
 10
943.060036
 20
-887.76535
 30
0.0
 40
2.0
 50
270.0
 51
0.0
  0
LINE
  8
0
 10
911.810036
 20
-872.96535
 30
0.0
 11
934.810036
 21
-872.96535
 31
0.0
  0
LINE
  8
0
 10
934.810036
 20
-878.26535
 30
0.0
 11
934.810036
 21
-872.96535
 31
0.0
  0
LINE
  8
0
 10
911.810036
 20
-878.26535
 30
0.0
 11
911.810036
 21
-872.96535
 31
0.0
  0
LINE
  8
0
 10
1048.563809
 20
-492.788844
 30
0.0
 11
1048.563809
 21
-523.088844
 31
0.0
  0
LINE
  8
0
 10
1092.563809
 20
-492.788844
 30
0.0
 11
1092.563809
 21
-523.088844
 31
0.0
  0
LINE
  8
0
 10
1049.763809
 20
-524.288844
 30
0.0
 11
1091.363809
 21
-524.288844
 31
0.0
  0
LINE
  8
0
 10
1047.563809
 20
-480.288844
 30
0.0
 11
1270.563809
 21
-480.288844
 31
0.0
  0
LINE
  8
0
 10
1256.563809
 20
-469.788844
 30
0.0
 11
1256.563809
 21
-480.288844
 31
0.0
  0
LINE
  8
0
 10
1284.563809
 20
-469.788844
 30
0.0
 11
1284.563809
 21
-488.788844
 31
0.0
  0
LINE
  8
0
 10
1047.563809
 20
-492.788844
 30
0.0
 11
1048.563809
 21
-492.788844
 31
0.0
  0
LINE
  8
0
 10
1045.563809
 20
-482.288844
 30
0.0
 11
1045.563809
 21
-490.788844
 31
0.0
  0
LINE
  8
0
 10
1095.563809
 20
-492.788844
 30
0.0
 11
1256.563809
 21
-490.788844
 31
0.0
  0
ARC
  8
0
 10
1047.563809
 20
-482.288844
 30
0.0
 40
2.0
 50
90.0
 51
180.0
  0
ARC
  8
0
 10
1047.563809
 20
-490.788844
 30
0.0
 40
2.0
 50
180.0
 51
270.0
  0
LINE
  8
0
 10
1256.563809
 20
-490.788844
 30
0.0
 11
1282.563809
 21
-490.788844
 31
0.0
  0
LINE
  8
0
 10
1256.563809
 20
-469.788844
 30
0.0
 11
1284.563809
 21
-469.788844
 31
0.0
  0
ARC
  8
0
 10
1282.563809
 20
-488.788844
 30
0.0
 40
2.0
 50
270.0
 51
0.0
  0
ARC
  8
0
 10
1070.563809
 20
-567.751545
 30
0.0
 40
25.0
 50
23.93043
 51
336.06957
  0
LINE
  8
0
  6
CENTER
 10
1070.563809
 20
-477.661323
 30
0.0
 11
1070.563809
 21
-527.800393
 31
0.0
  0
INSERT
  8
0
  2
*X3
 10
310.976528
 20
-860.804612
 30
0.0
  0
LINE
  8
0
 10
1260.974231
 20
-557.551545
 30
0.0
 11
1106.434778
 21
-552.819596
 31
0.0
  0
ARC
  8
0
 10
1109.255355
 20
-498.998283
 30
0.0
 40
53.89517
 50
240.317704
 51
269.492255
  0
ARC
  8
0
 10
1109.255355
 20
-636.504807
 30
0.0
 40
53.89517
 50
90.507745
 51
119.682296
  0
LINE
  8
0
 10
1260.974231
 20
-577.951545
 30
0.0
 11
1106.434778
 21
-582.683494
 31
0.0
  0
LINE
  8
0
 10
1057.963809
 20
-568.586574
 30
0.0
 11
1069.72878
 21
-580.351545
 31
0.0
  0
LINE
  8
0
 10
1071.398837
 20
-555.151545
 30
0.0
 11
1083.163809
 21
-566.916516
 31
0.0
  0
LINE
  8
0
 10
1057.963809
 20
-566.916516
 30
0.0
 11
1069.72878
 21
-555.151545
 31
0.0
  0
LINE
  8
0
 10
1071.398837
 20
-580.351545
 30
0.0
 11
1083.163809
 21
-568.586574
 31
0.0
  0
LINE
  8
0
 10
1057.963809
 20
-566.916516
 30
0.0
 11
1057.963809
 21
-568.586574
 31
0.0
  0
LINE
  8
0
 10
1083.163809
 20
-566.916516
 30
0.0
 11
1083.163809
 21
-568.586574
 31
0.0
  0
LINE
  8
0
 10
1069.72878
 20
-555.151545
 30
0.0
 11
1071.398837
 21
-555.151545
 31
0.0
  0
LINE
  8
0
 10
1069.72878
 20
-580.351545
 30
0.0
 11
1071.398837
 21
-580.351545
 31
0.0
  0
LINE
  8
0
 10
1069.72878
 20
-523.395265
 30
0.0
 11
1069.72878
 21
-480.288844
 31
0.0
  0
LINE
  8
0
 10
1057.963809
 20
-523.461054
 30
0.0
 11
1057.963809
 21
-480.288844
 31
0.0
  0
LINE
  8
0
 10
1070.563809
 20
-492.788844
 30
0.0
 11
1095.563809
 21
-492.788844
 31
0.0
  0
LINE
  8
0
 10
1048.563809
 20
-523.088844
 30
0.0
 11
1049.763809
 21
-524.288844
 31
0.0
  0
LINE
  8
0
 10
1091.363809
 20
-524.288844
 30
0.0
 11
1092.563809
 21
-523.088844
 31
0.0
  0
LINE
  8
0
 10
1092.563809
 20
-523.088844
 30
0.0
 11
1070.563809
 21
-523.088844
 31
0.0
  0
LINE
  8
0
 10
1431.647311
 20
-523.088844
 30
0.0
 11
1387.647311
 21
-523.088844
 31
0.0
  0
LINE
  8
0
 10
1430.447311
 20
-524.288844
 30
0.0
 11
1431.647311
 21
-523.088844
 31
0.0
  0
LINE
  8
0
 10
1387.647311
 20
-523.088844
 30
0.0
 11
1388.847311
 21
-524.288844
 31
0.0
  0
ARC
  8
0
 10
1386.647311
 20
-490.788844
 30
0.0
 40
2.0
 50
180.0
 51
270.0
  0
ARC
  8
0
 10
1386.647311
 20
-482.288844
 30
0.0
 40
2.0
 50
90.0
 51
180.0
  0
LINE
  8
0
 10
1384.647311
 20
-482.288844
 30
0.0
 11
1384.647311
 21
-490.788844
 31
0.0
  0
LINE
  8
0
 10
1386.647311
 20
-492.788844
 30
0.0
 11
1432.647309
 21
-492.788844
 31
0.0
  0
LINE
  8
0
 10
1386.647311
 20
-480.288844
 30
0.0
 11
1432.647313
 21
-480.288844
 31
0.0
  0
LINE
  8
0
 10
1388.847311
 20
-524.288844
 30
0.0
 11
1430.447311
 21
-524.288844
 31
0.0
  0
LINE
  8
0
 10
1431.647311
 20
-492.788844
 30
0.0
 11
1431.647311
 21
-523.088844
 31
0.0
  0
LINE
  8
0
 10
1387.647311
 20
-492.788844
 30
0.0
 11
1387.647311
 21
-523.088844
 31
0.0
  0
ARC
  8
0
 10
1063.951766
 20
-542.289729
 30
0.0
 40
19.757901
 50
72.998901
 51
114.345981
  0
LINE
  8
0
 10
1069.72878
 20
-523.395265
 30
0.0
 11
1070.563809
 21
-523.395265
 31
0.0
  0
ARC
  8
0
 10
1432.647311
 20
-482.288844
 30
0.0
 40
2.0
 50
0.0
 51
90.0
  0
LINE
  8
0
 10
1434.647311
 20
-482.288844
 30
0.0
 11
1434.647311
 21
-490.788844
 31
0.0
  0
ARC
  8
0
 10
1432.647311
 20
-490.788844
 30
0.0
 40
2.0
 50
270.0
 51
0.0
  0
LINE
  8
0
 10
1395.647311
 20
-469.788844
 30
0.0
 11
1423.647311
 21
-469.788844
 31
0.0
  0
LINE
  8
0
 10
1423.647311
 20
-469.788844
 30
0.0
 11
1423.647311
 21
-480.288844
 31
0.0
  0
LINE
  8
0
 10
1395.647311
 20
-469.788844
 30
0.0
 11
1395.647311
 21
-480.288844
 31
0.0
  0
INSERT
  8
0
  2
*X4
 10
734.546278
 20
-176.818177
 30
0.0
  0
INSERT
  8
0
  2
*X5
 10
747.260266
 20
115.85568
 30
0.0
  0
LINE
  8
0
 10
1046.563809
 20
-764.496821
 30
0.0
 11
1046.563809
 21
-798.296821
 31
0.0
  0
LINE
  8
0
 10
1094.563809
 20
-764.496821
 30
0.0
 11
1094.563809
 21
-798.296821
 31
0.0
  0
LINE
  8
0
 10
1047.763809
 20
-799.496821
 30
0.0
 11
1093.363809
 21
-799.496821
 31
0.0
  0
LINE
  8
0
 10
1045.563809
 20
-751.496821
 30
0.0
 11
1320.563809
 21
-751.496821
 31
0.0
  0
LINE
  8
0
 10
1306.763809
 20
-740.996821
 30
0.0
 11
1306.763809
 21
-751.496821
 31
0.0
  0
LINE
  8
0
 10
1334.363809
 20
-740.996821
 30
0.0
 11
1334.363809
 21
-759.996821
 31
0.0
  0
LINE
  8
0
 10
1045.563809
 20
-764.496821
 30
0.0
 11
1046.563809
 21
-764.496821
 31
0.0
  0
LINE
  8
0
 10
1306.763809
 20
-761.996821
 30
0.0
 11
1332.363809
 21
-761.996821
 31
0.0
  0
LINE
  8
0
 10
1043.563809
 20
-753.496821
 30
0.0
 11
1043.563809
 21
-762.496821
 31
0.0
  0
LINE
  8
0
 10
1097.563809
 20
-764.496821
 30
0.0
 11
1306.763809
 21
-761.996821
 31
0.0
  0
LINE
  8
0
 10
1306.763809
 20
-740.996821
 30
0.0
 11
1334.363809
 21
-740.996821
 31
0.0
  0
ARC
  8
0
 10
1045.563809
 20
-753.496821
 30
0.0
 40
2.0
 50
90.0
 51
180.0
  0
ARC
  8
0
 10
1045.563809
 20
-762.496821
 30
0.0
 40
2.0
 50
180.0
 51
270.0
  0
ARC
  8
0
 10
1332.363809
 20
-759.996821
 30
0.0
 40
2.0
 50
270.0
 51
0.0
  0
ARC
  8
0
 10
1070.563809
 20
-839.589804
 30
0.0
 40
27.0
 50
32.160364
 51
327.839636
  0
LINE
  8
0
  6
CENTER
 10
1070.563809
 20
-747.949544
 30
0.0
 11
1070.563809
 21
-802.342392
 31
0.0
  0
LINE
  8
0
 10
1109.6722
 20
-821.661372
 30
0.0
 11
1308.578818
 21
-828.989804
 31
0.0
  0
ARC
  8
0
 10
1111.033438
 20
-753.888326
 30
0.0
 40
67.786715
 50
244.184799
 51
268.849356
  0
ARC
  8
0
 10
1111.033438
 20
-925.291283
 30
0.0
 40
67.786715
 50
91.150644
 51
115.815201
  0
LINE
  8
0
 10
1109.6722
 20
-857.518236
 30
0.0
 11
1308.578818
 21
-850.189804
 31
0.0
  0
LINE
  8
0
 10
1056.463809
 20
-838.133455
 30
0.0
 11
1069.107459
 21
-825.489804
 31
0.0
  0
LINE
  8
0
 10
1072.020158
 20
-853.689804
 30
0.0
 11
1084.663809
 21
-841.046153
 31
0.0
  0
LINE
  8
0
 10
1056.463809
 20
-841.046153
 30
0.0
 11
1069.107459
 21
-853.689804
 31
0.0
  0
LINE
  8
0
 10
1072.020158
 20
-825.489804
 30
0.0
 11
1084.663809
 21
-838.133455
 31
0.0
  0
LINE
  8
0
 10
1056.463809
 20
-838.133455
 30
0.0
 11
1056.463809
 21
-841.046153
 31
0.0
  0
LINE
  8
0
 10
1084.663809
 20
-838.133455
 30
0.0
 11
1084.663809
 21
-841.046153
 31
0.0
  0
LINE
  8
0
 10
1072.020158
 20
-825.489804
 30
0.0
 11
1069.107459
 21
-825.489804
 31
0.0
  0
LINE
  8
0
 10
1072.020158
 20
-853.689804
 30
0.0
 11
1069.107459
 21
-853.689804
 31
0.0
  0
LINE
  8
0
 10
1056.463809
 20
-798.490856
 30
0.0
 11
1056.463809
 21
-751.496821
 31
0.0
  0
LINE
  8
0
 10
1069.107459
 20
-798.724068
 30
0.0
 11
1069.107459
 21
-751.496821
 31
0.0
  0
LINE
  8
0
 10
1070.563809
 20
-764.496821
 30
0.0
 11
1097.563809
 21
-764.496821
 31
0.0
  0
LINE
  8
0
 10
1046.563809
 20
-798.296821
 30
0.0
 11
1047.763809
 21
-799.496821
 31
0.0
  0
LINE
  8
0
 10
1094.563809
 20
-798.296821
 30
0.0
 11
1093.363809
 21
-799.496821
 31
0.0
  0
LINE
  8
0
 10
1094.563809
 20
-798.296821
 30
0.0
 11
1070.563809
 21
-798.296821
 31
0.0
  0
ARC
  8
0
 10
1062.255541
 20
-827.346562
 30
0.0
 40
29.431207
 50
76.537358
 51
108.868076
  0
LINE
  8
0
 10
1069.107459
 20
-798.724068
 30
0.0
 11
1070.563809
 21
-798.724068
 31
0.0
  0
LINE
  8
0
 10
1495.616581
 20
-798.296821
 30
0.0
 11
1447.616581
 21
-798.296821
 31
0.0
  0
LINE
  8
0
 10
1495.616581
 20
-798.296821
 30
0.0
 11
1494.416581
 21
-799.496821
 31
0.0
  0
LINE
  8
0
 10
1447.616581
 20
-798.296821
 30
0.0
 11
1448.816581
 21
-799.496821
 31
0.0
  0
LINE
  8
0
 10
1446.616574
 20
-764.496821
 30
0.0
 11
1496.616587
 21
-764.496821
 31
0.0
  0
ARC
  8
0
 10
1446.616581
 20
-762.496821
 30
0.0
 40
2.0
 50
180.0
 51
270.0
  0
ARC
  8
0
 10
1446.616581
 20
-753.496821
 30
0.0
 40
2.0
 50
90.0
 51
180.0
  0
LINE
  8
0
 10
1444.616581
 20
-753.496821
 30
0.0
 11
1444.616581
 21
-762.496821
 31
0.0
  0
LINE
  8
0
 10
1446.616581
 20
-751.496821
 30
0.0
 11
1496.616589
 21
-751.496821
 31
0.0
  0
LINE
  8
0
 10
1448.816581
 20
-799.496821
 30
0.0
 11
1494.416581
 21
-799.496821
 31
0.0
  0
LINE
  8
0
 10
1495.616581
 20
-764.496821
 30
0.0
 11
1495.616581
 21
-798.296821
 31
0.0
  0
LINE
  8
0
 10
1447.616581
 20
-764.496821
 30
0.0
 11
1447.616581
 21
-798.296821
 31
0.0
  0
ARC
  8
0
 10
1496.616581
 20
-753.496821
 30
0.0
 40
2.0
 50
0.0
 51
90.0
  0
LINE
  8
0
 10
1498.616581
 20
-753.496821
 30
0.0
 11
1498.616581
 21
-762.496821
 31
0.0
  0
ARC
  8
0
 10
1496.616581
 20
-762.496821
 30
0.0
 40
2.0
 50
270.0
 51
0.0
  0
LINE
  8
0
 10
1457.816581
 20
-740.996821
 30
0.0
 11
1485.416581
 21
-740.996821
 31
0.0
  0
LINE
  8
0
 10
1485.416581
 20
-740.996821
 30
0.0
 11
1485.416581
 21
-751.496821
 31
0.0
  0
LINE
  8
0
 10
1457.816581
 20
-740.996821
 30
0.0
 11
1457.816581
 21
-751.496821
 31
0.0
  0
INSERT
  8
0
  2
*X6
 10
742.692246
 20
-246.735009
 30
0.0
  0
LINE
  8
0
 10
437.53785
 20
-769.150845
 30
0.0
 11
448.53785
 21
-769.150845
 31
0.0
  0
LINE
  8
0
 10
437.53785
 20
-776.150845
 30
0.0
 11
437.53785
 21
-769.150845
 31
0.0
  0
LINE
  8
0
 10
448.53785
 20
-776.150845
 30
0.0
 11
448.53785
 21
-769.150845
 31
0.0
  0
ARC
  8
0
 10
443.03785
 20
-723.650845
 30
0.0
 40
3.5
 50
34.2045
 51
145.7955
  0
ARC
  8
0
 10
467.473045
 20
-740.864974
 30
0.0
 40
33.435285
 50
160.983708
 51
207.465335
  0
ARC
  8
0
 10
419.706698
 20
-762.34348
 30
0.0
 40
19.086387
 50
339.104741
 51
18.504927
  0
ARC
  8
0
 10
459.582298
 20
-736.973825
 30
0.0
 40
24.732105
 50
141.811914
 51
163.550718
  0
ARC
  8
0
 10
426.493402
 20
-736.973825
 30
0.0
 40
24.732105
 50
16.449282
 51
38.188086
  0
ARC
  8
0
 10
418.602655
 20
-740.864974
 30
0.0
 40
33.435285
 50
332.534665
 51
19.016292
  0
ARC
  8
0
 10
466.369002
 20
-762.34348
 30
0.0
 40
19.086387
 50
161.495073
 51
200.895259
  0
LINE
  8
0
 10
725.029239
 20
-425.376015
 30
0.0
 11
725.029239
 21
-416.876015
 31
0.0
  0
LINE
  8
0
 10
738.029239
 20
-425.376015
 30
0.0
 11
738.029239
 21
-416.876015
 31
0.0
  0
LINE
  8
0
 10
725.029239
 20
-416.876015
 30
0.0
 11
738.029239
 21
-416.876015
 31
0.0
  0
ARC
  8
0
 10
731.529239
 20
-365.376015
 30
0.0
 40
4.0
 50
37.908456
 51
142.091544
  0
ARC
  8
0
 10
757.672683
 20
-383.340153
 30
0.0
 40
36.200735
 50
154.649969
 51
204.362726
  0
ARC
  8
0
 10
702.794717
 20
-407.970554
 30
0.0
 40
23.951644
 50
338.172711
 51
24.46049
  0
ARC
  8
0
 10
748.489012
 20
-380.522057
 30
0.0
 40
26.730726
 50
138.810251
 51
151.679491
  0
ARC
  8
0
 10
714.569467
 20
-380.522057
 30
0.0
 40
26.730726
 50
28.320509
 51
41.189749
  0
ARC
  8
0
 10
705.385796
 20
-383.340153
 30
0.0
 40
36.200735
 50
335.637274
 51
25.350031
  0
ARC
  8
0
 10
760.263762
 20
-407.970554
 30
0.0
 40
23.951644
 50
155.53951
 51
201.827289
  0
LINE
  8
0
 10
743.471004
 20
-625.721549
 30
0.0
 11
743.471004
 21
-616.221549
 31
0.0
  0
LINE
  8
0
 10
743.471004
 20
-616.221549
 30
0.0
 11
757.271004
 21
-616.221549
 31
0.0
  0
ARC
  8
0
 10
750.371004
 20
-556.721549
 30
0.0
 40
3.0
 50
31.81268
 51
148.18732
  0
ARC
  8
0
 10
783.925204
 20
-581.998243
 30
0.0
 40
44.563447
 50
158.33836
 51
206.108201
  0
ARC
  8
0
 10
724.01824
 20
-608.32598
 30
0.0
 40
20.994047
 50
337.908544
 51
18.659203
  0
ARC
  8
0
 10
785.327422
 20
-580.844241
 30
0.0
 40
45.468483
 50
145.575667
 51
160.342486
  0
ARC
  8
0
 10
716.816804
 20
-581.998243
 30
0.0
 40
44.563447
 50
333.891799
 51
21.66164
  0
ARC
  8
0
 10
715.414586
 20
-580.844241
 30
0.0
 40
45.468483
 50
19.657514
 51
34.424333
  0
ARC
  8
0
 10
776.723767
 20
-608.32598
 30
0.0
 40
20.994047
 50
161.340797
 51
202.091456
  0
LINE
  8
0
 10
757.271004
 20
-625.721549
 30
0.0
 11
757.271004
 21
-616.221549
 31
0.0
  0
LINE
  8
0
 10
771.92866
 20
-850.611335
 30
0.0
 11
771.92866
 21
-840.611335
 31
0.0
  0
LINE
  8
0
 10
787.92866
 20
-850.611335
 30
0.0
 11
787.92866
 21
-840.611335
 31
0.0
  0
LINE
  8
0
 10
771.92866
 20
-840.611335
 30
0.0
 11
787.92866
 21
-840.611335
 31
0.0
  0
ARC
  8
0
 10
779.92866
 20
-774.111335
 30
0.0
 40
3.5
 50
34.467679
 51
145.532321
  0
ARC
  8
0
 10
815.997853
 20
-801.312994
 30
0.0
 40
48.576363
 50
152.885222
 51
203.962449
  0
ARC
  8
0
 10
748.580431
 20
-831.206228
 30
0.0
 40
25.17133
 50
338.059495
 51
23.816829
  0
ARC
  8
0
 10
812.236248
 20
-798.356268
 30
0.0
 40
43.890162
 50
143.306737
 51
154.082817
  0
ARC
  8
0
 10
743.859468
 20
-801.312994
 30
0.0
 40
48.576363
 50
336.037551
 51
27.114778
  0
ARC
  8
0
 10
811.27689
 20
-831.206228
 30
0.0
 40
25.17133
 50
156.183171
 51
201.940505
  0
ARC
  8
0
 10
747.621073
 20
-798.356268
 30
0.0
 40
43.890162
 50
25.917183
 51
36.693263
  0
LINE
  8
0
 10
1221.750653
 20
-450.122904
 30
0.0
 11
1221.750653
 21
-439.622904
 31
0.0
  0
LINE
  8
0
 10
1221.750653
 20
-439.622904
 30
0.0
 11
1239.750653
 21
-439.622904
 31
0.0
  0
ARC
  8
0
 10
1230.750653
 20
-366.122904
 30
0.0
 40
6.0
 50
33.010301
 51
146.989699
  0
ARC
  8
0
 10
1269.690187
 20
-391.8789
 30
0.0
 40
52.940153
 50
156.314646
 51
203.896479
  0
ARC
  8
0
 10
1178.758433
 20
-427.225601
 30
0.0
 40
44.743984
 50
343.914473
 51
18.100695
  0
ARC
  8
0
 10
1261.302686
 20
-388.729015
 30
0.0
 40
43.99649
 50
143.976878
 51
155.683264
  0
ARC
  8
0
 10
1200.19862
 20
-388.729015
 30
0.0
 40
43.99649
 50
24.316736
 51
36.023122
  0
ARC
  8
0
 10
1191.811119
 20
-391.8789
 30
0.0
 40
52.940153
 50
336.103521
 51
23.685354
  0
ARC
  8
0
 10
1282.742873
 20
-427.225601
 30
0.0
 40
44.743984
 50
161.899305
 51
196.085527
  0
LINE
  8
0
 10
1239.750653
 20
-450.122904
 30
0.0
 11
1239.750653
 21
-439.622904
 31
0.0
  0
LINE
  8
0
 10
1268.416291
 20
-708.863275
 30
0.0
 11
1288.416291
 21
-708.863275
 31
0.0
  0
LINE
  8
0
 10
1268.416291
 20
-721.863275
 30
0.0
 11
1268.416291
 21
-708.863275
 31
0.0
  0
ARC
  8
0
 10
1278.416291
 20
-630.363275
 30
0.0
 40
8.5
 50
31.669674
 51
148.330326
  0
ARC
  8
0
 10
1323.284171
 20
-657.064781
 30
0.0
 40
60.879737
 50
157.712293
 51
204.463234
  0
ARC
  8
0
 10
1232.007444
 20
-696.31223
 30
0.0
 40
38.511464
 50
340.979641
 51
21.375471
  0
ARC
  8
0
 10
1298.803004
 20
-645.512247
 30
0.0
 40
33.875285
 50
144.624195
 51
160.088995
  0
ARC
  8
0
 10
1258.029578
 20
-645.512247
 30
0.0
 40
33.875285
 50
19.911005
 51
35.375805
  0
ARC
  8
0
 10
1233.548411
 20
-657.064781
 30
0.0
 40
60.879737
 50
335.536766
 51
22.287707
  0
ARC
  8
0
 10
1324.825138
 20
-696.31223
 30
0.0
 40
38.511464
 50
158.624529
 51
199.020359
  0
LINE
  8
0
 10
1288.416291
 20
-721.863275
 30
0.0
 11
1288.416291
 21
-708.863275
 31
0.0
  0
ARC
  8
0
 10
451.554312
 20
-579.90025
 30
0.0
 40
20.896963
 50
157.697705
 51
197.900173
  0
ARC
  8
0
 10
408.435078
 20
-560.772268
 30
0.0
 40
26.289505
 50
334.789883
 51
25.687197
  0
ARC
  8
0
 10
417.865184
 20
-555.56558
 30
0.0
 40
15.546221
 50
23.458453
 51
41.816282
  0
ARC
  8
0
 10
401.783485
 20
-579.90025
 30
0.0
 40
20.896963
 50
342.099827
 51
22.302295
  0
ARC
  8
0
 10
435.472614
 20
-555.56558
 30
0.0
 40
15.546221
 50
138.183718
 51
156.541547
  0
ARC
  8
0
 10
444.902719
 20
-560.772268
 30
0.0
 40
26.289505
 50
154.312803
 51
205.210117
  0
ARC
  8
0
 10
426.668899
 20
-547.32313
 30
0.0
 40
3.5
 50
37.340026
 51
142.659974
  0
LINE
  8
0
 10
421.668899
 20
-586.32313
 30
0.0
 11
431.668899
 21
-586.32313
 31
0.0
  0
LINE
  8
0
 10
431.668899
 20
-593.82313
 30
0.0
 11
431.668899
 21
-586.32313
 31
0.0
  0
LINE
  8
0
 10
421.668899
 20
-593.82313
 30
0.0
 11
421.668899
 21
-586.32313
 31
0.0
  0
LINE
  8
0
 10
453.289216
 20
-588.32313
 30
0.0
 11
453.289216
 21
-584.82313
 31
0.0
  0
LINE
  8
0
 10
469.289216
 20
-588.32313
 30
0.0
 11
469.289216
 21
-584.82313
 31
0.0
  0
ARC
  8
0
 10
461.289216
 20
-541.32313
 30
0.0
 40
1.5
 50
33.460038
 51
146.539962
  0
ARC
  8
0
 10
482.735645
 20
-560.82313
 30
0.0
 40
29.446429
 50
160.147509
 51
199.852491
  0
ARC
  8
0
 10
439.842788
 20
-560.82313
 30
0.0
 40
29.446429
 50
340.147509
 51
19.852491
  0
ARC
  8
0
 10
480.811927
 20
-556.924645
 30
0.0
 40
26.485111
 50
141.662414
 51
166.680833
  0
LINE
  8
0
 10
453.289216
 20
-584.82313
 30
0.0
 11
469.289216
 21
-584.82313
 31
0.0
  0
ARC
  8
0
 10
444.330883
 20
-576.593963
 30
0.0
 40
12.16433
 50
317.429273
 51
28.320694
  0
ARC
  8
0
 10
478.24755
 20
-576.593963
 30
0.0
 40
12.16433
 50
151.679306
 51
222.570727
  0
ARC
  8
0
 10
441.766506
 20
-556.924645
 30
0.0
 40
26.485111
 50
13.319167
 51
38.337586
  0
LINE
  8
0
 10
453.289216
 20
-588.32313
 30
0.0
 11
453.789216
 21
-588.82313
 31
0.0
  0
LINE
  8
0
 10
468.789216
 20
-588.82313
 30
0.0
 11
469.289216
 21
-588.32313
 31
0.0
  0
LINE
  8
0
 10
456.289216
 20
-593.82313
 30
0.0
 11
456.289216
 21
-588.82313
 31
0.0
  0
LINE
  8
0
 10
453.789216
 20
-588.82313
 30
0.0
 11
468.789216
 21
-588.82313
 31
0.0
  0
LINE
  8
0
 10
466.289216
 20
-593.82313
 30
0.0
 11
466.289216
 21
-588.82313
 31
0.0
  0
LINE
  8
0
 10
470.420265
 20
-771.650845
 30
0.0
 11
487.420265
 21
-771.650845
 31
0.0
  0
LINE
  8
0
 10
484.420265
 20
-771.650845
 30
0.0
 11
484.420265
 21
-776.150845
 31
0.0
  0
LINE
  8
0
 10
473.420265
 20
-771.650845
 30
0.0
 11
473.420265
 21
-776.150845
 31
0.0
  0
LINE
  8
0
 10
487.920265
 20
-771.150845
 30
0.0
 11
487.420265
 21
-771.650845
 31
0.0
  0
LINE
  8
0
 10
487.920265
 20
-766.650845
 30
0.0
 11
487.920265
 21
-771.150845
 31
0.0
  0
ARC
  8
0
 10
503.846215
 20
-756.752634
 30
0.0
 40
18.751279
 50
164.024281
 51
211.861553
  0
ARC
  8
0
 10
449.193245
 20
-738.991708
 30
0.0
 40
38.732629
 50
341.015797
 51
24.871337
  0
ARC
  8
0
 10
466.242306
 20
-731.771426
 30
0.0
 40
20.237567
 50
26.626634
 51
45.468975
  0
LINE
  8
0
 10
469.920265
 20
-771.150845
 30
0.0
 11
470.420265
 21
-771.650845
 31
0.0
  0
ARC
  8
0
 10
453.994315
 20
-756.752634
 30
0.0
 40
18.751279
 50
328.138447
 51
15.975719
  0
ARC
  8
0
 10
491.598224
 20
-731.771426
 30
0.0
 40
20.237567
 50
134.531025
 51
153.373366
  0
ARC
  8
0
 10
508.647285
 20
-738.991708
 30
0.0
 40
38.732629
 50
155.128663
 51
198.984203
  0
ARC
  8
0
 10
478.920265
 20
-718.650845
 30
0.0
 40
2.0
 50
40.775316
 51
139.224684
  0
LINE
  8
0
 10
487.920265
 20
-766.650845
 30
0.0
 11
487.920265
 21
-771.150845
 31
0.0
  0
LINE
  8
0
 10
469.920265
 20
-766.650845
 30
0.0
 11
469.920265
 21
-771.150845
 31
0.0
  0
LINE
  8
0
 10
469.920265
 20
-766.650845
 30
0.0
 11
487.920265
 21
-766.650845
 31
0.0
  0
LINE
  8
0
 10
778.808437
 20
-419.476015
 30
0.0
 11
779.808437
 21
-418.476015
 31
0.0
  0
LINE
  8
0
 10
761.808437
 20
-418.476015
 30
0.0
 11
762.808437
 21
-419.476015
 31
0.0
  0
ARC
  8
0
 10
799.983661
 20
-402.049793
 30
0.0
 40
23.186165
 50
158.575546
 51
209.525011
  0
ARC
  8
0
 10
746.017207
 20
-380.776847
 30
0.0
 40
34.821782
 50
338.426742
 51
26.544982
  0
ARC
  8
0
 10
741.633212
 20
-402.049793
 30
0.0
 40
23.186165
 50
330.474989
 51
21.424454
  0
LINE
  8
0
 10
779.808437
 20
-418.476015
 30
0.0
 11
779.808437
 21
-413.476015
 31
0.0
  0
LINE
  8
0
 10
761.808437
 20
-418.476015
 30
0.0
 11
761.808437
 21
-413.476015
 31
0.0
  0
LINE
  8
0
 10
762.808437
 20
-419.476015
 30
0.0
 11
778.808437
 21
-419.476015
 31
0.0
  0
LINE
  8
0
 10
777.308437
 20
-425.376015
 30
0.0
 11
777.308437
 21
-419.476015
 31
0.0
  0
LINE
  8
0
 10
764.308437
 20
-425.376015
 30
0.0
 11
764.308437
 21
-419.476015
 31
0.0
  0
ARC
  8
0
 10
758.423702
 20
-373.846118
 30
0.0
 40
20.636206
 50
24.72428
 51
42.69262
  0
ARC
  8
0
 10
795.599667
 20
-380.776847
 30
0.0
 40
34.821782
 50
153.455018
 51
201.573258
  0
ARC
  8
0
 10
783.193171
 20
-373.846118
 30
0.0
 40
20.636206
 50
137.30738
 51
155.27572
  0
ARC
  8
0
 10
770.808437
 20
-361.976015
 30
0.0
 40
3.5
 50
37.333488
 51
142.666512
  0
LINE
  8
0
 10
761.808437
 20
-413.476015
 30
0.0
 11
779.808437
 21
-413.476015
 31
0.0
  0
LINE
  8
0
 10
808.966672
 20
-625.721549
 30
0.0
 11
808.966672
 21
-617.721549
 31
0.0
  0
LINE
  8
0
 10
793.366672
 20
-617.721549
 30
0.0
 11
810.566672
 21
-617.721549
 31
0.0
  0
LINE
  8
0
 10
794.966672
 20
-625.721549
 30
0.0
 11
794.966672
 21
-617.721549
 31
0.0
  0
LINE
  8
0
 10
811.566672
 20
-616.721549
 30
0.0
 11
810.566672
 21
-617.721549
 31
0.0
  0
LINE
  8
0
 10
792.366672
 20
-616.721549
 30
0.0
 11
793.366672
 21
-617.721549
 31
0.0
  0
ARC
  8
0
 10
839.06964
 20
-598.198872
 30
0.0
 40
30.64761
 50
165.413123
 51
206.182453
  0
ARC
  8
0
 10
774.238977
 20
-574.238229
 30
0.0
 40
38.740159
 50
335.212264
 51
24.053185
  0
ARC
  8
0
 10
783.848977
 20
-568.907633
 30
0.0
 40
27.808211
 50
22.093701
 51
38.226109
  0
ARC
  8
0
 10
820.084367
 20
-568.907633
 30
0.0
 40
27.808211
 50
141.773891
 51
157.906299
  0
ARC
  8
0
 10
764.863705
 20
-598.198872
 30
0.0
 40
30.64761
 50
333.817547
 51
14.586877
  0
ARC
  8
0
 10
829.694368
 20
-574.238229
 30
0.0
 40
38.740159
 50
155.946815
 51
204.787736
  0
ARC
  8
0
 10
801.966672
 20
-554.221549
 30
0.0
 40
4.5
 50
34.066623
 51
145.933377
  0
LINE
  8
0
 10
792.366672
 20
-611.721549
 30
0.0
 11
811.566672
 21
-611.721549
 31
0.0
  0
LINE
  8
0
 10
811.566672
 20
-616.721549
 30
0.0
 11
811.566672
 21
-611.721549
 31
0.0
  0
LINE
  8
0
 10
792.366672
 20
-616.721549
 30
0.0
 11
792.366672
 21
-611.721549
 31
0.0
  0
LINE
  8
0
 10
833.009016
 20
-842.811335
 30
0.0
 11
851.809016
 21
-842.811335
 31
0.0
  0
LINE
  8
0
 10
850.409016
 20
-850.611335
 30
0.0
 11
850.409016
 21
-842.811335
 31
0.0
  0
LINE
  8
0
 10
834.409016
 20
-850.611335
 30
0.0
 11
834.409016
 21
-842.811335
 31
0.0
  0
ARC
  8
0
 10
831.545659
 20
-784.232264
 30
0.0
 40
20.250511
 50
28.784105
 51
50.06276
  0
LINE
  8
0
 10
852.809016
 20
-841.811335
 30
0.0
 11
852.809016
 21
-836.811335
 31
0.0
  0
ARC
  8
0
 10
803.753048
 20
-797.786263
 30
0.0
 40
51.157558
 50
339.448813
 51
27.100339
  0
ARC
  8
0
 10
871.903802
 20
-825.200353
 30
0.0
 40
22.347836
 50
154.969075
 51
211.302563
  0
LINE
  8
0
 10
852.809016
 20
-841.811335
 30
0.0
 11
851.809016
 21
-842.811335
 31
0.0
  0
LINE
  8
0
 10
832.009016
 20
-841.811335
 30
0.0
 11
833.009016
 21
-842.811335
 31
0.0
  0
ARC
  8
0
 10
853.272372
 20
-784.232264
 30
0.0
 40
20.250511
 50
129.93724
 51
151.215895
  0
ARC
  8
0
 10
812.91423
 20
-825.200353
 30
0.0
 40
22.347836
 50
328.697437
 51
25.030925
  0
ARC
  8
0
 10
881.064983
 20
-797.786263
 30
0.0
 40
51.157558
 50
152.899661
 51
200.551187
  0
ARC
  8
0
 10
842.409016
 20
-770.811335
 30
0.0
 40
3.0
 50
44.590664
 51
135.409336
  0
LINE
  8
0
 10
832.009016
 20
-836.811335
 30
0.0
 11
852.809016
 21
-836.811335
 31
0.0
  0
LINE
  8
0
 10
832.009016
 20
-841.811335
 30
0.0
 11
832.009016
 21
-836.811335
 31
0.0
  0
LINE
  8
0
 10
1299.876964
 20
-439.922904
 30
0.0
 11
1320.876964
 21
-439.922904
 31
0.0
  0
LINE
  8
0
 10
1319.376964
 20
-450.122904
 30
0.0
 11
1319.376964
 21
-439.922904
 31
0.0
  0
LINE
  8
0
 10
1301.376964
 20
-450.122904
 30
0.0
 11
1301.376964
 21
-439.922904
 31
0.0
  0
LINE
  8
0
 10
1321.876964
 20
-438.922904
 30
0.0
 11
1321.876964
 21
-433.922904
 31
0.0
  0
LINE
  8
0
 10
1321.876964
 20
-438.922904
 30
0.0
 11
1320.876964
 21
-439.922904
 31
0.0
  0
ARC
  8
0
 10
1357.345947
 20
-417.134167
 30
0.0
 40
39.241692
 50
155.196806
 51
205.329866
  0
ARC
  8
0
 10
1279.237254
 20
-385.486085
 30
0.0
 40
45.119316
 50
340.331587
 51
29.481807
  0
ARC
  8
0
 10
1295.039842
 20
-374.686669
 30
0.0
 40
26.098637
 50
25.914636
 51
43.427856
  0
LINE
  8
0
 10
1298.876964
 20
-438.922904
 30
0.0
 11
1299.876964
 21
-439.922904
 31
0.0
  0
ARC
  8
0
 10
1263.407981
 20
-417.134167
 30
0.0
 40
39.241692
 50
334.670134
 51
24.803194
  0
LINE
  8
0
 10
1298.876964
 20
-433.922904
 30
0.0
 11
1321.876964
 21
-433.922904
 31
0.0
  0
ARC
  8
0
 10
1325.714086
 20
-374.686669
 30
0.0
 40
26.098637
 50
136.572144
 51
154.085364
  0
ARC
  8
0
 10
1341.516674
 20
-385.486085
 30
0.0
 40
45.119316
 50
150.518193
 51
199.668413
  0
ARC
  8
0
 10
1310.376964
 20
-359.422904
 30
0.0
 40
4.5
 50
36.512623
 51
143.487377
  0
LINE
  8
0
 10
1298.876964
 20
-438.922904
 30
0.0
 11
1298.876964
 21
-433.922904
 31
0.0
  0
LINE
  8
0
 10
1299.876964
 20
-439.922904
 30
0.0
 11
1301.376964
 21
-439.922904
 31
0.0
  0
LINE
  8
0
 10
443.979057
 20
-605.241932
 30
0.0
 11
426.668899
 21
-593.82313
 31
0.0
  0
LINE
  8
0
 10
443.979057
 20
-605.241932
 30
0.0
 11
461.289216
 21
-593.82313
 31
0.0
  0
LINE
  8
0
 10
520.645126
 20
-605.241932
 30
0.0
 11
537.955285
 21
-593.82313
 31
0.0
  0
LINE
  8
0
 10
520.645126
 20
-605.241932
 30
0.0
 11
503.334967
 21
-593.82313
 31
0.0
  0
LINE
  8
0
 10
542.955285
 20
-593.82313
 30
0.0
 11
542.955285
 21
-588.82313
 31
0.0
  0
LINE
  8
0
 10
530.455285
 20
-588.82313
 30
0.0
 11
545.455285
 21
-588.82313
 31
0.0
  0
LINE
  8
0
 10
532.955285
 20
-593.82313
 30
0.0
 11
532.955285
 21
-588.82313
 31
0.0
  0
LINE
  8
0
 10
545.455285
 20
-588.82313
 30
0.0
 11
545.955285
 21
-588.32313
 31
0.0
  0
LINE
  8
0
 10
529.955285
 20
-588.32313
 30
0.0
 11
530.455285
 21
-588.82313
 31
0.0
  0
ARC
  8
0
 10
518.432574
 20
-556.924645
 30
0.0
 40
26.485111
 50
13.319167
 51
38.337586
  0
ARC
  8
0
 10
554.913618
 20
-576.593963
 30
0.0
 40
12.16433
 50
151.679306
 51
222.570727
  0
ARC
  8
0
 10
520.996952
 20
-576.593963
 30
0.0
 40
12.16433
 50
317.429273
 51
28.320694
  0
LINE
  8
0
 10
529.955285
 20
-584.82313
 30
0.0
 11
545.955285
 21
-584.82313
 31
0.0
  0
ARC
  8
0
 10
557.477996
 20
-556.924645
 30
0.0
 40
26.485111
 50
141.662414
 51
166.680833
  0
ARC
  8
0
 10
516.508856
 20
-560.82313
 30
0.0
 40
29.446429
 50
340.147509
 51
19.852491
  0
ARC
  8
0
 10
559.401713
 20
-560.82313
 30
0.0
 40
29.446429
 50
160.147509
 51
199.852491
  0
ARC
  8
0
 10
537.955285
 20
-541.32313
 30
0.0
 40
1.5
 50
33.460038
 51
146.539962
  0
LINE
  8
0
 10
545.955285
 20
-588.32313
 30
0.0
 11
545.955285
 21
-584.82313
 31
0.0
  0
LINE
  8
0
 10
529.955285
 20
-588.32313
 30
0.0
 11
529.955285
 21
-584.82313
 31
0.0
  0
LINE
  8
0
 10
498.334967
 20
-593.82313
 30
0.0
 11
498.334967
 21
-586.32313
 31
0.0
  0
LINE
  8
0
 10
508.334967
 20
-593.82313
 30
0.0
 11
508.334967
 21
-586.32313
 31
0.0
  0
LINE
  8
0
 10
498.334967
 20
-586.32313
 30
0.0
 11
508.334967
 21
-586.32313
 31
0.0
  0
ARC
  8
0
 10
503.334967
 20
-547.32313
 30
0.0
 40
3.5
 50
37.340026
 51
142.659974
  0
ARC
  8
0
 10
521.568787
 20
-560.772268
 30
0.0
 40
26.289505
 50
154.312803
 51
205.210117
  0
ARC
  8
0
 10
512.138682
 20
-555.56558
 30
0.0
 40
15.546221
 50
138.183718
 51
156.541547
  0
ARC
  8
0
 10
478.449553
 20
-579.90025
 30
0.0
 40
20.896963
 50
342.099827
 51
22.302295
  0
ARC
  8
0
 10
494.531252
 20
-555.56558
 30
0.0
 40
15.546221
 50
23.458453
 51
41.816282
  0
ARC
  8
0
 10
485.101147
 20
-560.772268
 30
0.0
 40
26.289505
 50
334.789883
 51
25.687197
  0
ARC
  8
0
 10
528.220381
 20
-579.90025
 30
0.0
 40
20.896963
 50
157.697705
 51
197.900173
  0
LINE
  8
0
 10
460.979057
 20
-785.983075
 30
0.0
 11
443.03785
 21
-776.150845
 31
0.0
  0
TEXT
  8
0
 10
425.309018
 20
-563.586833
 30
0.0
 40
5.0
  1
F
  0
TEXT
  8
0
 10
501.903542
 20
-563.586833
 30
0.0
 40
5.0
  1
F
  0
TEXT
  8
0
 10
441.77617
 20
-743.956456
 30
0.0
 40
6.0
  1
F
  0
LINE
  8
0
 10
460.979057
 20
-785.983075
 30
0.0
 11
478.920265
 21
-776.150845
 31
0.0
  0
LINE
  8
0
 10
539.44759
 20
-785.983075
 30
0.0
 11
557.388797
 21
-776.150845
 31
0.0
  0
TEXT
  8
0
 10
520.244703
 20
-743.956456
 30
0.0
 40
6.0
  1
F
  0
LINE
  8
0
 10
539.44759
 20
-785.983075
 30
0.0
 11
521.506382
 21
-776.150845
 31
0.0
  0
LINE
  8
0
 10
548.388797
 20
-766.650845
 30
0.0
 11
566.388797
 21
-766.650845
 31
0.0
  0
LINE
  8
0
 10
548.388797
 20
-766.650845
 30
0.0
 11
548.388797
 21
-771.150845
 31
0.0
  0
LINE
  8
0
 10
566.388797
 20
-766.650845
 30
0.0
 11
566.388797
 21
-771.150845
 31
0.0
  0
ARC
  8
0
 10
557.388797
 20
-718.650845
 30
0.0
 40
2.0
 50
40.775316
 51
139.224684
  0
ARC
  8
0
 10
587.115818
 20
-738.991708
 30
0.0
 40
38.732629
 50
155.128663
 51
198.984203
  0
ARC
  8
0
 10
570.066756
 20
-731.771426
 30
0.0
 40
20.237567
 50
134.531025
 51
153.373366
  0
ARC
  8
0
 10
532.462847
 20
-756.752634
 30
0.0
 40
18.751279
 50
328.138447
 51
15.975719
  0
LINE
  8
0
 10
548.388797
 20
-771.150845
 30
0.0
 11
548.888797
 21
-771.650845
 31
0.0
  0
ARC
  8
0
 10
544.710838
 20
-731.771426
 30
0.0
 40
20.237567
 50
26.626634
 51
45.468975
  0
ARC
  8
0
 10
527.661777
 20
-738.991708
 30
0.0
 40
38.732629
 50
341.015797
 51
24.871337
  0
ARC
  8
0
 10
582.314748
 20
-756.752634
 30
0.0
 40
18.751279
 50
164.024281
 51
211.861553
  0
LINE
  8
0
 10
566.388797
 20
-766.650845
 30
0.0
 11
566.388797
 21
-771.150845
 31
0.0
  0
LINE
  8
0
 10
566.388797
 20
-771.150845
 30
0.0
 11
565.888797
 21
-771.650845
 31
0.0
  0
LINE
  8
0
 10
551.888797
 20
-771.650845
 30
0.0
 11
551.888797
 21
-776.150845
 31
0.0
  0
LINE
  8
0
 10
562.888797
 20
-771.650845
 30
0.0
 11
562.888797
 21
-776.150845
 31
0.0
  0
LINE
  8
0
 10
548.888797
 20
-771.650845
 30
0.0
 11
565.888797
 21
-771.650845
 31
0.0
  0
ARC
  8
0
 10
544.837534
 20
-762.34348
 30
0.0
 40
19.086387
 50
161.495073
 51
200.895259
  0
ARC
  8
0
 10
497.071188
 20
-740.864974
 30
0.0
 40
33.435285
 50
332.534665
 51
19.016292
  0
ARC
  8
0
 10
504.961935
 20
-736.973825
 30
0.0
 40
24.732105
 50
16.449282
 51
38.188086
  0
ARC
  8
0
 10
538.05083
 20
-736.973825
 30
0.0
 40
24.732105
 50
141.811914
 51
163.550718
  0
ARC
  8
0
 10
498.175231
 20
-762.34348
 30
0.0
 40
19.086387
 50
339.104741
 51
18.504927
  0
ARC
  8
0
 10
545.941577
 20
-740.864974
 30
0.0
 40
33.435285
 50
160.983708
 51
207.465335
  0
ARC
  8
0
 10
521.506382
 20
-723.650845
 30
0.0
 40
3.5
 50
34.2045
 51
145.7955
  0
LINE
  8
0
 10
527.006382
 20
-776.150845
 30
0.0
 11
527.006382
 21
-769.150845
 31
0.0
  0
LINE
  8
0
 10
516.006382
 20
-776.150845
 30
0.0
 11
516.006382
 21
-769.150845
 31
0.0
  0
LINE
  8
0
 10
516.006382
 20
-769.150845
 30
0.0
 11
527.006382
 21
-769.150845
 31
0.0
  0
TEXT
  8
0
 10
729.517874
 20
-388.384314
 30
0.0
 40
7.0
  1
F
  0
LINE
  8
0
 10
751.168838
 20
-440.234503
 30
0.0
 11
731.529239
 21
-425.376015
 31
0.0
  0
LINE
  8
0
 10
751.168838
 20
-440.234503
 30
0.0
 11
770.808437
 21
-425.376015
 31
0.0
  0
LINE
  8
0
 10
836.380909
 20
-440.234503
 30
0.0
 11
856.020508
 21
-425.376015
 31
0.0
  0
LINE
  8
0
 10
836.380909
 20
-440.234503
 30
0.0
 11
816.74131
 21
-425.376015
 31
0.0
  0
TEXT
  8
0
 10
814.729945
 20
-388.384314
 30
0.0
 40
7.0
  1
F
  0
LINE
  8
0
 10
847.020508
 20
-413.476015
 30
0.0
 11
865.020508
 21
-413.476015
 31
0.0
  0
ARC
  8
0
 10
856.020508
 20
-361.976015
 30
0.0
 40
3.5
 50
37.333488
 51
142.666512
  0
ARC
  8
0
 10
868.405242
 20
-373.846118
 30
0.0
 40
20.636206
 50
137.30738
 51
155.27572
  0
ARC
  8
0
 10
880.811738
 20
-380.776847
 30
0.0
 40
34.821782
 50
153.455018
 51
201.573258
  0
ARC
  8
0
 10
843.635773
 20
-373.846118
 30
0.0
 40
20.636206
 50
24.72428
 51
42.69262
  0
LINE
  8
0
 10
849.520508
 20
-425.376015
 30
0.0
 11
849.520508
 21
-419.476015
 31
0.0
  0
LINE
  8
0
 10
862.520508
 20
-425.376015
 30
0.0
 11
862.520508
 21
-419.476015
 31
0.0
  0
LINE
  8
0
 10
848.020508
 20
-419.476015
 30
0.0
 11
864.020508
 21
-419.476015
 31
0.0
  0
LINE
  8
0
 10
847.020508
 20
-418.476015
 30
0.0
 11
847.020508
 21
-413.476015
 31
0.0
  0
LINE
  8
0
 10
865.020508
 20
-418.476015
 30
0.0
 11
865.020508
 21
-413.476015
 31
0.0
  0
ARC
  8
0
 10
826.845283
 20
-402.049793
 30
0.0
 40
23.186165
 50
330.474989
 51
21.424454
  0
ARC
  8
0
 10
831.229278
 20
-380.776847
 30
0.0
 40
34.821782
 50
338.426742
 51
26.544982
  0
ARC
  8
0
 10
885.195733
 20
-402.049793
 30
0.0
 40
23.186165
 50
158.575546
 51
209.525011
  0
LINE
  8
0
 10
847.020508
 20
-418.476015
 30
0.0
 11
848.020508
 21
-419.476015
 31
0.0
  0
LINE
  8
0
 10
864.020508
 20
-419.476015
 30
0.0
 11
865.020508
 21
-418.476015
 31
0.0
  0
ARC
  8
0
 10
845.475833
 20
-407.970554
 30
0.0
 40
23.951644
 50
155.53951
 51
201.827289
  0
ARC
  8
0
 10
790.597867
 20
-383.340153
 30
0.0
 40
36.200735
 50
335.637274
 51
25.350031
  0
ARC
  8
0
 10
799.781538
 20
-380.522057
 30
0.0
 40
26.730726
 50
28.320509
 51
41.189749
  0
ARC
  8
0
 10
833.701083
 20
-380.522057
 30
0.0
 40
26.730726
 50
138.810251
 51
151.679491
  0
ARC
  8
0
 10
788.006788
 20
-407.970554
 30
0.0
 40
23.951644
 50
338.172711
 51
24.46049
  0
ARC
  8
0
 10
842.884754
 20
-383.340153
 30
0.0
 40
36.200735
 50
154.649969
 51
204.362726
  0
ARC
  8
0
 10
816.74131
 20
-365.376015
 30
0.0
 40
4.0
 50
37.908456
 51
142.091544
  0
LINE
  8
0
 10
810.24131
 20
-416.876015
 30
0.0
 11
823.24131
 21
-416.876015
 31
0.0
  0
LINE
  8
0
 10
823.24131
 20
-425.376015
 30
0.0
 11
823.24131
 21
-416.876015
 31
0.0
  0
LINE
  8
0
 10
810.24131
 20
-425.376015
 30
0.0
 11
810.24131
 21
-416.876015
 31
0.0
  0
TEXT
  8
0
 10
748.045741
 20
-582.578528
 30
0.0
 40
7.0
  1
F
  0
LINE
  8
0
 10
776.168838
 20
-639.30807
 30
0.0
 11
750.371004
 21
-625.721549
 31
0.0
  0
LINE
  8
0
 10
776.168838
 20
-639.30807
 30
0.0
 11
801.966672
 21
-625.721549
 31
0.0
  0
LINE
  8
0
 10
876.612719
 20
-639.30807
 30
0.0
 11
902.410554
 21
-625.721549
 31
0.0
  0
LINE
  8
0
 10
876.612719
 20
-639.30807
 30
0.0
 11
850.814885
 21
-625.721549
 31
0.0
  0
TEXT
  8
0
 10
848.489622
 20
-582.578528
 30
0.0
 40
7.0
  1
F
  0
LINE
  8
0
 10
892.810554
 20
-616.721549
 30
0.0
 11
892.810554
 21
-611.721549
 31
0.0
  0
LINE
  8
0
 10
912.010554
 20
-616.721549
 30
0.0
 11
912.010554
 21
-611.721549
 31
0.0
  0
LINE
  8
0
 10
892.810554
 20
-611.721549
 30
0.0
 11
912.010554
 21
-611.721549
 31
0.0
  0
ARC
  8
0
 10
902.410554
 20
-554.221549
 30
0.0
 40
4.5
 50
34.066623
 51
145.933377
  0
ARC
  8
0
 10
930.138249
 20
-574.238229
 30
0.0
 40
38.740159
 50
155.946815
 51
204.787736
  0
ARC
  8
0
 10
865.307586
 20
-598.198872
 30
0.0
 40
30.64761
 50
333.817547
 51
14.586877
  0
ARC
  8
0
 10
920.528248
 20
-568.907633
 30
0.0
 40
27.808211
 50
141.773891
 51
157.906299
  0
ARC
  8
0
 10
884.292859
 20
-568.907633
 30
0.0
 40
27.808211
 50
22.093701
 51
38.226109
  0
ARC
  8
0
 10
874.682858
 20
-574.238229
 30
0.0
 40
38.740159
 50
335.212264
 51
24.053185
  0
ARC
  8
0
 10
939.513521
 20
-598.198872
 30
0.0
 40
30.64761
 50
165.413123
 51
206.182453
  0
LINE
  8
0
 10
892.810554
 20
-616.721549
 30
0.0
 11
893.810554
 21
-617.721549
 31
0.0
  0
LINE
  8
0
 10
912.010554
 20
-616.721549
 30
0.0
 11
911.010554
 21
-617.721549
 31
0.0
  0
LINE
  8
0
 10
895.410554
 20
-625.721549
 30
0.0
 11
895.410554
 21
-617.721549
 31
0.0
  0
LINE
  8
0
 10
893.810554
 20
-617.721549
 30
0.0
 11
911.010554
 21
-617.721549
 31
0.0
  0
LINE
  8
0
 10
909.410554
 20
-625.721549
 30
0.0
 11
909.410554
 21
-617.721549
 31
0.0
  0
LINE
  8
0
 10
857.714885
 20
-625.721549
 30
0.0
 11
857.714885
 21
-616.221549
 31
0.0
  0
ARC
  8
0
 10
877.167649
 20
-608.32598
 30
0.0
 40
20.994047
 50
161.340797
 51
202.091456
  0
ARC
  8
0
 10
815.858468
 20
-580.844241
 30
0.0
 40
45.468483
 50
19.657514
 51
34.424333
  0
ARC
  8
0
 10
817.260686
 20
-581.998243
 30
0.0
 40
44.563447
 50
333.891799
 51
21.66164
  0
ARC
  8
0
 10
885.771303
 20
-580.844241
 30
0.0
 40
45.468483
 50
145.575667
 51
160.342486
  0
ARC
  8
0
 10
824.462122
 20
-608.32598
 30
0.0
 40
20.994047
 50
337.908544
 51
18.659203
  0
ARC
  8
0
 10
884.369085
 20
-581.998243
 30
0.0
 40
44.563447
 50
158.33836
 51
206.108201
  0
ARC
  8
0
 10
850.814885
 20
-556.721549
 30
0.0
 40
3.0
 50
31.81268
 51
148.18732
  0
LINE
  8
0
 10
843.914885
 20
-616.221549
 30
0.0
 11
857.714885
 21
-616.221549
 31
0.0
  0
LINE
  8
0
 10
843.914885
 20
-625.721549
 30
0.0
 11
843.914885
 21
-616.221549
 31
0.0
  0
TEXT
  8
0
 10
777.457473
 20
-806.893642
 30
0.0
 40
10.0
  1
F
  0
LINE
  8
0
 10
811.168838
 20
-872.96535
 30
0.0
 11
779.92866
 21
-850.611335
 31
0.0
  0
LINE
  8
0
 10
811.168838
 20
-872.96535
 30
0.0
 11
842.409016
 21
-850.611335
 31
0.0
  0
LINE
  8
0
 10
923.310036
 20
-872.96535
 30
0.0
 11
954.550214
 21
-850.611335
 31
0.0
  0
LINE
  8
0
 10
923.310036
 20
-872.96535
 30
0.0
 11
892.069858
 21
-850.611335
 31
0.0
  0
TEXT
  8
0
 10
889.598671
 20
-806.893642
 30
0.0
 40
10.0
  1
F
  0
LINE
  8
0
 10
944.150214
 20
-841.811335
 30
0.0
 11
944.150214
 21
-836.811335
 31
0.0
  0
LINE
  8
0
 10
944.150214
 20
-836.811335
 30
0.0
 11
964.950214
 21
-836.811335
 31
0.0
  0
ARC
  8
0
 10
954.550214
 20
-770.811335
 30
0.0
 40
3.0
 50
44.590664
 51
135.409336
  0
ARC
  8
0
 10
993.206181
 20
-797.786263
 30
0.0
 40
51.157558
 50
152.899661
 51
200.551187
  0
ARC
  8
0
 10
925.055427
 20
-825.200353
 30
0.0
 40
22.347836
 50
328.697437
 51
25.030925
  0
ARC
  8
0
 10
965.41357
 20
-784.232264
 30
0.0
 40
20.250511
 50
129.93724
 51
151.215895
  0
LINE
  8
0
 10
944.150214
 20
-841.811335
 30
0.0
 11
945.150214
 21
-842.811335
 31
0.0
  0
LINE
  8
0
 10
964.950214
 20
-841.811335
 30
0.0
 11
963.950214
 21
-842.811335
 31
0.0
  0
ARC
  8
0
 10
984.045
 20
-825.200353
 30
0.0
 40
22.347836
 50
154.969075
 51
211.302563
  0
ARC
  8
0
 10
915.894246
 20
-797.786263
 30
0.0
 40
51.157558
 50
339.448813
 51
27.100339
  0
LINE
  8
0
 10
964.950214
 20
-841.811335
 30
0.0
 11
964.950214
 21
-836.811335
 31
0.0
  0
ARC
  8
0
 10
943.686857
 20
-784.232264
 30
0.0
 40
20.250511
 50
28.784105
 51
50.06276
  0
LINE
  8
0
 10
946.550214
 20
-850.611335
 30
0.0
 11
946.550214
 21
-842.811335
 31
0.0
  0
LINE
  8
0
 10
962.550214
 20
-850.611335
 30
0.0
 11
962.550214
 21
-842.811335
 31
0.0
  0
LINE
  8
0
 10
945.150214
 20
-842.811335
 30
0.0
 11
963.950214
 21
-842.811335
 31
0.0
  0
ARC
  8
0
 10
859.762271
 20
-798.356268
 30
0.0
 40
43.890162
 50
25.917183
 51
36.693263
  0
ARC
  8
0
 10
923.418088
 20
-831.206228
 30
0.0
 40
25.17133
 50
156.183171
 51
201.940505
  0
ARC
  8
0
 10
856.000666
 20
-801.312994
 30
0.0
 40
48.576363
 50
336.037551
 51
27.114778
  0
ARC
  8
0
 10
924.377446
 20
-798.356268
 30
0.0
 40
43.890162
 50
143.306737
 51
154.082817
  0
ARC
  8
0
 10
860.721629
 20
-831.206228
 30
0.0
 40
25.17133
 50
338.059495
 51
23.816829
  0
ARC
  8
0
 10
928.139051
 20
-801.312994
 30
0.0
 40
48.576363
 50
152.885222
 51
203.962449
  0
ARC
  8
0
 10
892.069858
 20
-774.111335
 30
0.0
 40
3.5
 50
34.467679
 51
145.532321
  0
LINE
  8
0
 10
884.069858
 20
-840.611335
 30
0.0
 11
900.069858
 21
-840.611335
 31
0.0
  0
LINE
  8
0
 10
900.069858
 20
-850.611335
 30
0.0
 11
900.069858
 21
-840.611335
 31
0.0
  0
LINE
  8
0
 10
884.069858
 20
-850.611335
 30
0.0
 11
884.069858
 21
-840.611335
 31
0.0
  0
TEXT
  8
0
 10
1227.509483
 20
-401.157145
 30
0.0
 40
10.0
  1
F
  0
LINE
  8
0
 10
1270.563809
 20
-469.788844
 30
0.0
 11
1230.750653
 21
-450.122904
 31
0.0
  0
LINE
  8
0
 10
1270.563809
 20
-469.788844
 30
0.0
 11
1310.376964
 21
-450.122904
 31
0.0
  0
LINE
  8
0
 10
1409.647311
 20
-469.788844
 30
0.0
 11
1449.460467
 21
-450.122904
 31
0.0
  0
LINE
  8
0
 10
1409.647311
 20
-469.788844
 30
0.0
 11
1369.834156
 21
-450.122904
 31
0.0
  0
TEXT
  8
0
 10
1366.592986
 20
-401.157145
 30
0.0
 40
10.0
  1
F
  0
LINE
  8
0
 10
1438.960467
 20
-439.922904
 30
0.0
 11
1440.460467
 21
-439.922904
 31
0.0
  0
LINE
  8
0
 10
1437.960467
 20
-438.922904
 30
0.0
 11
1437.960467
 21
-433.922904
 31
0.0
  0
ARC
  8
0
 10
1449.460467
 20
-359.422904
 30
0.0
 40
4.5
 50
36.512623
 51
143.487377
  0
ARC
  8
0
 10
1480.600177
 20
-385.486085
 30
0.0
 40
45.119316
 50
150.518193
 51
199.668413
  0
ARC
  8
0
 10
1464.797589
 20
-374.686669
 30
0.0
 40
26.098637
 50
136.572144
 51
154.085364
  0
LINE
  8
0
 10
1437.960467
 20
-433.922904
 30
0.0
 11
1460.960467
 21
-433.922904
 31
0.0
  0
ARC
  8
0
 10
1402.491484
 20
-417.134167
 30
0.0
 40
39.241692
 50
334.670134
 51
24.803194
  0
LINE
  8
0
 10
1437.960467
 20
-438.922904
 30
0.0
 11
1438.960467
 21
-439.922904
 31
0.0
  0
ARC
  8
0
 10
1434.123345
 20
-374.686669
 30
0.0
 40
26.098637
 50
25.914636
 51
43.427856
  0
ARC
  8
0
 10
1418.320757
 20
-385.486085
 30
0.0
 40
45.119316
 50
340.331587
 51
29.481807
  0
ARC
  8
0
 10
1496.42945
 20
-417.134167
 30
0.0
 40
39.241692
 50
155.196806
 51
205.329866
  0
LINE
  8
0
 10
1460.960467
 20
-438.922904
 30
0.0
 11
1459.960467
 21
-439.922904
 31
0.0
  0
LINE
  8
0
 10
1460.960467
 20
-438.922904
 30
0.0
 11
1460.960467
 21
-433.922904
 31
0.0
  0
LINE
  8
0
 10
1440.460467
 20
-450.122904
 30
0.0
 11
1440.460467
 21
-439.922904
 31
0.0
  0
LINE
  8
0
 10
1458.460467
 20
-450.122904
 30
0.0
 11
1458.460467
 21
-439.922904
 31
0.0
  0
LINE
  8
0
 10
1438.960467
 20
-439.922904
 30
0.0
 11
1459.960467
 21
-439.922904
 31
0.0
  0
LINE
  8
0
 10
1378.834156
 20
-450.122904
 30
0.0
 11
1378.834156
 21
-439.622904
 31
0.0
  0
ARC
  8
0
 10
1421.826376
 20
-427.225601
 30
0.0
 40
44.743984
 50
161.899305
 51
196.085527
  0
ARC
  8
0
 10
1330.894621
 20
-391.8789
 30
0.0
 40
52.940153
 50
336.103521
 51
23.685354
  0
ARC
  8
0
 10
1339.282123
 20
-388.729015
 30
0.0
 40
43.99649
 50
24.316736
 51
36.023122
  0
ARC
  8
0
 10
1400.386189
 20
-388.729015
 30
0.0
 40
43.99649
 50
143.976878
 51
155.683264
  0
ARC
  8
0
 10
1317.841936
 20
-427.225601
 30
0.0
 40
44.743984
 50
343.914473
 51
18.100695
  0
ARC
  8
0
 10
1408.77369
 20
-391.8789
 30
0.0
 40
52.940153
 50
156.314646
 51
203.896479
  0
ARC
  8
0
 10
1369.834156
 20
-366.122904
 30
0.0
 40
6.0
 50
33.010301
 51
146.989699
  0
LINE
  8
0
 10
1360.834156
 20
-439.622904
 30
0.0
 11
1378.834156
 21
-439.622904
 31
0.0
  0
LINE
  8
0
 10
1360.834156
 20
-450.122904
 30
0.0
 11
1360.834156
 21
-439.622904
 31
0.0
  0
TEXT
  8
0
 10
1274.433638
 20
-664.518136
 30
0.0
 40
12.0
  1
F
  0
LINE
  8
0
 10
1320.563809
 20
-740.996821
 30
0.0
 11
1278.416291
 21
-721.863275
 31
0.0
  0
LINE
  8
0
 10
1320.563809
 20
-740.996821
 30
0.0
 11
1362.711326
 21
-721.863275
 31
0.0
  0
LINE
  8
0
 10
1351.211326
 20
-711.663275
 30
0.0
 11
1374.211326
 21
-711.663275
 31
0.0
  0
LINE
  8
0
 10
1372.711326
 20
-721.863275
 30
0.0
 11
1372.711326
 21
-711.663275
 31
0.0
  0
LINE
  8
0
 10
1352.711326
 20
-721.863275
 30
0.0
 11
1352.711326
 21
-711.663275
 31
0.0
  0
LINE
  8
0
 10
1375.211326
 20
-710.663275
 30
0.0
 11
1374.211326
 21
-711.663275
 31
0.0
  0
LINE
  8
0
 10
1375.211326
 20
-710.663275
 30
0.0
 11
1375.211326
 21
-704.163275
 31
0.0
  0
ARC
  8
0
 10
1409.872636
 20
-686.405705
 30
0.0
 40
38.945317
 50
161.617497
 51
207.126824
  0
ARC
  8
0
 10
1327.970614
 20
-650.886238
 30
0.0
 40
50.595981
 50
332.65937
 51
31.791479
  0
ARC
  8
0
 10
1347.463555
 20
-636.973083
 30
0.0
 40
26.74301
 50
28.455234
 51
43.251298
  0
LINE
  8
0
 10
1350.211326
 20
-710.663275
 30
0.0
 11
1351.211326
 21
-711.663275
 31
0.0
  0
ARC
  8
0
 10
1377.959098
 20
-636.973083
 30
0.0
 40
26.74301
 50
136.748702
 51
151.544766
  0
ARC
  8
0
 10
1315.550016
 20
-686.405705
 30
0.0
 40
38.945317
 50
332.873176
 51
18.382503
  0
ARC
  8
0
 10
1397.452039
 20
-650.886238
 30
0.0
 40
50.595981
 50
148.208521
 51
207.34063
  0
ARC
  8
0
 10
1362.711326
 20
-622.163275
 30
0.0
 40
5.5
 50
39.717147
 51
140.282853
  0
LINE
  8
0
 10
1350.211326
 20
-704.163275
 30
0.0
 11
1375.211326
 21
-704.163275
 31
0.0
  0
LINE
  8
0
 10
1375.211326
 20
-710.663275
 30
0.0
 11
1375.211326
 21
-704.163275
 31
0.0
  0
LINE
  8
0
 10
1350.211326
 20
-710.663275
 30
0.0
 11
1350.211326
 21
-704.163275
 31
0.0
  0
LINE
  8
0
 10
1501.264099
 20
-710.663275
 30
0.0
 11
1501.264099
 21
-704.163275
 31
0.0
  0
LINE
  8
0
 10
1526.264099
 20
-710.663275
 30
0.0
 11
1526.264099
 21
-704.163275
 31
0.0
  0
LINE
  8
0
 10
1501.264099
 20
-704.163275
 30
0.0
 11
1526.264099
 21
-704.163275
 31
0.0
  0
ARC
  8
0
 10
1513.764099
 20
-622.163275
 30
0.0
 40
5.5
 50
39.717147
 51
140.282853
  0
ARC
  8
0
 10
1548.504811
 20
-650.886238
 30
0.0
 40
50.595981
 50
148.208521
 51
207.34063
  0
ARC
  8
0
 10
1466.602789
 20
-686.405705
 30
0.0
 40
38.945317
 50
332.873176
 51
18.382503
  0
ARC
  8
0
 10
1529.01187
 20
-636.973083
 30
0.0
 40
26.74301
 50
136.748702
 51
151.544766
  0
LINE
  8
0
 10
1501.264099
 20
-710.663275
 30
0.0
 11
1502.264099
 21
-711.663275
 31
0.0
  0
ARC
  8
0
 10
1498.516327
 20
-636.973083
 30
0.0
 40
26.74301
 50
28.455234
 51
43.251298
  0
ARC
  8
0
 10
1479.023386
 20
-650.886238
 30
0.0
 40
50.595981
 50
332.65937
 51
31.791479
  0
ARC
  8
0
 10
1560.925409
 20
-686.405705
 30
0.0
 40
38.945317
 50
161.617497
 51
207.126824
  0
LINE
  8
0
 10
1526.264099
 20
-710.663275
 30
0.0
 11
1526.264099
 21
-704.163275
 31
0.0
  0
LINE
  8
0
 10
1526.264099
 20
-710.663275
 30
0.0
 11
1525.264099
 21
-711.663275
 31
0.0
  0
LINE
  8
0
 10
1503.764099
 20
-721.863275
 30
0.0
 11
1503.764099
 21
-711.663275
 31
0.0
  0
LINE
  8
0
 10
1523.764099
 20
-721.863275
 30
0.0
 11
1523.764099
 21
-711.663275
 31
0.0
  0
LINE
  8
0
 10
1502.264099
 20
-711.663275
 30
0.0
 11
1525.264099
 21
-711.663275
 31
0.0
  0
LINE
  8
0
 10
1471.616581
 20
-740.996821
 30
0.0
 11
1513.764099
 21
-721.863275
 31
0.0
  0
LINE
  8
0
 10
1471.616581
 20
-740.996821
 30
0.0
 11
1429.469063
 21
-721.863275
 31
0.0
  0
TEXT
  8
0
 10
1425.48641
 20
-664.518136
 30
0.0
 40
12.0
  1
F
  0
LINE
  8
0
 10
1439.469063
 20
-721.863275
 30
0.0
 11
1439.469063
 21
-708.863275
 31
0.0
  0
ARC
  8
0
 10
1475.87791
 20
-696.31223
 30
0.0
 40
38.511464
 50
158.624529
 51
199.020359
  0
ARC
  8
0
 10
1384.601183
 20
-657.064781
 30
0.0
 40
60.879737
 50
335.536766
 51
22.287707
  0
ARC
  8
0
 10
1409.08235
 20
-645.512247
 30
0.0
 40
33.875285
 50
19.911005
 51
35.375805
  0
ARC
  8
0
 10
1449.855776
 20
-645.512247
 30
0.0
 40
33.875285
 50
144.624195
 51
160.088995
  0
ARC
  8
0
 10
1383.060216
 20
-696.31223
 30
0.0
 40
38.511464
 50
340.979641
 51
21.375471
  0
ARC
  8
0
 10
1474.336943
 20
-657.064781
 30
0.0
 40
60.879737
 50
157.712293
 51
204.463234
  0
ARC
  8
0
 10
1429.469063
 20
-630.363275
 30
0.0
 40
8.5
 50
31.669674
 51
148.330326
  0
LINE
  8
0
 10
1419.469063
 20
-721.863275
 30
0.0
 11
1419.469063
 21
-708.863275
 31
0.0
  0
LINE
  8
0
 10
1419.469063
 20
-708.863275
 30
0.0
 11
1439.469063
 21
-708.863275
 31
0.0
  0
LINE
  8
0
 10
799.668838
 20
-878.26535
 30
0.0
 11
799.668838
 21
-872.96535
 31
0.0
  0
LINE
  8
0
 10
799.668838
 20
-878.25535
 30
0.0
 11
799.668838
 21
-878.24735
 31
0.0
  0
LINE
  8
0
 10
799.668838
 20
-878.24435
 30
0.0
 11
799.668838
 21
-878.23565
 31
0.0
  0
ENDSEC
  0
EOF
