  0
SECTION
  2
HEADER
  9
$ACADVER
  1
AC1009
  9
$INSBASE
 10
0.0
 20
0.0
 30
0.0
  9
$EXTMIN
 10
-412.607349
 20
-527.074955
 30
0.0
  9
$EXTMAX
 10
849.036848
 20
477.706426
 30
0.0
  9
$LIMMIN
 10
0.0
 20
0.0
  9
$LIMMAX
 10
12.0
 20
9.0
  9
$ORTHOMODE
 70
     1
  9
$REGENMODE
 70
     1
  9
$FILLMODE
 70
     1
  9
$QTEXTMODE
 70
     0
  9
$MIRRTEXT
 70
     1
  9
$DRAGMODE
 70
     2
  9
$LTSCALE
 40
7.0
  9
$OSMODE
 70
     0
  9
$ATTMODE
 70
     1
  9
$TEXTSIZE
 40
5.0
  9
$TRACEWID
 40
0.05
  9
$TEXTSTYLE
  7
STANDARD
  9
$CLAYER
  8
0
  9
$CELTYPE
  6
BYLAYER
  9
$CECOLOR
 62
   256
  9
$DIMSCALE
 40
1.0
  9
$DIMASZ
 40
2.5
  9
$DIMEXO
 40
0.0
  9
$DIMDLI
 40
5.0
  9
$DIMRND
 40
0.0
  9
$DIMDLE
 40
0.0
  9
$DIMEXE
 40
1.0
  9
$DIMTP
 40
0.0
  9
$DIMTM
 40
0.0
  9
$DIMTXT
 40
2.5
  9
$DIMCEN
 40
0.09
  9
$DIMTSZ
 40
0.0
  9
$DIMTOL
 70
     0
  9
$DIMLIM
 70
     0
  9
$DIMTIH
 70
     0
  9
$DIMTOH
 70
     0
  9
$DIMSE1
 70
     0
  9
$DIMSE2
 70
     0
  9
$DIMTAD
 70
     1
  9
$DIMZIN
 70
     0
  9
$DIMBLK
  1

  9
$DIMASO
 70
     0
  9
$DIMSHO
 70
     0
  9
$DIMPOST
  1

  9
$DIMAPOST
  1

  9
$DIMALT
 70
     0
  9
$DIMALTD
 70
     2
  9
$DIMALTF
 40
25.4
  9
$DIMLFAC
 40
1.0
  9
$DIMTOFL
 70
     1
  9
$DIMTVP
 40
0.0
  9
$DIMTIX
 70
     0
  9
$DIMSOXD
 70
     0
  9
$DIMSAH
 70
     0
  9
$DIMBLK1
  1

  9
$DIMBLK2
  1

  9
$DIMSTYLE
  2
*UNNAMED
  9
$DIMCLRD
 70
     0
  9
$DIMCLRE
 70
     0
  9
$DIMCLRT
 70
     0
  9
$DIMTFAC
 40
1.0
  9
$DIMGAP
 40
0.09
  9
$LUNITS
 70
     2
  9
$LUPREC
 70
     4
  9
$SKETCHINC
 40
0.1
  9
$FILLETRAD
 40
10.0
  9
$AUNITS
 70
     0
  9
$AUPREC
 70
     0
  9
$MENU
  1
wiberger
  9
$ELEVATION
 40
0.0
  9
$PELEVATION
 40
0.0
  9
$THICKNESS
 40
0.0
  9
$LIMCHECK
 70
     0
  9
$BLIPMODE
 70
     1
  9
$CHAMFERA
 40
0.0
  9
$CHAMFERB
 40
0.0
  9
$SKPOLY
 70
     0
  9
$TDCREATE
 40
2450191.294356134
  9
$TDUPDATE
 40
2450210.411583912
  9
$TDINDWG
 40
0.0005906250
  9
$TDUSRTIMER
 40
0.0005906250
  9
$USRTIMER
 70
     1
  9
$ANGBASE
 50
0.0
  9
$ANGDIR
 70
     0
  9
$PDMODE
 70
     0
  9
$PDSIZE
 40
0.0
  9
$PLINEWID
 40
0.0
  9
$COORDS
 70
     2
  9
$SPLFRAME
 70
     0
  9
$SPLINETYPE
 70
     6
  9
$SPLINESEGS
 70
     8
  9
$ATTDIA
 70
     0
  9
$ATTREQ
 70
     1
  9
$HANDLING
 70
     0
  9
$HANDSEED
  5
0
  9
$SURFTAB1
 70
     6
  9
$SURFTAB2
 70
     6
  9
$SURFTYPE
 70
     6
  9
$SURFU
 70
     6
  9
$SURFV
 70
     6
  9
$UCSNAME
  2

  9
$UCSORG
 10
0.0
 20
0.0
 30
0.0
  9
$UCSXDIR
 10
1.0
 20
0.0
 30
0.0
  9
$UCSYDIR
 10
0.0
 20
1.0
 30
0.0
  9
$PUCSNAME
  2

  9
$PUCSORG
 10
0.0
 20
0.0
 30
0.0
  9
$PUCSXDIR
 10
1.0
 20
0.0
 30
0.0
  9
$PUCSYDIR
 10
0.0
 20
1.0
 30
0.0
  9
$USERI1
 70
     0
  9
$USERI2
 70
     0
  9
$USERI3
 70
     0
  9
$USERI4
 70
     0
  9
$USERI5
 70
     0
  9
$USERR1
 40
0.0
  9
$USERR2
 40
0.0
  9
$USERR3
 40
0.0
  9
$USERR4
 40
0.0
  9
$USERR5
 40
0.0
  9
$WORLDVIEW
 70
     1
  9
$SHADEDGE
 70
     3
  9
$SHADEDIF
 70
    70
  9
$TILEMODE
 70
     1
  9
$MAXACTVP
 70
    16
  9
$PINSBASE
 10
0.0
 20
0.0
 30
0.0
  9
$PLIMCHECK
 70
     0
  9
$PEXTMIN
 10
1.000000E+20
 20
1.000000E+20
 30
1.000000E+20
  9
$PEXTMAX
 10
-1.000000E+20
 20
-1.000000E+20
 30
-1.000000E+20
  9
$PLIMMIN
 10
0.0
 20
0.0
  9
$PLIMMAX
 10
12.0
 20
9.0
  9
$UNITMODE
 70
     0
  9
$VISRETAIN
 70
     0
  9
$PLINEGEN
 70
     0
  9
$PSLTSCALE
 70
     0
  9
$TREEDEPTH
 70
  3020
  9
$DWGCODEPAGE
  3
undefined
  0
ENDSEC
  0
SECTION
  2
TABLES
  0
TABLE
  2
VPORT
 70
     2
  0
VPORT
  2
*ACTIVE
 70
     0
 10
0.0
 20
0.0
 11
1.0
 21
1.0
 12
496.589225
 22
-24.684265
 13
0.0
 23
0.0
 14
1.0
 24
1.0
 15
0.0
 25
0.0
 16
0.0
 26
0.0
 36
1.0
 17
0.0
 27
0.0
 37
0.0
 40
1116.423756
 41
1.767507
 42
50.0
 43
0.0
 44
0.0
 50
0.0
 51
0.0
 71
     0
 72
   100
 73
     1
 74
     0
 75
     0
 76
     0
 77
     0
 78
     0
  0
ENDTAB
  0
TABLE
  2
LTYPE
 70
     2
  0
LTYPE
  2
CONTINUOUS
 70
    64
  3
Solid line
 72
    65
 73
     0
 40
0.0
  0
LTYPE
  2
CENTER
 70
    64
  3
____ _ ____ _ ____ _ ____ _ ____ _ ____ _ ____
 72
    65
 73
     4
 40
2.0
 49
1.25
 49
-0.25
 49
0.25
 49
-0.25
  0
ENDTAB
  0
TABLE
  2
LAYER
 70
     1
  0
LAYER
  2
0
 70
    64
 62
     7
  6
CONTINUOUS
  0
ENDTAB
  0
TABLE
  2
STYLE
 70
     1
  0
STYLE
  2
STANDARD
 70
    64
 40
0.0
 41
1.0
 50
0.0
 71
     0
 42
5.0
  3
txt
  4

  0
ENDTAB
  0
TABLE
  2
VIEW
 70
     0
  0
ENDTAB
  0
TABLE
  2
UCS
 70
     0
  0
ENDTAB
  0
TABLE
  2
APPID
 70
     1
  0
APPID
  2
ACAD
 70
    64
  0
ENDTAB
  0
TABLE
  2
DIMSTYLE
 70
     0
  0
ENDTAB
  0
ENDSEC
  0
SECTION
  2
BLOCKS
  0
BLOCK
  8
0
  2
*X0
 70
    65
 10
0.0
 20
0.0
 30
0.0
  3
*X
  0
LINE
  8
0
 62
     0
 10
-101.597007
 20
-133.416812
 30
0.0
 11
-98.147007
 21
-129.966812
 31
0.0
  0
LINE
  8
0
 62
     0
 10
-101.597007
 20
-131.295492
 30
0.0
 11
-98.147007
 21
-127.845492
 31
0.0
  0
LINE
  8
0
 62
     0
 10
-101.597007
 20
-129.174172
 30
0.0
 11
-98.147007
 21
-125.724172
 31
0.0
  0
LINE
  8
0
 62
     0
 10
-103.172459
 20
-128.628303
 30
0.0
 11
-98.147007
 21
-123.602851
 31
0.0
  0
LINE
  8
0
 62
     0
 10
-103.597007
 20
-126.931531
 30
0.0
 11
-99.475943
 21
-122.810467
 31
0.0
  0
LINE
  8
0
 62
     0
 10
-103.597007
 20
-124.810211
 30
0.0
 11
-101.597264
 21
-122.810467
 31
0.0
  0
LINE
  8
0
 62
     0
 10
-101.597007
 20
-135.538133
 30
0.0
 11
-98.147007
 21
-132.088133
 31
0.0
  0
LINE
  8
0
 62
     0
 10
-101.597007
 20
-137.659453
 30
0.0
 11
-98.147007
 21
-134.209453
 31
0.0
  0
LINE
  8
0
 62
     0
 10
-101.597007
 20
-139.780773
 30
0.0
 11
-98.147007
 21
-136.330773
 31
0.0
  0
LINE
  8
0
 62
     0
 10
-101.597007
 20
-141.902094
 30
0.0
 11
-98.147007
 21
-138.452094
 31
0.0
  0
LINE
  8
0
 62
     0
 10
-100.38406
 20
-142.810467
 30
0.0
 11
-98.147007
 21
-140.573414
 31
0.0
  0
ENDBLK
  8
0
  0
BLOCK
  8
0
  2
*X1
 70
    65
 10
0.0
 20
0.0
 30
0.0
  3
*X
  0
LINE
  8
0
 62
     0
 10
-107.156457
 20
-425.354508
 30
0.0
 11
-101.706457
 21
-419.904508
 31
0.0
  0
LINE
  8
0
 62
     0
 10
-107.156457
 20
-423.233188
 30
0.0
 11
-101.706457
 21
-417.783188
 31
0.0
  0
LINE
  8
0
 62
     0
 10
-107.156457
 20
-421.111868
 30
0.0
 11
-101.706457
 21
-415.661868
 31
0.0
  0
LINE
  8
0
 62
     0
 10
-108.719955
 20
-420.554045
 30
0.0
 11
-101.706457
 21
-413.540547
 31
0.0
  0
LINE
  8
0
 62
     0
 10
-109.156457
 20
-418.869227
 30
0.0
 11
-103.215158
 21
-412.927928
 31
0.0
  0
LINE
  8
0
 62
     0
 10
-109.156457
 20
-416.747907
 30
0.0
 11
-105.336478
 21
-412.927928
 31
0.0
  0
LINE
  8
0
 62
     0
 10
-109.156457
 20
-414.626586
 30
0.0
 11
-107.457798
 21
-412.927928
 31
0.0
  0
LINE
  8
0
 62
     0
 10
-107.156457
 20
-427.475829
 30
0.0
 11
-101.706457
 21
-422.025829
 31
0.0
  0
LINE
  8
0
 62
     0
 10
-107.156457
 20
-429.597149
 30
0.0
 11
-101.706457
 21
-424.147149
 31
0.0
  0
LINE
  8
0
 62
     0
 10
-107.156457
 20
-431.718469
 30
0.0
 11
-101.706457
 21
-426.268469
 31
0.0
  0
LINE
  8
0
 62
     0
 10
-107.156457
 20
-433.83979
 30
0.0
 11
-101.706457
 21
-428.38979
 31
0.0
  0
LINE
  8
0
 62
     0
 10
-107.156457
 20
-435.96111
 30
0.0
 11
-101.706457
 21
-430.51111
 31
0.0
  0
LINE
  8
0
 62
     0
 10
-106.001954
 20
-436.927928
 30
0.0
 11
-101.706457
 21
-432.63243
 31
0.0
  0
LINE
  8
0
 62
     0
 10
-103.880634
 20
-436.927928
 30
0.0
 11
-101.706457
 21
-434.753751
 31
0.0
  0
ENDBLK
  8
0
  0
BLOCK
  8
0
  2
*X2
 70
    65
 10
0.0
 20
0.0
 30
0.0
  3
*X
  0
LINE
  8
0
 62
     0
 10
-116.743833
 20
-787.081062
 30
0.0
 11
-108.793833
 21
-779.131062
 31
0.0
  0
LINE
  8
0
 62
     0
 10
-116.743833
 20
-784.252635
 30
0.0
 11
-108.793833
 21
-776.302635
 31
0.0
  0
LINE
  8
0
 62
     0
 10
-116.743833
 20
-781.424208
 30
0.0
 11
-108.793833
 21
-773.474208
 31
0.0
  0
LINE
  8
0
 62
     0
 10
-119.066747
 20
-780.918694
 30
0.0
 11
-108.793833
 21
-770.645781
 31
0.0
  0
LINE
  8
0
 62
     0
 10
-119.743833
 20
-778.767353
 30
0.0
 11
-111.395207
 21
-770.418727
 31
0.0
  0
LINE
  8
0
 62
     0
 10
-119.743833
 20
-775.938926
 30
0.0
 11
-114.223634
 21
-770.418727
 31
0.0
  0
LINE
  8
0
 62
     0
 10
-119.743833
 20
-773.110499
 30
0.0
 11
-117.052062
 21
-770.418727
 31
0.0
  0
LINE
  8
0
 62
     0
 10
-116.743833
 20
-789.909489
 30
0.0
 11
-108.793833
 21
-781.959489
 31
0.0
  0
LINE
  8
0
 62
     0
 10
-116.743833
 20
-792.737916
 30
0.0
 11
-108.793833
 21
-784.787916
 31
0.0
  0
LINE
  8
0
 62
     0
 10
-116.743833
 20
-795.566343
 30
0.0
 11
-108.793833
 21
-787.616343
 31
0.0
  0
LINE
  8
0
 62
     0
 10
-116.743833
 20
-798.39477
 30
0.0
 11
-108.793833
 21
-790.44477
 31
0.0
  0
LINE
  8
0
 62
     0
 10
-116.743833
 20
-801.223198
 30
0.0
 11
-108.793833
 21
-793.273198
 31
0.0
  0
LINE
  8
0
 62
     0
 10
-116.427385
 20
-803.735176
 30
0.0
 11
-108.793833
 21
-796.101625
 31
0.0
  0
LINE
  8
0
 62
     0
 10
-114.282509
 20
-804.418727
 30
0.0
 11
-108.793833
 21
-798.930052
 31
0.0
  0
LINE
  8
0
 62
     0
 10
-111.454082
 20
-804.418727
 30
0.0
 11
-108.793833
 21
-801.758479
 31
0.0
  0
ENDBLK
  8
0
  0
BLOCK
  8
0
  2
*X3
 70
    65
 10
0.0
 20
0.0
 30
0.0
  3
*X
  0
LINE
  8
0
 62
     0
 10
321.19231
 20
-38.017934
 30
0.0
 11
329.09231
 21
-30.117934
 31
0.0
  0
LINE
  8
0
 62
     0
 10
321.19231
 20
-35.189507
 30
0.0
 11
329.09231
 21
-27.289507
 31
0.0
  0
LINE
  8
0
 62
     0
 10
321.19231
 20
-32.36108
 30
0.0
 11
329.09231
 21
-24.46108
 31
0.0
  0
LINE
  8
0
 62
     0
 10
321.19231
 20
-29.532653
 30
0.0
 11
329.09231
 21
-21.632653
 31
0.0
  0
LINE
  8
0
 62
     0
 10
319.296533
 20
-28.600004
 30
0.0
 11
329.09231
 21
-18.804226
 31
0.0
  0
LINE
  8
0
 62
     0
 10
318.44231
 20
-26.625799
 30
0.0
 11
327.607372
 21
-17.460737
 31
0.0
  0
LINE
  8
0
 62
     0
 10
318.44231
 20
-23.797372
 30
0.0
 11
324.778945
 21
-17.460737
 31
0.0
  0
LINE
  8
0
 62
     0
 10
318.44231
 20
-20.968945
 30
0.0
 11
321.950517
 21
-17.460737
 31
0.0
  0
LINE
  8
0
 62
     0
 10
321.19231
 20
-40.846362
 30
0.0
 11
329.09231
 21
-32.946362
 31
0.0
  0
LINE
  8
0
 62
     0
 10
321.19231
 20
-43.674789
 30
0.0
 11
329.09231
 21
-35.774789
 31
0.0
  0
LINE
  8
0
 62
     0
 10
321.19231
 20
-46.503216
 30
0.0
 11
329.09231
 21
-38.603216
 31
0.0
  0
LINE
  8
0
 62
     0
 10
321.19231
 20
-49.331643
 30
0.0
 11
329.09231
 21
-41.431643
 31
0.0
  0
LINE
  8
0
 62
     0
 10
321.19231
 20
-52.16007
 30
0.0
 11
329.09231
 21
-44.26007
 31
0.0
  0
LINE
  8
0
 62
     0
 10
321.55619
 20
-54.624617
 30
0.0
 11
329.09231
 21
-47.088497
 31
0.0
  0
LINE
  8
0
 62
     0
 10
323.548497
 20
-55.460737
 30
0.0
 11
329.09231
 21
-49.916924
 31
0.0
  0
LINE
  8
0
 62
     0
 10
326.376924
 20
-55.460737
 30
0.0
 11
329.09231
 21
-52.745351
 31
0.0
  0
ENDBLK
  8
0
  0
BLOCK
  8
0
  2
*X4
 70
    65
 10
0.0
 20
0.0
 30
0.0
  3
*X
  0
LINE
  8
0
 62
     0
 10
314.017531
 20
-325.914106
 30
0.0
 11
323.417531
 21
-316.514106
 31
0.0
  0
LINE
  8
0
 62
     0
 10
314.017531
 20
-322.378572
 30
0.0
 11
323.417531
 21
-312.978572
 31
0.0
  0
LINE
  8
0
 62
     0
 10
314.017531
 20
-318.843038
 30
0.0
 11
323.417531
 21
-309.443038
 31
0.0
  0
LINE
  8
0
 62
     0
 10
313.354368
 20
-315.970667
 30
0.0
 11
323.417531
 21
-305.907504
 31
0.0
  0
LINE
  8
0
 62
     0
 10
311.137253
 20
-314.652249
 30
0.0
 11
322.318835
 21
-303.470667
 31
0.0
  0
LINE
  8
0
 62
     0
 10
311.017531
 20
-311.236437
 30
0.0
 11
318.783301
 21
-303.470667
 31
0.0
  0
LINE
  8
0
 62
     0
 10
311.017531
 20
-307.700903
 30
0.0
 11
315.247767
 21
-303.470667
 31
0.0
  0
LINE
  8
0
 62
     0
 10
314.017531
 20
-329.44964
 30
0.0
 11
323.417531
 21
-320.04964
 31
0.0
  0
LINE
  8
0
 62
     0
 10
314.017531
 20
-332.985174
 30
0.0
 11
323.417531
 21
-323.585174
 31
0.0
  0
LINE
  8
0
 62
     0
 10
314.017531
 20
-336.520708
 30
0.0
 11
323.417531
 21
-327.120708
 31
0.0
  0
LINE
  8
0
 62
     0
 10
314.017531
 20
-340.056242
 30
0.0
 11
323.417531
 21
-330.656242
 31
0.0
  0
LINE
  8
0
 62
     0
 10
314.017531
 20
-343.591776
 30
0.0
 11
323.417531
 21
-334.191776
 31
0.0
  0
LINE
  8
0
 62
     0
 10
314.445852
 20
-346.698988
 30
0.0
 11
323.417531
 21
-337.72731
 31
0.0
  0
LINE
  8
0
 62
     0
 10
317.209707
 20
-347.470667
 30
0.0
 11
323.417531
 21
-341.262844
 31
0.0
  0
LINE
  8
0
 62
     0
 10
320.745241
 20
-347.470667
 30
0.0
 11
323.417531
 21
-344.798377
 31
0.0
  0
ENDBLK
  8
0
  0
BLOCK
  8
0
  2
*X5
 70
    65
 10
0.0
 20
0.0
 30
0.0
  3
*X
  0
LINE
  8
0
 62
     0
 10
-110.091427
 20
-576.781903
 30
0.0
 11
-104.141427
 21
-570.831903
 31
0.0
  0
LINE
  8
0
 62
     0
 10
-110.091427
 20
-573.953476
 30
0.0
 11
-104.141427
 21
-568.003476
 31
0.0
  0
LINE
  8
0
 62
     0
 10
-110.091427
 20
-571.125049
 30
0.0
 11
-104.141427
 21
-565.175049
 31
0.0
  0
LINE
  8
0
 62
     0
 10
-112.18774
 20
-570.392934
 30
0.0
 11
-104.141427
 21
-562.346622
 31
0.0
  0
LINE
  8
0
 62
     0
 10
-112.591427
 20
-567.968195
 30
0.0
 11
-106.713415
 21
-562.090182
 31
0.0
  0
LINE
  8
0
 62
     0
 10
-112.591427
 20
-565.139767
 30
0.0
 11
-109.541842
 21
-562.090182
 31
0.0
  0
LINE
  8
0
 62
     0
 10
-110.091427
 20
-579.61033
 30
0.0
 11
-104.141427
 21
-573.66033
 31
0.0
  0
LINE
  8
0
 62
     0
 10
-110.091427
 20
-582.438757
 30
0.0
 11
-104.141427
 21
-576.488757
 31
0.0
  0
LINE
  8
0
 62
     0
 10
-110.091427
 20
-585.267184
 30
0.0
 11
-104.141427
 21
-579.317184
 31
0.0
  0
LINE
  8
0
 62
     0
 10
-110.091427
 20
-588.095612
 30
0.0
 11
-104.141427
 21
-582.145612
 31
0.0
  0
LINE
  8
0
 62
     0
 10
-109.174499
 20
-590.00711
 30
0.0
 11
-104.141427
 21
-584.974039
 31
0.0
  0
LINE
  8
0
 62
     0
 10
-106.429144
 20
-590.090182
 30
0.0
 11
-104.141427
 21
-587.802466
 31
0.0
  0
ENDBLK
  8
0
  0
BLOCK
  8
0
  2
*X6
 70
    65
 10
0.0
 20
0.0
 30
0.0
  3
*X
  0
LINE
  8
0
 62
     0
 10
303.871563
 20
-530.514439
 30
0.0
 11
313.771563
 21
-520.614439
 31
0.0
  0
LINE
  8
0
 62
     0
 10
303.871563
 20
-526.978905
 30
0.0
 11
313.771563
 21
-517.078905
 31
0.0
  0
LINE
  8
0
 62
     0
 10
303.871563
 20
-523.443371
 30
0.0
 11
313.771563
 21
-513.543371
 31
0.0
  0
LINE
  8
0
 62
     0
 10
303.871563
 20
-519.907837
 30
0.0
 11
313.771563
 21
-510.007837
 31
0.0
  0
LINE
  8
0
 62
     0
 10
302.514234
 20
-517.729632
 30
0.0
 11
313.771563
 21
-506.472303
 31
0.0
  0
LINE
  8
0
 62
     0
 10
300.872918
 20
-515.835415
 30
0.0
 11
311.94652
 21
-504.761812
 31
0.0
  0
LINE
  8
0
 62
     0
 10
300.871563
 20
-512.301235
 30
0.0
 11
308.410986
 21
-504.761812
 31
0.0
  0
LINE
  8
0
 62
     0
 10
300.871563
 20
-508.765701
 30
0.0
 11
304.875452
 21
-504.761812
 31
0.0
  0
LINE
  8
0
 62
     0
 10
303.871563
 20
-534.049973
 30
0.0
 11
313.771563
 21
-524.149973
 31
0.0
  0
LINE
  8
0
 62
     0
 10
303.871563
 20
-537.585507
 30
0.0
 11
313.771563
 21
-527.685507
 31
0.0
  0
LINE
  8
0
 62
     0
 10
303.871563
 20
-541.121041
 30
0.0
 11
313.771563
 21
-531.221041
 31
0.0
  0
LINE
  8
0
 62
     0
 10
303.871563
 20
-544.656574
 30
0.0
 11
313.771563
 21
-534.756574
 31
0.0
  0
LINE
  8
0
 62
     0
 10
303.871563
 20
-548.192108
 30
0.0
 11
313.771563
 21
-538.292108
 31
0.0
  0
LINE
  8
0
 62
     0
 10
303.954478
 20
-551.644727
 30
0.0
 11
313.771563
 21
-541.827642
 31
0.0
  0
LINE
  8
0
 62
     0
 10
306.372927
 20
-552.761812
 30
0.0
 11
313.771563
 21
-545.363176
 31
0.0
  0
LINE
  8
0
 62
     0
 10
309.908461
 20
-552.761812
 30
0.0
 11
313.771563
 21
-548.89871
 31
0.0
  0
ENDBLK
  8
0
  0
BLOCK
  8
0
  2
*X7
 70
    65
 10
0.0
 20
0.0
 30
0.0
  3
*X
  0
LINE
  8
0
 62
     0
 10
355.857395
 20
-803.797726
 30
0.0
 11
366.757395
 21
-792.897726
 31
0.0
  0
LINE
  8
0
 62
     0
 10
355.857395
 20
-800.262192
 30
0.0
 11
366.757395
 21
-789.362192
 31
0.0
  0
LINE
  8
0
 62
     0
 10
355.857395
 20
-796.726658
 30
0.0
 11
366.757395
 21
-785.826658
 31
0.0
  0
LINE
  8
0
 62
     0
 10
355.403033
 20
-793.645487
 30
0.0
 11
366.757395
 21
-782.291124
 31
0.0
  0
LINE
  8
0
 62
     0
 10
352.580458
 20
-792.932527
 30
0.0
 11
366.757395
 21
-778.75559
 31
0.0
  0
LINE
  8
0
 62
     0
 10
352.357395
 20
-789.620057
 30
0.0
 11
366.757395
 21
-775.220057
 31
0.0
  0
LINE
  8
0
 62
     0
 10
352.357395
 20
-786.084523
 30
0.0
 11
363.296431
 21
-775.145487
 31
0.0
  0
LINE
  8
0
 62
     0
 10
352.357395
 20
-782.548989
 30
0.0
 11
359.760897
 21
-775.145487
 31
0.0
  0
LINE
  8
0
 62
     0
 10
352.357395
 20
-779.013455
 30
0.0
 11
356.225363
 21
-775.145487
 31
0.0
  0
LINE
  8
0
 62
     0
 10
355.857395
 20
-807.33326
 30
0.0
 11
366.757395
 21
-796.43326
 31
0.0
  0
LINE
  8
0
 62
     0
 10
355.857395
 20
-810.868794
 30
0.0
 11
366.757395
 21
-799.968794
 31
0.0
  0
LINE
  8
0
 62
     0
 10
355.857395
 20
-814.404328
 30
0.0
 11
366.757395
 21
-803.504328
 31
0.0
  0
LINE
  8
0
 62
     0
 10
355.857395
 20
-817.939862
 30
0.0
 11
366.757395
 21
-807.039862
 31
0.0
  0
LINE
  8
0
 62
     0
 10
355.857395
 20
-821.475396
 30
0.0
 11
366.757395
 21
-810.575396
 31
0.0
  0
LINE
  8
0
 62
     0
 10
355.857395
 20
-825.01093
 30
0.0
 11
366.757395
 21
-814.11093
 31
0.0
  0
LINE
  8
0
 62
     0
 10
356.307883
 20
-828.095975
 30
0.0
 11
366.757395
 21
-817.646463
 31
0.0
  0
LINE
  8
0
 62
     0
 10
358.793906
 20
-829.145487
 30
0.0
 11
366.757395
 21
-821.181997
 31
0.0
  0
LINE
  8
0
 62
     0
 10
362.32944
 20
-829.145487
 30
0.0
 11
366.757395
 21
-824.717531
 31
0.0
  0
LINE
  8
0
 62
     0
 10
366.70994
 20
-828.30052
 30
0.0
 11
366.757395
 21
-828.253065
 31
0.0
  0
ENDBLK
  8
0
  0
ENDSEC
  0
SECTION
  2
ENTITIES
  0
LINE
  8
0
 10
-341.84145
 20
-129.204887
 30
0.0
 11
-330.84145
 21
-129.204887
 31
0.0
  0
LINE
  8
0
 10
-341.84145
 20
-136.204887
 30
0.0
 11
-341.84145
 21
-129.204887
 31
0.0
  0
LINE
  8
0
 10
-330.84145
 20
-136.204887
 30
0.0
 11
-330.84145
 21
-129.204887
 31
0.0
  0
ARC
  8
0
 10
-336.34145
 20
-83.704887
 30
0.0
 40
3.5
 50
34.2045
 51
145.7955
  0
ARC
  8
0
 10
-311.906255
 20
-100.919016
 30
0.0
 40
33.435285
 50
160.983708
 51
207.465335
  0
ARC
  8
0
 10
-359.672601
 20
-122.397522
 30
0.0
 40
19.086387
 50
339.104741
 51
18.504927
  0
ARC
  8
0
 10
-319.797002
 20
-97.027867
 30
0.0
 40
24.732105
 50
141.811914
 51
163.550718
  0
ARC
  8
0
 10
-352.885897
 20
-97.027867
 30
0.0
 40
24.732105
 50
16.449282
 51
38.188086
  0
ARC
  8
0
 10
-360.776645
 20
-100.919016
 30
0.0
 40
33.435285
 50
332.534665
 51
19.016292
  0
ARC
  8
0
 10
-313.010298
 20
-122.397522
 30
0.0
 40
19.086387
 50
161.495073
 51
200.895259
  0
LINE
  8
0
 10
-47.185239
 20
273.723392
 30
0.0
 11
-47.185239
 21
282.223392
 31
0.0
  0
LINE
  8
0
 10
-34.185239
 20
273.723392
 30
0.0
 11
-34.185239
 21
282.223392
 31
0.0
  0
LINE
  8
0
 10
-47.185239
 20
282.223392
 30
0.0
 11
-34.185239
 21
282.223392
 31
0.0
  0
ARC
  8
0
 10
-40.685239
 20
333.723392
 30
0.0
 40
4.0
 50
37.908456
 51
142.091544
  0
ARC
  8
0
 10
-14.541796
 20
315.759254
 30
0.0
 40
36.200735
 50
154.649969
 51
204.362726
  0
ARC
  8
0
 10
-69.419762
 20
291.128853
 30
0.0
 40
23.951644
 50
338.172711
 51
24.46049
  0
ARC
  8
0
 10
-23.725466
 20
318.57735
 30
0.0
 40
26.730726
 50
138.810251
 51
151.679491
  0
ARC
  8
0
 10
-57.645012
 20
318.57735
 30
0.0
 40
26.730726
 50
28.320509
 51
41.189749
  0
ARC
  8
0
 10
-66.828683
 20
315.759254
 30
0.0
 40
36.200735
 50
335.637274
 51
25.350031
  0
ARC
  8
0
 10
-11.950717
 20
291.128853
 30
0.0
 40
23.951644
 50
155.53951
 51
201.827289
  0
CIRCLE
  8
0
 10
-21.045641
 20
161.964597
 30
0.0
 40
10.0
  0
LINE
  8
0
 10
-28.743475
 20
59.296834
 30
0.0
 11
-28.743475
 21
68.796834
 31
0.0
  0
LINE
  8
0
 10
-28.743475
 20
68.796834
 30
0.0
 11
-14.943475
 21
68.796834
 31
0.0
  0
ARC
  8
0
 10
-21.843475
 20
128.296834
 30
0.0
 40
3.0
 50
31.81268
 51
148.18732
  0
ARC
  8
0
 10
11.710725
 20
103.02014
 30
0.0
 40
44.563447
 50
158.33836
 51
206.108201
  0
ARC
  8
0
 10
-48.196238
 20
76.692403
 30
0.0
 40
20.994047
 50
337.908544
 51
18.659203
  0
ARC
  8
0
 10
13.112943
 20
104.174142
 30
0.0
 40
45.468483
 50
145.575667
 51
160.342486
  0
ARC
  8
0
 10
-55.397674
 20
103.02014
 30
0.0
 40
44.563447
 50
333.891799
 51
21.66164
  0
ARC
  8
0
 10
-56.799892
 20
104.174142
 30
0.0
 40
45.468483
 50
19.657514
 51
34.424333
  0
ARC
  8
0
 10
4.509289
 20
76.692403
 30
0.0
 40
20.994047
 50
161.340797
 51
202.091456
  0
LINE
  8
0
 10
-14.943475
 20
59.296834
 30
0.0
 11
-14.943475
 21
68.796834
 31
0.0
  0
CIRCLE
  8
0
 10
3.954359
 20
-67.176851
 30
0.0
 40
11.0
  0
LINE
  8
0
 10
-0.285818
 20
-184.911764
 30
0.0
 11
-0.285818
 21
-174.911764
 31
0.0
  0
LINE
  8
0
 10
15.714182
 20
-184.911764
 30
0.0
 11
15.714182
 21
-174.911764
 31
0.0
  0
LINE
  8
0
 10
-0.285818
 20
-174.911764
 30
0.0
 11
15.714182
 21
-174.911764
 31
0.0
  0
ARC
  8
0
 10
7.714182
 20
-108.411764
 30
0.0
 40
3.5
 50
34.467679
 51
145.532321
  0
ARC
  8
0
 10
43.783375
 20
-135.613423
 30
0.0
 40
48.576363
 50
152.885222
 51
203.962449
  0
ARC
  8
0
 10
-23.634047
 20
-165.506657
 30
0.0
 40
25.17133
 50
338.059495
 51
23.816829
  0
ARC
  8
0
 10
40.021769
 20
-132.656696
 30
0.0
 40
43.890162
 50
143.306737
 51
154.082817
  0
ARC
  8
0
 10
-28.355011
 20
-135.613423
 30
0.0
 40
48.576363
 50
336.037551
 51
27.114778
  0
ARC
  8
0
 10
39.062411
 20
-165.506657
 30
0.0
 40
25.17133
 50
156.183171
 51
201.940505
  0
ARC
  8
0
 10
-24.593405
 20
-132.656696
 30
0.0
 40
43.890162
 50
25.917183
 51
36.693263
  0
LINE
  8
0
 10
451.449499
 20
382.506426
 30
0.0
 11
451.449499
 21
393.006426
 31
0.0
  0
LINE
  8
0
 10
451.449499
 20
393.006426
 30
0.0
 11
469.449499
 21
393.006426
 31
0.0
  0
ARC
  8
0
 10
460.449499
 20
466.506426
 30
0.0
 40
6.0
 50
33.010301
 51
146.989699
  0
ARC
  8
0
 10
499.389033
 20
440.750429
 30
0.0
 40
52.940153
 50
156.314646
 51
203.896479
  0
ARC
  8
0
 10
408.457279
 20
405.403729
 30
0.0
 40
44.743984
 50
343.914473
 51
18.100695
  0
ARC
  8
0
 10
491.001532
 20
443.900315
 30
0.0
 40
43.99649
 50
143.976878
 51
155.683264
  0
ARC
  8
0
 10
429.897466
 20
443.900315
 30
0.0
 40
43.99649
 50
24.316736
 51
36.023122
  0
ARC
  8
0
 10
421.509964
 20
440.750429
 30
0.0
 40
52.940153
 50
336.103521
 51
23.685354
  0
ARC
  8
0
 10
512.441718
 20
405.403729
 30
0.0
 40
44.743984
 50
161.899305
 51
196.085527
  0
LINE
  8
0
 10
469.449499
 20
382.506426
 30
0.0
 11
469.449499
 21
393.006426
 31
0.0
  0
CIRCLE
  8
0
 10
500.262654
 20
220.377785
 30
0.0
 40
14.0
  0
LINE
  8
0
 10
498.115136
 20
71.339775
 30
0.0
 11
518.115136
 21
71.339775
 31
0.0
  0
LINE
  8
0
 10
498.115136
 20
58.339775
 30
0.0
 11
498.115136
 21
71.339775
 31
0.0
  0
ARC
  8
0
 10
508.115136
 20
149.839775
 30
0.0
 40
8.5
 50
31.669674
 51
148.330326
  0
ARC
  8
0
 10
552.983016
 20
123.13827
 30
0.0
 40
60.879737
 50
157.712293
 51
204.463234
  0
ARC
  8
0
 10
461.706289
 20
83.89082
 30
0.0
 40
38.511464
 50
340.979641
 51
21.375471
  0
ARC
  8
0
 10
528.501849
 20
134.690803
 30
0.0
 40
33.875285
 50
144.624195
 51
160.088995
  0
ARC
  8
0
 10
487.728423
 20
134.690803
 30
0.0
 40
33.875285
 50
19.911005
 51
35.375805
  0
ARC
  8
0
 10
463.247256
 20
123.13827
 30
0.0
 40
60.879737
 50
335.536766
 51
22.287707
  0
ARC
  8
0
 10
554.523983
 20
83.89082
 30
0.0
 40
38.511464
 50
158.624529
 51
199.020359
  0
LINE
  8
0
 10
518.115136
 20
58.339775
 30
0.0
 11
518.115136
 21
71.339775
 31
0.0
  0
CIRCLE
  8
0
 10
550.262654
 20
-111.886754
 30
0.0
 40
16.0
  0
LINE
  8
0
 10
562.390485
 20
-282.999876
 30
0.0
 11
562.390485
 21
-267.999876
 31
0.0
  0
LINE
  8
0
 10
562.390485
 20
-267.999876
 30
0.0
 11
584.390485
 21
-267.999876
 31
0.0
  0
ARC
  8
0
 10
573.390485
 20
-178.499876
 30
0.0
 40
7.5
 50
29.735141
 51
150.264859
  0
ARC
  8
0
 10
625.559965
 20
-214.428618
 30
0.0
 40
70.184024
 50
162.559546
 51
205.650803
  0
ARC
  8
0
 10
535.36229
 20
-256.518891
 30
0.0
 40
29.365564
 50
336.985279
 51
23.498204
  0
ARC
  8
0
 10
620.085534
 20
-209.582703
 30
0.0
 40
63.578855
 50
146.811502
 51
165.248181
  0
ARC
  8
0
 10
526.695436
 20
-209.582703
 30
0.0
 40
63.578855
 50
14.751819
 51
33.188498
  0
ARC
  8
0
 10
521.221005
 20
-214.428618
 30
0.0
 40
70.184024
 50
334.349197
 51
17.440454
  0
ARC
  8
0
 10
611.41868
 20
-256.518891
 30
0.0
 40
29.365564
 50
156.501796
 51
203.014721
  0
LINE
  8
0
 10
584.390485
 20
-282.999876
 30
0.0
 11
584.390485
 21
-267.999876
 31
0.0
  0
CIRCLE
  8
0
 10
615.262654
 20
-496.574955
 30
0.0
 40
18.0
  0
CIRCLE
  8
0
 10
38.954359
 20
-328.109957
 30
0.0
 40
12.5
  0
INSERT
  8
0
  2
*X0
 10
-306.803235
 20
129.284865
 30
0.0
  0
ARC
  8
0
 10
-401.935776
 20
-19.36632
 30
0.0
 40
6.840718
 50
63.853673
 51
121.370766
  0
LINE
  8
0
 10
-398.92131
 20
-13.225602
 30
0.0
 11
-398.400242
 21
-13.225602
 31
0.0
  0
LINE
  8
0
 10
-247.784534
 20
5.474398
 30
0.0
 11
-247.784534
 21
1.474398
 31
0.0
  0
ARC
  8
0
 10
-248.784534
 20
5.474398
 30
0.0
 40
1.0
 50
0.0
 51
90.0
  0
LINE
  8
0
 10
-266.884534
 20
29.474398
 30
0.0
 11
-266.884534
 21
18.87941
 31
0.0
  0
LINE
  8
0
 10
-252.684534
 20
29.474398
 30
0.0
 11
-252.684534
 21
18.87941
 31
0.0
  0
LINE
  8
0
 10
-266.884534
 20
29.474398
 30
0.0
 11
-252.684534
 21
29.474398
 31
0.0
  0
LINE
  8
0
 10
-269.784534
 20
0.474398
 30
0.0
 11
-269.784534
 21
-12.825602
 31
0.0
  0
LINE
  8
0
 10
-249.784534
 20
0.474398
 30
0.0
 11
-249.784534
 21
-12.825602
 31
0.0
  0
LINE
  8
0
 10
-269.084534
 20
-13.525602
 30
0.0
 11
-250.484534
 21
-13.525602
 31
0.0
  0
LINE
  8
0
 10
-271.784534
 20
5.474398
 30
0.0
 11
-271.784534
 21
1.474398
 31
0.0
  0
LINE
  8
0
 10
-270.784534
 20
6.474398
 30
0.0
 11
-248.784534
 21
6.474398
 31
0.0
  0
ARC
  8
0
 10
-270.784534
 20
5.474398
 30
0.0
 40
1.0
 50
90.0
 51
180.0
  0
ARC
  8
0
 10
-270.784534
 20
1.474398
 30
0.0
 40
1.0
 50
180.0
 51
270.0
  0
ARC
  8
0
 10
-248.784534
 20
1.474398
 30
0.0
 40
1.0
 50
270.0
 51
354.26083
  0
LINE
  8
0
 10
-269.784534
 20
-12.825602
 30
0.0
 11
-269.084534
 21
-13.525602
 31
0.0
  0
LINE
  8
0
 10
-250.484534
 20
-13.525602
 30
0.0
 11
-249.784534
 21
-12.825602
 31
0.0
  0
LINE
  8
0
 10
-270.784533
 20
0.474398
 30
0.0
 11
-248.784534
 21
0.474398
 31
0.0
  0
LINE
  8
0
 10
-249.784534
 20
-12.825602
 30
0.0
 11
-269.784534
 21
-12.825602
 31
0.0
  0
LINE
  8
0
 10
-382.222191
 20
-27.772325
 30
0.0
 11
-340.691745
 21
-29.367799
 31
0.0
  0
ARC
  8
0
 10
-377.519352
 20
24.698657
 30
0.0
 40
52.681312
 50
255.776977
 51
264.878411
  0
ARC
  8
0
 10
-377.519352
 20
-95.434255
 30
0.0
 40
52.681312
 50
95.121589
 51
104.223023
  0
LINE
  8
0
 10
-382.222191
 20
-42.963273
 30
0.0
 11
-340.691745
 21
-41.367799
 31
0.0
  0
CIRCLE
  8
0
 10
-335.400242
 20
-35.367799
 30
0.0
 40
8.0
  0
ARC
  8
0
 10
-398.400242
 20
-35.367799
 30
0.0
 40
12.0
 50
48.590378
 51
311.409622
  0
LINE
  8
0
 10
-388.400242
 20
-12.825602
 30
0.0
 11
-398.400242
 21
-12.825602
 31
0.0
  0
LINE
  8
0
 10
-398.400242
 20
0.474398
 30
0.0
 11
-388.939122
 21
0.474398
 31
0.0
  0
LINE
  8
0
 10
-404.950242
 20
-35.888867
 30
0.0
 11
-404.950242
 21
-34.846731
 31
0.0
  0
LINE
  8
0
 10
-398.92131
 20
-41.917799
 30
0.0
 11
-397.879175
 21
-41.917799
 31
0.0
  0
LINE
  8
0
 10
-397.879175
 20
-41.917799
 30
0.0
 11
-391.850242
 21
-35.888867
 31
0.0
  0
LINE
  8
0
 10
-391.850242
 20
-35.888867
 30
0.0
 11
-391.850242
 21
-34.846731
 31
0.0
  0
LINE
  8
0
 10
-404.950242
 20
-34.846731
 30
0.0
 11
-398.92131
 21
-28.817799
 31
0.0
  0
LINE
  8
0
 10
-391.850242
 20
-34.846731
 30
0.0
 11
-397.879175
 21
-28.817799
 31
0.0
  0
LINE
  8
0
 10
-398.92131
 20
-41.917799
 30
0.0
 11
-404.950242
 21
-35.888867
 31
0.0
  0
LINE
  8
0
 10
-398.92131
 20
-28.817799
 30
0.0
 11
-397.879175
 21
-28.817799
 31
0.0
  0
LINE
  8
0
  6
CENTER
 10
-398.400242
 20
-14.765626
 30
0.0
 11
-398.400242
 21
9.150179
 31
0.0
  0
LINE
  8
0
 10
-398.92131
 20
-13.225602
 30
0.0
 11
-398.92131
 21
6.474398
 31
0.0
  0
LINE
  8
0
 10
-404.950242
 20
-13.225602
 30
0.0
 11
-404.950242
 21
6.474398
 31
0.0
  0
LINE
  8
0
 10
-389.100242
 20
-13.525602
 30
0.0
 11
-388.400242
 21
-12.825602
 31
0.0
  0
LINE
  8
0
 10
-408.400242
 20
-12.825602
 30
0.0
 11
-407.700242
 21
-13.525602
 31
0.0
  0
LINE
  8
0
 10
-342.500242
 20
29.474398
 30
0.0
 11
-328.300242
 21
29.474398
 31
0.0
  0
LINE
  8
0
 10
-328.300242
 20
29.474398
 30
0.0
 11
-328.300242
 21
19.474398
 31
0.0
  0
LINE
  8
0
 10
-342.500242
 20
29.474398
 30
0.0
 11
-342.500242
 21
23.574398
 31
0.0
  0
ARC
  8
0
 10
-409.400242
 20
1.474398
 30
0.0
 40
1.0
 50
180.0
 51
270.0
  0
ARC
  8
0
 10
-409.400242
 20
5.474398
 30
0.0
 40
1.0
 50
90.0
 51
180.0
  0
LINE
  8
0
 10
-409.400242
 20
6.474398
 30
0.0
 11
-388.140125
 21
6.474398
 31
0.0
  0
LINE
  8
0
 10
-409.400242
 20
0.474398
 30
0.0
 11
-408.400242
 21
0.474398
 31
0.0
  0
LINE
  8
0
 10
-410.400242
 20
5.474398
 30
0.0
 11
-410.400242
 21
1.474398
 31
0.0
  0
LINE
  8
0
 10
-407.700242
 20
-13.525602
 30
0.0
 11
-389.100242
 21
-13.525602
 31
0.0
  0
LINE
  8
0
 10
-388.400242
 20
0.474398
 30
0.0
 11
-388.400242
 21
-12.825602
 31
0.0
  0
LINE
  8
0
 10
-408.400242
 20
0.474398
 30
0.0
 11
-408.400242
 21
-12.825602
 31
0.0
  0
ARC
  8
0
 10
-327.824988
 20
54.816081
 30
0.0
 40
20.896963
 50
157.697705
 51
197.900173
  0
ARC
  8
0
 10
-370.944222
 20
73.944063
 30
0.0
 40
26.289505
 50
334.789883
 51
25.687197
  0
ARC
  8
0
 10
-361.514116
 20
79.15075
 30
0.0
 40
15.546221
 50
23.458453
 51
41.816282
  0
ARC
  8
0
 10
-377.595815
 20
54.816081
 30
0.0
 40
20.896963
 50
342.099827
 51
22.302295
  0
ARC
  8
0
 10
-343.906686
 20
79.15075
 30
0.0
 40
15.546221
 50
138.183718
 51
156.541547
  0
ARC
  8
0
 10
-334.476581
 20
73.944063
 30
0.0
 40
26.289505
 50
154.312803
 51
205.210117
  0
ARC
  8
0
 10
-352.710401
 20
87.393201
 30
0.0
 40
3.5
 50
37.340026
 51
142.659974
  0
LINE
  8
0
 10
-357.710401
 20
48.393201
 30
0.0
 11
-347.710401
 21
48.393201
 31
0.0
  0
LINE
  8
0
 10
-347.710401
 20
40.893201
 30
0.0
 11
-347.710401
 21
48.393201
 31
0.0
  0
LINE
  8
0
 10
-357.710401
 20
40.893201
 30
0.0
 11
-357.710401
 21
48.393201
 31
0.0
  0
ARC
  8
0
 10
-329.300242
 20
19.474398
 30
0.0
 40
1.0
 50
270.0
 51
0.0
  0
ARC
  8
0
 10
-225.77501
 20
-179.337117
 30
0.0
 40
1.0
 50
270.0
 51
0.0
  0
LINE
  8
0
 10
-224.77501
 20
-179.337117
 30
0.0
 11
-224.77501
 21
-173.537117
 31
0.0
  0
ARC
  8
0
 10
-225.77501
 20
-173.537117
 30
0.0
 40
1.0
 50
0.0
 51
90.0
  0
LINE
  8
0
 10
-246.02501
 20
-157.784052
 30
0.0
 11
-246.02501
 21
-146.037117
 31
0.0
  0
LINE
  8
0
 10
-231.52501
 20
-157.784054
 30
0.0
 11
-231.52501
 21
-146.037117
 31
0.0
  0
LINE
  8
0
 10
-246.02501
 20
-146.037117
 30
0.0
 11
-231.52501
 21
-146.037117
 31
0.0
  0
LINE
  8
0
 10
-250.77501
 20
-195.737117
 30
0.0
 11
-250.77501
 21
-180.337117
 31
0.0
  0
LINE
  8
0
 10
-226.77501
 20
-195.737117
 30
0.0
 11
-226.77501
 21
-180.337117
 31
0.0
  0
LINE
  8
0
 10
-249.97501
 20
-196.537117
 30
0.0
 11
-227.57501
 21
-196.537117
 31
0.0
  0
LINE
  8
0
 10
-251.77501
 20
-172.537117
 30
0.0
 11
-225.77501
 21
-172.537117
 31
0.0
  0
LINE
  8
0
 10
-252.77501
 20
-179.337117
 30
0.0
 11
-252.77501
 21
-173.537117
 31
0.0
  0
LINE
  8
0
 10
-251.775012
 20
-180.337117
 30
0.0
 11
-225.775006
 21
-180.337117
 31
0.0
  0
ARC
  8
0
 10
-251.77501
 20
-173.537117
 30
0.0
 40
1.0
 50
90.0
 51
180.0
  0
ARC
  8
0
 10
-251.77501
 20
-179.337117
 30
0.0
 40
1.0
 50
180.0
 51
270.0
  0
LINE
  8
0
 10
-250.77501
 20
-195.737117
 30
0.0
 11
-249.97501
 21
-196.537117
 31
0.0
  0
LINE
  8
0
 10
-227.57501
 20
-196.537117
 30
0.0
 11
-226.77501
 21
-195.737117
 31
0.0
  0
LINE
  8
0
 10
-226.77501
 20
-195.737117
 30
0.0
 11
-250.77501
 21
-195.737117
 31
0.0
  0
INSERT
  8
0
  2
*X1
 10
-303.243786
 20
240.39081
 30
0.0
  0
LINE
  8
0
 10
-386.400242
 20
-195.737117
 30
0.0
 11
-398.400242
 21
-195.737117
 31
0.0
  0
LINE
  8
0
 10
-387.200242
 20
-196.537117
 30
0.0
 11
-386.400242
 21
-195.737117
 31
0.0
  0
LINE
  8
0
 10
-410.400242
 20
-195.737117
 30
0.0
 11
-409.600242
 21
-196.537117
 31
0.0
  0
ARC
  8
0
 10
-312.150242
 20
-157.537117
 30
0.0
 40
1.0
 50
270.0
 51
0.0
  0
ARC
  8
0
 10
-411.400242
 20
-179.337117
 30
0.0
 40
1.0
 50
180.0
 51
270.0
  0
ARC
  8
0
 10
-411.400242
 20
-173.537117
 30
0.0
 40
1.0
 50
90.0
 51
180.0
  0
LINE
  8
0
 10
-398.400242
 20
-180.337117
 30
0.0
 11
-385.377969
 21
-180.337117
 31
0.0
  0
LINE
  8
0
 10
-398.92131
 20
-196.237117
 30
0.0
 11
-398.400242
 21
-196.237117
 31
0.0
  0
ARC
  8
0
 10
-401.935776
 20
-202.377836
 30
0.0
 40
6.840718
 50
63.853673
 51
121.370766
  0
LINE
  8
0
 10
-398.92131
 20
-196.237117
 30
0.0
 11
-398.92131
 21
-172.537117
 31
0.0
  0
LINE
  8
0
 10
-404.950242
 20
-196.237117
 30
0.0
 11
-404.950242
 21
-172.537117
 31
0.0
  0
LINE
  8
0
 10
-398.92131
 20
-240.165976
 30
0.0
 11
-397.879175
 21
-240.165976
 31
0.0
  0
LINE
  8
0
 10
-391.850242
 20
-234.137043
 30
0.0
 11
-391.850242
 21
-233.094908
 31
0.0
  0
LINE
  8
0
 10
-404.950242
 20
-234.137043
 30
0.0
 11
-404.950242
 21
-233.094908
 31
0.0
  0
LINE
  8
0
 10
-397.879175
 20
-240.165976
 30
0.0
 11
-391.850242
 21
-234.137043
 31
0.0
  0
LINE
  8
0
 10
-404.950242
 20
-233.094908
 30
0.0
 11
-398.92131
 21
-227.065976
 31
0.0
  0
LINE
  8
0
 10
-391.850242
 20
-233.094908
 30
0.0
 11
-397.879175
 21
-227.065976
 31
0.0
  0
LINE
  8
0
 10
-398.92131
 20
-240.165976
 30
0.0
 11
-404.950242
 21
-234.137043
 31
0.0
  0
LINE
  8
0
 10
-398.92131
 20
-227.065976
 30
0.0
 11
-397.879175
 21
-227.065976
 31
0.0
  0
LINE
  8
0
 10
-324.971201
 20
-239.765976
 30
0.0
 11
-384.665318
 21
-242.616111
 31
0.0
  0
ARC
  8
0
 10
-383.067643
 20
-254.089682
 30
0.0
 40
11.584274
 50
97.927367
 51
125.494668
  0
ARC
  8
0
 10
-383.067643
 20
-213.142269
 30
0.0
 40
11.584274
 50
234.505332
 51
262.072633
  0
LINE
  8
0
 10
-324.971201
 20
-227.465976
 30
0.0
 11
-384.665318
 21
-224.61584
 31
0.0
  0
ARC
  8
0
 10
-398.400242
 20
-233.615976
 30
0.0
 40
14.0
 50
52.066474
 51
307.933526
  0
LINE
  8
0
 10
-412.400242
 20
-179.337117
 30
0.0
 11
-412.400242
 21
-173.537117
 31
0.0
  0
LINE
  8
0
 10
-325.650242
 20
-146.037117
 30
0.0
 11
-311.150242
 21
-146.037117
 31
0.0
  0
LINE
  8
0
 10
-325.650242
 20
-158.537117
 30
0.0
 11
-355.025342
 21
-159.020658
 31
0.0
  0
LINE
  8
0
 10
-325.650242
 20
-158.537117
 30
0.0
 11
-312.150242
 21
-158.537117
 31
0.0
  0
LINE
  8
0
 10
-411.400242
 20
-180.337117
 30
0.0
 11
-410.400242
 21
-180.337117
 31
0.0
  0
LINE
  8
0
 10
-311.150242
 20
-157.537117
 30
0.0
 11
-311.150242
 21
-146.037117
 31
0.0
  0
LINE
  8
0
 10
-325.650242
 20
-151.737117
 30
0.0
 11
-325.650242
 21
-146.037117
 31
0.0
  0
LINE
  8
0
 10
-411.400242
 20
-172.537117
 30
0.0
 11
-387.186972
 21
-172.537117
 31
0.0
  0
LINE
  8
0
 10
-409.600242
 20
-196.537117
 30
0.0
 11
-387.200242
 21
-196.537117
 31
0.0
  0
LINE
  8
0
 10
-386.400242
 20
-195.737117
 30
0.0
 11
-386.400242
 21
-180.337117
 31
0.0
  0
LINE
  8
0
 10
-410.400242
 20
-195.737117
 30
0.0
 11
-410.400242
 21
-180.337117
 31
0.0
  0
LINE
  8
0
  6
CENTER
 10
-398.400242
 20
-199.541972
 30
0.0
 11
-398.400242
 21
-168.719625
 31
0.0
  0
CIRCLE
  8
0
 10
-318.400242
 20
-233.615976
 30
0.0
 40
9.0
  0
LINE
  8
0
 10
-135.045641
 20
218.364904
 30
0.0
 11
-135.045641
 21
199.864904
 31
0.0
  0
LINE
  8
0
 10
-107.045641
 20
218.364904
 30
0.0
 11
-107.045641
 21
199.864904
 31
0.0
  0
LINE
  8
0
 10
-134.045641
 20
198.864904
 30
0.0
 11
-108.045641
 21
198.864904
 31
0.0
  0
LINE
  8
0
 10
-136.545641
 20
226.864904
 30
0.0
 11
-108.085455
 21
226.864904
 31
0.0
  0
LINE
  8
0
 10
-29.245641
 20
258.864904
 30
0.0
 11
-29.245641
 21
252.864904
 31
0.0
  0
LINE
  8
0
 10
-12.845641
 20
258.864904
 30
0.0
 11
-12.845641
 21
247.864904
 31
0.0
  0
LINE
  8
0
 10
-136.545641
 20
218.364904
 30
0.0
 11
-135.045641
 21
218.364904
 31
0.0
  0
LINE
  8
0
 10
-29.245641
 20
246.864904
 30
0.0
 11
-13.845641
 21
246.864904
 31
0.0
  0
LINE
  8
0
 10
-137.545641
 20
225.864904
 30
0.0
 11
-137.545641
 21
219.364904
 31
0.0
  0
LINE
  8
0
 10
-70.286428
 20
245.502328
 30
0.0
 11
-29.245641
 21
246.864904
 31
0.0
  0
LINE
  8
0
 10
-29.245641
 20
258.864904
 30
0.0
 11
-12.845641
 21
258.864904
 31
0.0
  0
ARC
  8
0
 10
-136.545641
 20
225.864904
 30
0.0
 40
1.0
 50
90.0
 51
180.0
  0
ARC
  8
0
 10
-136.545641
 20
219.364904
 30
0.0
 40
1.0
 50
180.0
 51
270.0
  0
ARC
  8
0
 10
-13.845641
 20
247.864904
 30
0.0
 40
1.0
 50
270.0
 51
0.0
  0
LINE
  8
0
 10
-135.045641
 20
199.864904
 30
0.0
 11
-134.045641
 21
198.864904
 31
0.0
  0
LINE
  8
0
 10
-108.045641
 20
198.864904
 30
0.0
 11
-107.045641
 21
199.864904
 31
0.0
  0
LINE
  8
0
 10
-107.045641
 20
199.864904
 30
0.0
 11
-121.045641
 21
199.864904
 31
0.0
  0
ARC
  8
0
 10
-121.045641
 20
161.964597
 30
0.0
 40
16.5
 50
61.440639
 51
298.559361
  0
ARC
  8
0
 10
-95.898185
 20
212.841457
 30
0.0
 40
40.270572
 50
244.622278
 51
265.158067
  0
LINE
  8
0
 10
-99.297309
 20
172.714597
 30
0.0
 11
-28.558296
 21
168.564597
 31
0.0
  0
LINE
  8
0
 10
-99.297309
 20
151.214597
 30
0.0
 11
-28.558296
 21
155.364597
 31
0.0
  0
ARC
  8
0
 10
-95.898185
 20
111.087737
 30
0.0
 40
40.270572
 50
94.841933
 51
115.377722
  0
LINE
  8
0
 10
-129.095641
 20
162.399878
 30
0.0
 11
-121.480922
 21
170.014597
 31
0.0
  0
LINE
  8
0
 10
-120.610359
 20
153.914597
 30
0.0
 11
-112.995641
 21
161.529315
 31
0.0
  0
LINE
  8
0
 10
-129.095641
 20
161.529315
 30
0.0
 11
-121.480922
 21
153.914597
 31
0.0
  0
LINE
  8
0
 10
-120.610359
 20
170.014597
 30
0.0
 11
-112.995641
 21
162.399878
 31
0.0
  0
LINE
  8
0
 10
-129.095641
 20
161.529315
 30
0.0
 11
-129.095641
 21
162.399878
 31
0.0
  0
LINE
  8
0
 10
-112.995641
 20
161.529315
 30
0.0
 11
-112.995641
 21
162.399878
 31
0.0
  0
LINE
  8
0
 10
-120.610359
 20
170.014597
 30
0.0
 11
-121.480922
 21
170.014597
 31
0.0
  0
LINE
  8
0
 10
-120.610359
 20
153.914597
 30
0.0
 11
-121.480922
 21
153.914597
 31
0.0
  0
LINE
  8
0
 10
-121.480922
 20
199.687707
 30
0.0
 11
-121.480922
 21
226.864904
 31
0.0
  0
LINE
  8
0
 10
-129.095641
 20
199.45274
 30
0.0
 11
-129.095641
 21
226.864904
 31
0.0
  0
LINE
  8
0
  6
CENTER
 10
-121.045641
 20
229.763594
 30
0.0
 11
-121.045641
 21
196.143443
 31
0.0
  0
LINE
  8
0
 10
-121.045641
 20
218.364904
 30
0.0
 11
-107.045641
 21
218.364904
 31
0.0
  0
LINE
  8
0
 10
81.746844
 20
199.864904
 30
0.0
 11
53.746844
 21
199.864904
 31
0.0
  0
LINE
  8
0
 10
80.746844
 20
198.864904
 30
0.0
 11
81.746844
 21
199.864904
 31
0.0
  0
LINE
  8
0
 10
53.746844
 20
199.864904
 30
0.0
 11
54.746844
 21
198.864904
 31
0.0
  0
ARC
  8
0
 10
52.246844
 20
219.364904
 30
0.0
 40
1.0
 50
180.0
 51
270.0
  0
ARC
  8
0
 10
52.246844
 20
225.864904
 30
0.0
 40
1.0
 50
90.0
 51
180.0
  0
LINE
  8
0
 10
51.246844
 20
225.864904
 30
0.0
 11
51.246844
 21
219.364904
 31
0.0
  0
LINE
  8
0
 10
52.246844
 20
218.364904
 30
0.0
 11
83.246844
 21
218.364904
 31
0.0
  0
LINE
  8
0
 10
52.246844
 20
226.864904
 30
0.0
 11
83.246844
 21
226.864904
 31
0.0
  0
LINE
  8
0
 10
54.746844
 20
198.864904
 30
0.0
 11
80.746844
 21
198.864904
 31
0.0
  0
LINE
  8
0
 10
81.746844
 20
218.364904
 30
0.0
 11
81.746844
 21
199.864904
 31
0.0
  0
LINE
  8
0
 10
53.746844
 20
218.364904
 30
0.0
 11
53.746844
 21
199.864904
 31
0.0
  0
LINE
  8
0
 10
59.546844
 20
258.864904
 30
0.0
 11
75.946844
 21
258.864904
 31
0.0
  0
LINE
  8
0
 10
75.946844
 20
258.864904
 30
0.0
 11
75.946844
 21
248.104992
 31
0.0
  0
LINE
  8
0
 10
59.546844
 20
258.864904
 30
0.0
 11
59.546844
 21
248.104992
 31
0.0
  0
ARC
  8
0
 10
83.246844
 20
225.864904
 30
0.0
 40
1.0
 50
0.0
 51
90.0
  0
LINE
  8
0
 10
84.246844
 20
225.864904
 30
0.0
 11
84.246844
 21
219.364904
 31
0.0
  0
ARC
  8
0
 10
83.246844
 20
219.364904
 30
0.0
 40
1.0
 50
270.0
 51
0.0
  0
ARC
  8
0
 10
-124.936325
 20
188.164173
 30
0.0
 40
12.030446
 50
73.308316
 51
117.193175
  0
LINE
  8
0
 10
-121.480922
 20
199.687707
 30
0.0
 11
-121.045641
 21
199.687707
 31
0.0
  0
LINE
  8
0
 10
-138.045641
 20
0.410313
 30
0.0
 11
-138.045641
 21
-21.589687
 31
0.0
  0
LINE
  8
0
 10
-104.045641
 20
0.410313
 30
0.0
 11
-104.045641
 21
-21.589687
 31
0.0
  0
LINE
  8
0
 10
-137.045641
 20
-22.589687
 30
0.0
 11
-105.045641
 21
-22.589687
 31
0.0
  0
LINE
  8
0
 10
-139.045641
 20
11.410313
 30
0.0
 11
-107.475482
 21
11.410313
 31
0.0
  0
LINE
  8
0
 10
-6.045641
 20
45.710313
 30
0.0
 11
-6.045641
 21
39.910313
 31
0.0
  0
LINE
  8
0
 10
13.954359
 20
45.710313
 30
0.0
 11
13.954359
 21
34.410313
 31
0.0
  0
LINE
  8
0
 10
-139.045641
 20
0.410313
 30
0.0
 11
-138.045641
 21
0.410313
 31
0.0
  0
LINE
  8
0
 10
-6.045641
 20
32.410313
 30
0.0
 11
11.954359
 21
32.410313
 31
0.0
  0
LINE
  8
0
 10
-141.045641
 20
9.410313
 30
0.0
 11
-141.045641
 21
2.410313
 31
0.0
  0
LINE
  8
0
 10
-60.870043
 20
31.544665
 30
0.0
 11
-6.045641
 21
32.410313
 31
0.0
  0
ARC
  8
0
 10
-139.045641
 20
9.410313
 30
0.0
 40
2.0
 50
90.0
 51
180.0
  0
ARC
  8
0
 10
-139.045641
 20
2.410313
 30
0.0
 40
2.0
 50
180.0
 51
270.0
  0
LINE
  8
0
 10
-138.045641
 20
-21.589687
 30
0.0
 11
-137.045641
 21
-22.589687
 31
0.0
  0
LINE
  8
0
 10
-105.045641
 20
-22.589687
 30
0.0
 11
-104.045641
 21
-21.589687
 31
0.0
  0
LINE
  8
0
 10
-6.045641
 20
45.710313
 30
0.0
 11
13.954359
 21
45.710313
 31
0.0
  0
ARC
  8
0
 10
-121.045641
 20
-67.176851
 30
0.0
 40
20.0
 50
62.630058
 51
297.369942
  0
ARC
  8
0
 10
-89.361573
 20
-2.030034
 30
0.0
 40
52.45165
 50
244.610843
 51
269.587726
  0
LINE
  8
0
 10
-89.738987
 20
-54.480326
 30
0.0
 11
-3.851888
 21
-59.426851
 31
0.0
  0
LINE
  8
0
 10
-89.738987
 20
-79.873376
 30
0.0
 11
-3.851888
 21
-74.926851
 31
0.0
  0
ARC
  8
0
 10
-89.361573
 20
-132.323668
 30
0.0
 40
52.45165
 50
90.412274
 51
115.389157
  0
LINE
  8
0
 10
-120.196146
 20
-58.126851
 30
0.0
 11
-111.995641
 21
-66.327356
 31
0.0
  0
LINE
  8
0
 10
-130.095641
 20
-68.026346
 30
0.0
 11
-121.895135
 21
-76.226851
 31
0.0
  0
LINE
  8
0
 10
-130.095641
 20
-66.327356
 30
0.0
 11
-121.895135
 21
-58.126851
 31
0.0
  0
LINE
  8
0
 10
-120.196146
 20
-76.226851
 30
0.0
 11
-111.995641
 21
-68.026346
 31
0.0
  0
LINE
  8
0
 10
-130.095641
 20
-68.026346
 30
0.0
 11
-130.095641
 21
-66.327356
 31
0.0
  0
LINE
  8
0
 10
-111.995641
 20
-68.026346
 30
0.0
 11
-111.995641
 21
-66.327356
 31
0.0
  0
LINE
  8
0
 10
-120.196146
 20
-58.126851
 30
0.0
 11
-121.895135
 21
-58.126851
 31
0.0
  0
LINE
  8
0
 10
-120.196146
 20
-76.226851
 30
0.0
 11
-121.895135
 21
-76.226851
 31
0.0
  0
LINE
  8
0
 10
-130.095641
 20
-21.881282
 30
0.0
 11
-130.095641
 21
11.410313
 31
0.0
  0
LINE
  8
0
 10
-121.895135
 20
-21.885279
 30
0.0
 11
-121.895135
 21
11.410313
 31
0.0
  0
LINE
  8
0
 10
-121.045641
 20
0.410313
 30
0.0
 11
-104.045641
 21
0.410313
 31
0.0
  0
LINE
  8
0
  6
CENTER
 10
-121.045641
 20
14.849034
 30
0.0
 11
-121.045641
 21
-25.777972
 31
0.0
  0
LINE
  8
0
 10
-104.045641
 20
-21.589687
 30
0.0
 11
-121.045641
 21
-21.589687
 31
0.0
  0
ARC
  8
0
 10
-126.001527
 20
-34.476084
 30
0.0
 40
13.24352
 50
71.936672
 51
116.165303
  0
LINE
  8
0
 10
-121.895135
 20
-21.885279
 30
0.0
 11
-121.045641
 21
-21.885279
 31
0.0
  0
ARC
  8
0
 10
11.954359
 20
34.410313
 30
0.0
 40
2.0
 50
270.0
 51
0.0
  0
INSERT
  8
0
  2
*X2
 10
-21.301807
 20
781.829041
 30
0.0
  0
LINE
  8
0
 10
121.23401
 20
-21.589687
 30
0.0
 11
87.23401
 21
-21.589687
 31
0.0
  0
LINE
  8
0
 10
120.23401
 20
-22.589687
 30
0.0
 11
121.23401
 21
-21.589687
 31
0.0
  0
LINE
  8
0
 10
87.23401
 20
-21.589687
 30
0.0
 11
88.23401
 21
-22.589687
 31
0.0
  0
ARC
  8
0
 10
86.23401
 20
2.410313
 30
0.0
 40
2.0
 50
180.0
 51
270.0
  0
ARC
  8
0
 10
86.23401
 20
9.410313
 30
0.0
 40
2.0
 50
90.0
 51
180.0
  0
LINE
  8
0
 10
84.23401
 20
9.410313
 30
0.0
 11
84.23401
 21
2.410313
 31
0.0
  0
LINE
  8
0
 10
86.23401
 20
0.410313
 30
0.0
 11
122.23401
 21
0.410313
 31
0.0
  0
LINE
  8
0
 10
86.23401
 20
11.410313
 30
0.0
 11
122.23401
 21
11.410313
 31
0.0
  0
LINE
  8
0
 10
88.23401
 20
-22.589687
 30
0.0
 11
120.23401
 21
-22.589687
 31
0.0
  0
LINE
  8
0
 10
121.23401
 20
0.410313
 30
0.0
 11
121.23401
 21
-21.589687
 31
0.0
  0
LINE
  8
0
 10
87.23401
 20
0.410313
 30
0.0
 11
87.23401
 21
-21.589687
 31
0.0
  0
ARC
  8
0
 10
122.23401
 20
9.410313
 30
0.0
 40
2.0
 50
0.0
 51
90.0
  0
LINE
  8
0
 10
124.23401
 20
9.410313
 30
0.0
 11
124.23401
 21
2.410313
 31
0.0
  0
ARC
  8
0
 10
122.23401
 20
2.410313
 30
0.0
 40
2.0
 50
270.0
 51
360.0
  0
LINE
  8
0
 10
94.23401
 20
45.710313
 30
0.0
 11
114.23401
 21
45.710313
 31
0.0
  0
LINE
  8
0
 10
114.23401
 20
45.710313
 30
0.0
 11
114.23401
 21
33.271562
 31
0.0
  0
LINE
  8
0
 10
94.23401
 20
45.710313
 30
0.0
 11
94.23401
 21
33.271562
 31
0.0
  0
LINE
  8
0
  6
CENTER
 10
-121.045641
 20
-289.858766
 30
0.0
 11
-121.045641
 21
-245.786204
 31
0.0
  0
LINE
  8
0
 10
-140.045641
 20
-285.365778
 30
0.0
 11
-140.045641
 21
-260.065778
 31
0.0
  0
LINE
  8
0
 10
-102.045641
 20
-285.365778
 30
0.0
 11
-102.045641
 21
-260.065778
 31
0.0
  0
LINE
  8
0
 10
-138.845641
 20
-286.565778
 30
0.0
 11
-103.245641
 21
-286.565778
 31
0.0
  0
LINE
  8
0
 10
-140.795641
 20
-248.565778
 30
0.0
 11
-108.889413
 21
-248.565778
 31
0.0
  0
LINE
  8
0
 10
27.454359
 20
-212.565778
 30
0.0
 11
27.454359
 21
-207.265778
 31
0.0
  0
LINE
  8
0
 10
50.454359
 20
-219.565778
 30
0.0
 11
50.454359
 21
-207.265778
 31
0.0
  0
LINE
  8
0
 10
-140.795641
 20
-260.065778
 30
0.0
 11
-140.045641
 21
-260.065778
 31
0.0
  0
LINE
  8
0
 10
27.454359
 20
-221.565778
 30
0.0
 11
48.454359
 21
-221.565778
 31
0.0
  0
LINE
  8
0
 10
-142.795641
 20
-258.065778
 30
0.0
 11
-142.795641
 21
-250.565778
 31
0.0
  0
LINE
  8
0
 10
27.454359
 20
-221.565778
 30
0.0
 11
-51.76994
 21
-222.503344
 31
0.0
  0
LINE
  8
0
 10
27.454359
 20
-207.265778
 30
0.0
 11
50.454359
 21
-207.265778
 31
0.0
  0
ARC
  8
0
 10
-140.795641
 20
-250.565778
 30
0.0
 40
2.0
 50
90.0
 51
180.0
  0
ARC
  8
0
 10
-140.795641
 20
-258.065778
 30
0.0
 40
2.0
 50
180.0
 51
270.0
  0
ARC
  8
0
 10
48.454359
 20
-219.565778
 30
0.0
 40
2.0
 50
270.0
 51
0.0
  0
ARC
  8
0
 10
-121.045641
 20
-328.109957
 30
0.0
 40
21.75
 50
64.930455
 51
295.069545
  0
LINE
  8
0
 10
30.384645
 20
-319.009957
 30
0.0
 11
-88.213056
 21
-314.10488
 31
0.0
  0
ARC
  8
0
 10
-82.164043
 20
-237.216076
 30
0.0
 40
77.126382
 50
247.378736
 51
265.501679
  0
ARC
  8
0
 10
-82.164043
 20
-419.003839
 30
0.0
 40
77.126382
 50
94.498321
 51
112.621264
  0
LINE
  8
0
 10
30.384645
 20
-337.209957
 30
0.0
 11
-88.213056
 21
-342.115035
 31
0.0
  0
LINE
  8
0
 10
-120.124825
 20
-317.009957
 30
0.0
 11
-109.945641
 21
-327.189142
 31
0.0
  0
LINE
  8
0
 10
-132.145641
 20
-329.030772
 30
0.0
 11
-121.966456
 21
-339.209957
 31
0.0
  0
LINE
  8
0
 10
-132.145641
 20
-327.189142
 30
0.0
 11
-121.966456
 21
-317.009957
 31
0.0
  0
LINE
  8
0
 10
-120.124825
 20
-339.209957
 30
0.0
 11
-109.945641
 21
-329.030772
 31
0.0
  0
LINE
  8
0
 10
-132.145641
 20
-329.030772
 30
0.0
 11
-132.145641
 21
-327.189142
 31
0.0
  0
LINE
  8
0
 10
-109.945641
 20
-329.030772
 30
0.0
 11
-109.945641
 21
-327.189142
 31
0.0
  0
LINE
  8
0
 10
-121.966456
 20
-317.009957
 30
0.0
 11
-120.124825
 21
-317.009957
 31
0.0
  0
LINE
  8
0
 10
-121.966456
 20
-339.209957
 30
0.0
 11
-120.124825
 21
-339.209957
 31
0.0
  0
LINE
  8
0
 10
-121.966456
 20
-285.738475
 30
0.0
 11
-121.966456
 21
-248.565778
 31
0.0
  0
LINE
  8
0
 10
-132.145641
 20
-285.761531
 30
0.0
 11
-132.145641
 21
-248.565778
 31
0.0
  0
LINE
  8
0
 10
-140.045641
 20
-285.365778
 30
0.0
 11
-138.845641
 21
-286.565778
 31
0.0
  0
LINE
  8
0
 10
-103.245641
 20
-286.565778
 30
0.0
 11
-102.045641
 21
-285.365778
 31
0.0
  0
LINE
  8
0
 10
-102.045641
 20
-285.365778
 30
0.0
 11
-121.045641
 21
-285.365778
 31
0.0
  0
LINE
  8
0
 10
-121.045641
 20
-260.065778
 30
0.0
 11
-102.045641
 21
-260.065778
 31
0.0
  0
ARC
  8
0
 10
-127.027494
 20
-298.356854
 30
0.0
 40
13.595499
 50
68.145036
 51
119.856162
  0
LINE
  8
0
 10
-121.966456
 20
-285.738475
 30
0.0
 11
-121.045641
 21
-285.738475
 31
0.0
  0
LINE
  8
0
 10
184.208054
 20
-285.365778
 30
0.0
 11
146.208054
 21
-285.365778
 31
0.0
  0
LINE
  8
0
 10
183.008054
 20
-286.565778
 30
0.0
 11
184.208054
 21
-285.365778
 31
0.0
  0
LINE
  8
0
 10
146.208054
 20
-285.365778
 30
0.0
 11
147.408054
 21
-286.565778
 31
0.0
  0
ARC
  8
0
 10
145.458054
 20
-258.065778
 30
0.0
 40
2.0
 50
180.0
 51
270.0
  0
ARC
  8
0
 10
145.458054
 20
-250.565778
 30
0.0
 40
2.0
 50
90.0
 51
180.0
  0
LINE
  8
0
 10
143.458054
 20
-258.065778
 30
0.0
 11
143.458054
 21
-250.565778
 31
0.0
  0
LINE
  8
0
 10
145.458054
 20
-260.065778
 30
0.0
 11
184.958054
 21
-260.065778
 31
0.0
  0
LINE
  8
0
 10
145.458054
 20
-248.565778
 30
0.0
 11
184.958054
 21
-248.565778
 31
0.0
  0
LINE
  8
0
 10
147.408054
 20
-286.565778
 30
0.0
 11
183.008054
 21
-286.565778
 31
0.0
  0
LINE
  8
0
 10
184.208054
 20
-285.365778
 30
0.0
 11
184.208054
 21
-260.065778
 31
0.0
  0
LINE
  8
0
 10
146.208054
 20
-285.365778
 30
0.0
 11
146.208054
 21
-260.065778
 31
0.0
  0
LINE
  8
0
 10
186.958054
 20
-258.065778
 30
0.0
 11
186.958054
 21
-250.565778
 31
0.0
  0
ARC
  8
0
 10
184.958054
 20
-250.565778
 30
0.0
 40
2.0
 50
0.0
 51
90.0
  0
ARC
  8
0
 10
184.958054
 20
-258.065778
 30
0.0
 40
2.0
 50
270.0
 51
0.0
  0
LINE
  8
0
 10
153.708054
 20
-207.265778
 30
0.0
 11
176.708054
 21
-207.265778
 31
0.0
  0
LINE
  8
0
 10
176.708054
 20
-220.747208
 30
0.0
 11
176.708054
 21
-207.265778
 31
0.0
  0
LINE
  8
0
 10
153.708054
 20
-220.747208
 30
0.0
 11
153.708054
 21
-207.265778
 31
0.0
  0
LINE
  8
0
 10
278.262654
 20
295.340485
 30
0.0
 11
278.262654
 21
265.040485
 31
0.0
  0
LINE
  8
0
 10
322.262654
 20
295.340485
 30
0.0
 11
322.262654
 21
265.040485
 31
0.0
  0
LINE
  8
0
 10
279.462654
 20
263.840485
 30
0.0
 11
321.062654
 21
263.840485
 31
0.0
  0
LINE
  8
0
 10
277.262654
 20
307.840485
 30
0.0
 11
315.664793
 21
307.840485
 31
0.0
  0
LINE
  8
0
 10
486.262654
 20
362.840485
 30
0.0
 11
486.262654
 21
352.340485
 31
0.0
  0
LINE
  8
0
 10
514.262654
 20
362.840485
 30
0.0
 11
514.262654
 21
343.840485
 31
0.0
  0
LINE
  8
0
 10
277.262654
 20
295.340485
 30
0.0
 11
278.262654
 21
295.340485
 31
0.0
  0
LINE
  8
0
 10
275.262654
 20
305.840485
 30
0.0
 11
275.262654
 21
297.340485
 31
0.0
  0
LINE
  8
0
 10
383.306604
 20
340.561528
 30
0.0
 11
486.262654
 21
341.840485
 31
0.0
  0
ARC
  8
0
 10
277.262654
 20
305.840485
 30
0.0
 40
2.0
 50
90.0
 51
180.0
  0
ARC
  8
0
 10
277.262654
 20
297.340485
 30
0.0
 40
2.0
 50
180.0
 51
270.0
  0
LINE
  8
0
 10
486.262654
 20
341.840485
 30
0.0
 11
512.262654
 21
341.840485
 31
0.0
  0
LINE
  8
0
 10
486.262654
 20
362.840485
 30
0.0
 11
514.262654
 21
362.840485
 31
0.0
  0
ARC
  8
0
 10
512.262654
 20
343.840485
 30
0.0
 40
2.0
 50
270.0
 51
0.0
  0
ARC
  8
0
 10
300.262654
 20
220.377785
 30
0.0
 40
25.0
 50
59.955632
 51
300.044368
  0
LINE
  8
0
  6
CENTER
 10
300.262654
 20
310.468006
 30
0.0
 11
300.262654
 21
260.328936
 31
0.0
  0
INSERT
  8
0
  2
*X3
 10
-461.237951
 20
-231.105041
 30
0.0
  0
LINE
  8
0
 10
490.673076
 20
230.577785
 30
0.0
 11
336.133624
 21
235.309734
 31
0.0
  0
ARC
  8
0
 10
338.9542
 20
289.131046
 30
0.0
 40
53.89517
 50
240.317704
 51
269.492255
  0
ARC
  8
0
 10
338.9542
 20
151.624523
 30
0.0
 40
53.89517
 50
90.507745
 51
119.682296
  0
LINE
  8
0
 10
490.673076
 20
210.177785
 30
0.0
 11
336.133624
 21
205.445835
 31
0.0
  0
LINE
  8
0
 10
287.662654
 20
219.542756
 30
0.0
 11
299.427625
 21
207.777785
 31
0.0
  0
LINE
  8
0
 10
301.097683
 20
232.977785
 30
0.0
 11
312.862654
 21
221.212813
 31
0.0
  0
LINE
  8
0
 10
287.662654
 20
221.212813
 30
0.0
 11
299.427625
 21
232.977785
 31
0.0
  0
LINE
  8
0
 10
301.097683
 20
207.777785
 30
0.0
 11
312.862654
 21
219.542756
 31
0.0
  0
LINE
  8
0
 10
287.662654
 20
221.212813
 30
0.0
 11
287.662654
 21
219.542756
 31
0.0
  0
LINE
  8
0
 10
312.862654
 20
221.212813
 30
0.0
 11
312.862654
 21
219.542756
 31
0.0
  0
LINE
  8
0
 10
299.427625
 20
232.977785
 30
0.0
 11
301.097683
 21
232.977785
 31
0.0
  0
LINE
  8
0
 10
299.427625
 20
207.777785
 30
0.0
 11
301.097683
 21
207.777785
 31
0.0
  0
LINE
  8
0
 10
299.427625
 20
264.734064
 30
0.0
 11
299.427625
 21
307.840485
 31
0.0
  0
LINE
  8
0
 10
287.662654
 20
264.668275
 30
0.0
 11
287.662654
 21
307.840485
 31
0.0
  0
LINE
  8
0
 10
300.262654
 20
295.340485
 30
0.0
 11
322.262654
 21
295.340485
 31
0.0
  0
LINE
  8
0
 10
278.262654
 20
265.040485
 30
0.0
 11
279.462654
 21
263.840485
 31
0.0
  0
LINE
  8
0
 10
321.062654
 20
263.840485
 30
0.0
 11
322.262654
 21
265.040485
 31
0.0
  0
LINE
  8
0
 10
322.262654
 20
265.040485
 30
0.0
 11
300.262654
 21
265.040485
 31
0.0
  0
LINE
  8
0
 10
672.124667
 20
264.343334
 30
0.0
 11
628.124667
 21
264.343334
 31
0.0
  0
LINE
  8
0
 10
670.924667
 20
263.143334
 30
0.0
 11
672.124667
 21
264.343334
 31
0.0
  0
LINE
  8
0
 10
628.124667
 20
264.343334
 30
0.0
 11
629.324667
 21
263.143334
 31
0.0
  0
ARC
  8
0
 10
627.124667
 20
296.643334
 30
0.0
 40
2.0
 50
180.0
 51
270.0
  0
ARC
  8
0
 10
627.124667
 20
305.143334
 30
0.0
 40
2.0
 50
90.0
 51
180.0
  0
LINE
  8
0
 10
625.124667
 20
305.143334
 30
0.0
 11
625.124667
 21
296.643334
 31
0.0
  0
LINE
  8
0
 10
627.124667
 20
294.643334
 30
0.0
 11
673.124665
 21
294.643334
 31
0.0
  0
LINE
  8
0
 10
627.124667
 20
307.143334
 30
0.0
 11
673.124669
 21
307.143334
 31
0.0
  0
LINE
  8
0
 10
629.324667
 20
263.143334
 30
0.0
 11
670.924667
 21
263.143334
 31
0.0
  0
LINE
  8
0
 10
672.124667
 20
294.643334
 30
0.0
 11
672.124667
 21
264.343334
 31
0.0
  0
LINE
  8
0
 10
628.124667
 20
294.643334
 30
0.0
 11
628.124667
 21
264.343334
 31
0.0
  0
ARC
  8
0
 10
293.650612
 20
245.8396
 30
0.0
 40
19.757901
 50
72.998901
 51
114.345981
  0
LINE
  8
0
 10
299.427625
 20
264.734064
 30
0.0
 11
300.262654
 21
264.734064
 31
0.0
  0
ARC
  8
0
 10
673.124667
 20
305.143334
 30
0.0
 40
2.0
 50
0.0
 51
90.0
  0
LINE
  8
0
 10
675.124667
 20
305.143334
 30
0.0
 11
675.124667
 21
296.643334
 31
0.0
  0
ARC
  8
0
 10
673.124667
 20
296.643334
 30
0.0
 40
2.0
 50
270.0
 51
0.0
  0
LINE
  8
0
 10
636.124667
 20
362.143334
 30
0.0
 11
664.124667
 21
362.143334
 31
0.0
  0
LINE
  8
0
 10
664.124667
 20
362.143334
 30
0.0
 11
664.124667
 21
343.13607
 31
0.0
  0
LINE
  8
0
 10
636.124667
 20
362.143334
 30
0.0
 11
636.124667
 21
343.13607
 31
0.0
  0
INSERT
  8
0
  2
*X4
 10
-35.754877
 20
611.311152
 30
0.0
  0
INSERT
  8
0
  2
*X5
 10
-24.954213
 20
788.955086
 30
0.0
  0
LINE
  8
0
 10
276.262654
 20
-36.79377
 30
0.0
 11
276.262654
 21
-70.59377
 31
0.0
  0
LINE
  8
0
 10
324.262654
 20
-36.79377
 30
0.0
 11
324.262654
 21
-70.59377
 31
0.0
  0
LINE
  8
0
 10
277.462654
 20
-71.79377
 30
0.0
 11
323.062654
 21
-71.79377
 31
0.0
  0
LINE
  8
0
 10
275.262654
 20
-23.79377
 30
0.0
 11
326.090665
 21
-23.79377
 31
0.0
  0
LINE
  8
0
 10
536.462654
 20
39.20623
 30
0.0
 11
536.462654
 21
28.70623
 31
0.0
  0
LINE
  8
0
 10
564.062654
 20
39.20623
 30
0.0
 11
564.062654
 21
20.20623
 31
0.0
  0
LINE
  8
0
 10
275.262654
 20
-36.79377
 30
0.0
 11
276.262654
 21
-36.79377
 31
0.0
  0
LINE
  8
0
 10
536.462654
 20
18.20623
 30
0.0
 11
562.062654
 21
18.20623
 31
0.0
  0
LINE
  8
0
 10
273.262654
 20
-25.79377
 30
0.0
 11
273.262654
 21
-34.79377
 31
0.0
  0
LINE
  8
0
 10
396.997113
 20
16.539577
 30
0.0
 11
536.462654
 21
18.20623
 31
0.0
  0
LINE
  8
0
 10
536.462654
 20
39.20623
 30
0.0
 11
564.062654
 21
39.20623
 31
0.0
  0
ARC
  8
0
 10
275.262654
 20
-25.79377
 30
0.0
 40
2.0
 50
90.0
 51
180.0
  0
ARC
  8
0
 10
275.262654
 20
-34.79377
 30
0.0
 40
2.0
 50
180.0
 51
270.0
  0
ARC
  8
0
 10
562.062654
 20
20.20623
 30
0.0
 40
2.0
 50
270.0
 51
0.0
  0
ARC
  8
0
 10
300.262654
 20
-111.886754
 30
0.0
 40
27.0
 50
63.372345
 51
296.627655
  0
LINE
  8
0
  6
CENTER
 10
300.262654
 20
-20.246494
 30
0.0
 11
300.262654
 21
-74.639341
 31
0.0
  0
LINE
  8
0
 10
339.371046
 20
-93.958321
 30
0.0
 11
538.277664
 21
-101.286754
 31
0.0
  0
ARC
  8
0
 10
340.732283
 20
-26.185275
 30
0.0
 40
67.786715
 50
245.260318
 51
268.849356
  0
ARC
  8
0
 10
340.732283
 20
-197.588232
 30
0.0
 40
67.786715
 50
91.150644
 51
114.739682
  0
LINE
  8
0
 10
339.371046
 20
-129.815186
 30
0.0
 11
538.277664
 21
-122.486754
 31
0.0
  0
LINE
  8
0
 10
286.162654
 20
-110.430405
 30
0.0
 11
298.806305
 21
-97.786754
 31
0.0
  0
LINE
  8
0
 10
301.719003
 20
-125.986754
 30
0.0
 11
314.362654
 21
-113.343103
 31
0.0
  0
LINE
  8
0
 10
286.162654
 20
-113.343103
 30
0.0
 11
298.806305
 21
-125.986754
 31
0.0
  0
LINE
  8
0
 10
301.719003
 20
-97.786754
 30
0.0
 11
314.362654
 21
-110.430405
 31
0.0
  0
LINE
  8
0
 10
286.162654
 20
-110.430405
 30
0.0
 11
286.162654
 21
-113.343103
 31
0.0
  0
LINE
  8
0
 10
314.362654
 20
-110.430405
 30
0.0
 11
314.362654
 21
-113.343103
 31
0.0
  0
LINE
  8
0
 10
301.719003
 20
-97.786754
 30
0.0
 11
298.806305
 21
-97.786754
 31
0.0
  0
LINE
  8
0
 10
301.719003
 20
-125.986754
 30
0.0
 11
298.806305
 21
-125.986754
 31
0.0
  0
LINE
  8
0
 10
286.162654
 20
-70.787805
 30
0.0
 11
286.162654
 21
-23.79377
 31
0.0
  0
LINE
  8
0
 10
298.806305
 20
-71.021018
 30
0.0
 11
298.806305
 21
-23.79377
 31
0.0
  0
LINE
  8
0
 10
300.262654
 20
-36.79377
 30
0.0
 11
324.262654
 21
-36.79377
 31
0.0
  0
LINE
  8
0
 10
276.262654
 20
-70.59377
 30
0.0
 11
277.462654
 21
-71.79377
 31
0.0
  0
LINE
  8
0
 10
324.262654
 20
-70.59377
 30
0.0
 11
323.062654
 21
-71.79377
 31
0.0
  0
LINE
  8
0
 10
324.262654
 20
-70.59377
 30
0.0
 11
300.262654
 21
-70.59377
 31
0.0
  0
ARC
  8
0
 10
291.954387
 20
-99.643512
 30
0.0
 40
29.431207
 50
76.537358
 51
108.868076
  0
LINE
  8
0
 10
298.806305
 20
-71.021018
 30
0.0
 11
300.262654
 21
-71.021018
 31
0.0
  0
LINE
  8
0
 10
730.383113
 20
-70.59377
 30
0.0
 11
682.383113
 21
-70.59377
 31
0.0
  0
LINE
  8
0
 10
730.383113
 20
-70.59377
 30
0.0
 11
729.183113
 21
-71.79377
 31
0.0
  0
LINE
  8
0
 10
682.383113
 20
-70.59377
 30
0.0
 11
683.583113
 21
-71.79377
 31
0.0
  0
LINE
  8
0
 10
681.383106
 20
-36.79377
 30
0.0
 11
731.383119
 21
-36.79377
 31
0.0
  0
ARC
  8
0
 10
681.383113
 20
-34.79377
 30
0.0
 40
2.0
 50
180.0
 51
270.0
  0
ARC
  8
0
 10
681.383113
 20
-25.79377
 30
0.0
 40
2.0
 50
90.0
 51
180.0
  0
LINE
  8
0
 10
679.383113
 20
-25.79377
 30
0.0
 11
679.383113
 21
-34.79377
 31
0.0
  0
LINE
  8
0
 10
681.383113
 20
-23.79377
 30
0.0
 11
731.383121
 21
-23.79377
 31
0.0
  0
LINE
  8
0
 10
683.583113
 20
-71.79377
 30
0.0
 11
729.183113
 21
-71.79377
 31
0.0
  0
LINE
  8
0
 10
730.383113
 20
-36.79377
 30
0.0
 11
730.383113
 21
-70.59377
 31
0.0
  0
LINE
  8
0
 10
682.383113
 20
-36.79377
 30
0.0
 11
682.383113
 21
-70.59377
 31
0.0
  0
ARC
  8
0
 10
731.383113
 20
-25.79377
 30
0.0
 40
2.0
 50
0.0
 51
90.0
  0
LINE
  8
0
 10
733.383113
 20
-25.79377
 30
0.0
 11
733.383113
 21
-34.79377
 31
0.0
  0
ARC
  8
0
 10
731.383113
 20
-34.79377
 30
0.0
 40
2.0
 50
270.0
 51
0.0
  0
LINE
  8
0
 10
692.583113
 20
39.20623
 30
0.0
 11
720.183113
 21
39.20623
 31
0.0
  0
LINE
  8
0
 10
720.183113
 20
39.20623
 30
0.0
 11
720.183113
 21
19.765356
 31
0.0
  0
LINE
  8
0
 10
692.583113
 20
39.20623
 30
0.0
 11
692.583113
 21
19.765356
 31
0.0
  0
INSERT
  8
0
  2
*X6
 10
-27.608909
 20
480.968042
 30
0.0
  0
LINE
  8
0
 10
273.262654
 20
-398.233598
 30
0.0
 11
273.262654
 21
-432.233598
 31
0.0
  0
LINE
  8
0
 10
327.262654
 20
-398.233598
 30
0.0
 11
327.262654
 21
-432.233598
 31
0.0
  0
LINE
  8
0
 10
274.762654
 20
-433.733598
 30
0.0
 11
325.762654
 21
-433.733598
 31
0.0
  0
LINE
  8
0
 10
271.262654
 20
-379.733598
 30
0.0
 11
321.969966
 21
-379.733598
 31
0.0
  0
LINE
  8
0
 10
600.262654
 20
-308.233598
 30
0.0
 11
600.262654
 21
-315.733598
 31
0.0
  0
LINE
  8
0
 10
630.262654
 20
-308.233598
 30
0.0
 11
630.262654
 21
-325.733598
 31
0.0
  0
LINE
  8
0
 10
269.762654
 20
-381.233598
 30
0.0
 11
269.762654
 21
-396.733598
 31
0.0
  0
LINE
  8
0
 10
271.262654
 20
-398.233598
 30
0.0
 11
273.262654
 21
-398.233598
 31
0.0
  0
ARC
  8
0
 10
300.262654
 20
-496.574955
 30
0.0
 40
30.5
 50
49.661535
 51
310.338465
  0
LINE
  8
0
 10
326.149141
 20
-475.699059
 30
0.0
 11
601.670009
 21
-484.774955
 31
0.0
  0
LINE
  8
0
 10
326.149141
 20
-517.450851
 30
0.0
 11
601.670009
 21
-508.374955
 31
0.0
  0
LINE
  8
0
 10
284.162654
 20
-495.704392
 30
0.0
 11
299.392091
 21
-480.474955
 31
0.0
  0
LINE
  8
0
 10
301.133217
 20
-512.674955
 30
0.0
 11
316.362654
 21
-497.445518
 31
0.0
  0
LINE
  8
0
 10
299.392091
 20
-512.674955
 30
0.0
 11
284.162654
 21
-497.445518
 31
0.0
  0
LINE
  8
0
 10
316.362654
 20
-495.704392
 30
0.0
 11
301.133217
 21
-480.474955
 31
0.0
  0
LINE
  8
0
 10
299.392091
 20
-480.474955
 30
0.0
 11
301.133217
 21
-480.474955
 31
0.0
  0
LINE
  8
0
 10
299.392091
 20
-512.674955
 30
0.0
 11
301.133217
 21
-512.674955
 31
0.0
  0
LINE
  8
0
 10
284.162654
 20
-497.445518
 30
0.0
 11
284.162654
 21
-495.704392
 31
0.0
  0
LINE
  8
0
 10
316.362654
 20
-497.445518
 30
0.0
 11
316.362654
 21
-495.704392
 31
0.0
  0
LINE
  8
0
 10
299.392091
 20
-433.733598
 30
0.0
 11
299.392091
 21
-379.733598
 31
0.0
  0
LINE
  8
0
 10
284.162654
 20
-432.875505
 30
0.0
 11
284.162654
 21
-379.733598
 31
0.0
  0
LINE
  8
0
  6
CENTER
 10
300.262654
 20
-372.953654
 30
0.0
 11
300.262654
 21
-439.00451
 31
0.0
  0
LINE
  8
0
 10
300.262654
 20
-398.233598
 30
0.0
 11
328.857854
 21
-398.233598
 31
0.0
  0
LINE
  8
0
 10
273.262654
 20
-432.233598
 30
0.0
 11
274.762654
 21
-433.733598
 31
0.0
  0
LINE
  8
0
 10
325.762654
 20
-433.733598
 30
0.0
 11
327.262654
 21
-432.233598
 31
0.0
  0
ARC
  8
0
 10
271.262654
 20
-396.733598
 30
0.0
 40
1.5
 50
180.0
 51
270.0
  0
ARC
  8
0
 10
271.262654
 20
-381.233598
 30
0.0
 40
1.5
 50
90.0
 51
180.0
  0
LINE
  8
0
 10
327.262654
 20
-432.233598
 30
0.0
 11
300.262654
 21
-432.233598
 31
0.0
  0
ARC
  8
0
 10
291.827291
 20
-460.67609
 30
0.0
 40
28.837808
 50
74.792095
 51
110.888402
  0
LINE
  8
0
 10
299.392091
 20
-432.848172
 30
0.0
 11
300.262654
 21
-432.848172
 31
0.0
  0
INSERT
  8
0
  2
*X7
 10
-82.594741
 20
395.411888
 30
0.0
  0
LINE
  8
0
 10
600.262654
 20
-308.233598
 30
0.0
 11
630.262654
 21
-308.233598
 31
0.0
  0
LINE
  8
0
 10
814.461934
 20
-432.233598
 30
0.0
 11
760.461934
 21
-432.233598
 31
0.0
  0
ARC
  8
0
 10
758.461934
 20
-381.233598
 30
0.0
 40
1.5
 50
90.0
 51
180.0
  0
ARC
  8
0
 10
758.461934
 20
-396.733598
 30
0.0
 40
1.5
 50
180.0
 51
270.0
  0
LINE
  8
0
 10
812.961934
 20
-433.733598
 30
0.0
 11
814.461934
 21
-432.233598
 31
0.0
  0
LINE
  8
0
 10
760.461934
 20
-432.233598
 30
0.0
 11
761.961934
 21
-433.733598
 31
0.0
  0
LINE
  8
0
 10
758.461934
 20
-398.233598
 30
0.0
 11
816.461941
 21
-398.233598
 31
0.0
  0
LINE
  8
0
 10
756.961934
 20
-381.233598
 30
0.0
 11
756.961934
 21
-396.733598
 31
0.0
  0
LINE
  8
0
 10
758.461934
 20
-379.733598
 30
0.0
 11
816.461934
 21
-379.733598
 31
0.0
  0
LINE
  8
0
 10
761.961934
 20
-433.733598
 30
0.0
 11
812.961934
 21
-433.733598
 31
0.0
  0
LINE
  8
0
 10
760.461934
 20
-398.233598
 30
0.0
 11
760.461934
 21
-432.233598
 31
0.0
  0
LINE
  8
0
 10
817.961934
 20
-381.233598
 30
0.0
 11
817.961934
 21
-396.733598
 31
0.0
  0
LINE
  8
0
 10
816.461934
 20
-398.233598
 30
0.0
 11
814.461934
 21
-398.233598
 31
0.0
  0
ARC
  8
0
 10
816.461934
 20
-396.733598
 30
0.0
 40
1.5
 50
270.0
 51
0.0
  0
ARC
  8
0
 10
816.461934
 20
-381.233598
 30
0.0
 40
1.5
 50
0.0
 51
90.0
  0
LINE
  8
0
 10
814.461934
 20
-398.233598
 30
0.0
 11
814.461934
 21
-432.233598
 31
0.0
  0
LINE
  8
0
 10
772.461934
 20
-308.233598
 30
0.0
 11
802.461934
 21
-308.233598
 31
0.0
  0
LINE
  8
0
 10
802.461934
 20
-308.233598
 30
0.0
 11
802.461934
 21
-327.030017
 31
0.0
  0
LINE
  8
0
 10
772.461934
 20
-308.233598
 30
0.0
 11
772.461934
 21
-327.030017
 31
0.0
  0
LINE
  8
0
 10
600.262654
 20
-328.733598
 30
0.0
 11
627.262654
 21
-328.733598
 31
0.0
  0
LINE
  8
0
 10
600.262654
 20
-328.733598
 30
0.0
 11
406.772924
 21
-332.631743
 31
0.0
  0
LINE
  8
0
 10
-359.513935
 20
23.574398
 30
0.0
 11
-339.728013
 21
23.574398
 31
0.0
  0
LINE
  8
0
 10
-359.513935
 20
18.474398
 30
0.0
 11
-329.300242
 21
18.474398
 31
0.0
  0
LINE
  8
0
 10
-385.219741
 20
7.741019
 30
0.0
 11
-377.839344
 21
15.626348
 31
0.0
  0
LINE
  8
0
 10
-382.368259
 20
3.324296
 30
0.0
 11
-374.115853
 21
12.141292
 31
0.0
  0
ARC
  8
0
 10
-359.513935
 20
-1.525602
 30
0.0
 40
20.0
 50
90.0
 51
136.894435
  0
ARC
  8
0
 10
-359.513935
 20
-1.525602
 30
0.0
 40
25.1
 50
90.0
 51
136.894435
  0
ARC
  8
0
 10
-388.140125
 20
10.474398
 30
0.0
 40
4.0
 50
270.0
 51
316.894435
  0
ARC
  8
0
 10
-388.939122
 20
9.474398
 30
0.0
 40
9.0
 50
270.0
 51
316.894435
  0
LINE
  8
0
 10
-266.285803
 20
20.145717
 30
0.0
 11
-268.284534
 21
6.474398
 31
0.0
  0
LINE
  8
0
 10
-253.283264
 20
20.145717
 30
0.0
 11
-251.284534
 21
6.474398
 31
0.0
  0
LINE
  8
0
 10
-266.884534
 20
18.87941
 30
0.0
 11
-266.517667
 21
18.559767
 31
0.0
  0
LINE
  8
0
 10
-252.684534
 20
18.87941
 30
0.0
 11
-253.051401
 21
18.559767
 31
0.0
  0
ARC
  8
0
 10
-259.784534
 20
15.69639
 30
0.0
 40
7.878008
 50
34.386884
 51
145.613116
  0
LINE
  8
0
 10
-326.090084
 20
46.393201
 30
0.0
 11
-326.090084
 21
49.893201
 31
0.0
  0
LINE
  8
0
 10
-310.090084
 20
46.393201
 30
0.0
 11
-310.090084
 21
49.893201
 31
0.0
  0
ARC
  8
0
 10
-318.090084
 20
93.393201
 30
0.0
 40
1.5
 50
33.460038
 51
146.539962
  0
ARC
  8
0
 10
-296.643655
 20
73.893201
 30
0.0
 40
29.446429
 50
160.147509
 51
199.852491
  0
ARC
  8
0
 10
-339.536512
 20
73.893201
 30
0.0
 40
29.446429
 50
340.147509
 51
19.852491
  0
ARC
  8
0
 10
-298.567373
 20
77.791686
 30
0.0
 40
26.485111
 50
141.662414
 51
166.680833
  0
LINE
  8
0
 10
-326.090084
 20
49.893201
 30
0.0
 11
-310.090084
 21
49.893201
 31
0.0
  0
ARC
  8
0
 10
-335.048417
 20
58.122367
 30
0.0
 40
12.16433
 50
317.429273
 51
28.320694
  0
ARC
  8
0
 10
-301.13175
 20
58.122367
 30
0.0
 40
12.16433
 50
151.679306
 51
222.570727
  0
ARC
  8
0
 10
-337.612794
 20
77.791686
 30
0.0
 40
26.485111
 50
13.319167
 51
38.337586
  0
LINE
  8
0
 10
-326.090084
 20
46.393201
 30
0.0
 11
-325.590084
 21
45.893201
 31
0.0
  0
LINE
  8
0
 10
-310.590084
 20
45.893201
 30
0.0
 11
-310.090084
 21
46.393201
 31
0.0
  0
LINE
  8
0
 10
-323.090084
 20
40.893201
 30
0.0
 11
-323.090084
 21
45.893201
 31
0.0
  0
LINE
  8
0
 10
-325.590084
 20
45.893201
 30
0.0
 11
-310.590084
 21
45.893201
 31
0.0
  0
LINE
  8
0
 10
-313.090084
 20
40.893201
 30
0.0
 11
-313.090084
 21
45.893201
 31
0.0
  0
LINE
  8
0
 10
-70.078961
 20
252.864904
 30
0.0
 11
-25.813861
 21
252.864904
 31
0.0
  0
LINE
  8
0
 10
-354.85176
 20
-151.737117
 30
0.0
 11
-323.244141
 21
-151.737117
 31
0.0
  0
LINE
  8
0
 10
-385.669887
 20
-171.840365
 30
0.0
 11
-377.228757
 21
-162.014214
 31
0.0
  0
LINE
  8
0
 10
-381.585257
 20
-178.595237
 30
0.0
 11
-371.351181
 21
-166.681953
 31
0.0
  0
ARC
  8
0
 10
-354.663251
 20
-181.017678
 30
0.0
 40
22.0
 50
90.943055
 51
139.335855
  0
ARC
  8
0
 10
-354.85176
 20
-181.237117
 30
0.0
 40
29.5
 50
90.0
 51
139.335855
  0
ARC
  8
0
 10
-387.186972
 20
-170.537117
 30
0.0
 40
2.0
 50
270.0
 51
319.335855
  0
ARC
  8
0
 10
-385.377969
 20
-175.337117
 30
0.0
 40
5.0
 50
270.0
 51
319.335855
  0
LINE
  8
0
 10
-247.775009
 20
-172.537117
 30
0.0
 11
-245.357797
 21
-155.199874
 31
0.0
  0
LINE
  8
0
 10
-229.775009
 20
-172.537117
 30
0.0
 11
-232.192221
 21
-155.199874
 31
0.0
  0
LINE
  8
0
 10
-246.02501
 20
-157.784052
 30
0.0
 11
-245.759961
 21
-158.084356
 31
0.0
  0
LINE
  8
0
 10
-231.525009
 20
-157.784052
 30
0.0
 11
-231.790058
 21
-158.084356
 31
0.0
  0
ARC
  8
0
 10
-238.775009
 20
-159.725519
 30
0.0
 40
7.988402
 50
34.508396
 51
145.491604
  0
LINE
  8
0
 10
-308.959035
 20
-131.704887
 30
0.0
 11
-291.959035
 21
-131.704887
 31
0.0
  0
LINE
  8
0
 10
-294.959035
 20
-131.704887
 30
0.0
 11
-294.959035
 21
-136.204887
 31
0.0
  0
LINE
  8
0
 10
-305.959035
 20
-131.704887
 30
0.0
 11
-305.959035
 21
-136.204887
 31
0.0
  0
LINE
  8
0
 10
-291.459035
 20
-131.204887
 30
0.0
 11
-291.959035
 21
-131.704887
 31
0.0
  0
LINE
  8
0
 10
-291.459035
 20
-126.704887
 30
0.0
 11
-291.459035
 21
-131.204887
 31
0.0
  0
ARC
  8
0
 10
-275.533085
 20
-116.806676
 30
0.0
 40
18.751279
 50
164.024281
 51
211.861553
  0
ARC
  8
0
 10
-330.186055
 20
-99.04575
 30
0.0
 40
38.732629
 50
341.015797
 51
24.871337
  0
ARC
  8
0
 10
-313.136994
 20
-91.825468
 30
0.0
 40
20.237567
 50
26.626634
 51
45.468975
  0
LINE
  8
0
 10
-309.459035
 20
-131.204887
 30
0.0
 11
-308.959035
 21
-131.704887
 31
0.0
  0
ARC
  8
0
 10
-325.384985
 20
-116.806676
 30
0.0
 40
18.751279
 50
328.138447
 51
15.975719
  0
ARC
  8
0
 10
-287.781076
 20
-91.825468
 30
0.0
 40
20.237567
 50
134.531025
 51
153.373366
  0
ARC
  8
0
 10
-270.732015
 20
-99.04575
 30
0.0
 40
38.732629
 50
155.128663
 51
198.984203
  0
ARC
  8
0
 10
-300.459035
 20
-78.704887
 30
0.0
 40
2.0
 50
40.775316
 51
139.224684
  0
LINE
  8
0
 10
-291.459035
 20
-126.704887
 30
0.0
 11
-291.459035
 21
-131.204887
 31
0.0
  0
LINE
  8
0
 10
-309.459035
 20
-126.704887
 30
0.0
 11
-309.459035
 21
-131.204887
 31
0.0
  0
LINE
  8
0
 10
-309.459035
 20
-126.704887
 30
0.0
 11
-291.459035
 21
-126.704887
 31
0.0
  0
LINE
  8
0
 10
-104.91936
 20
228.420351
 30
0.0
 11
-95.803488
 21
240.226896
 31
0.0
  0
LINE
  8
0
 10
-100.000283
 20
221.86466
 30
0.0
 11
-89.244969
 21
235.79455
 31
0.0
  0
ARC
  8
0
 10
-69.456872
 20
220.516095
 30
0.0
 40
25.0
 50
91.901552
 51
142.328152
  0
ARC
  8
0
 10
-70.078961
 20
220.364904
 30
0.0
 40
32.5
 50
90.0
 51
142.328152
  0
ARC
  8
0
 10
-108.085455
 20
230.864904
 30
0.0
 40
4.0
 50
270.0
 51
322.328152
  0
ARC
  8
0
 10
-107.124994
 20
227.366033
 30
0.0
 40
9.001478
 50
270.505106
 51
322.326342
  0
LINE
  8
0
 10
56.746844
 20
226.864904
 30
0.0
 11
60.609134
 21
249.687528
 31
0.0
  0
LINE
  8
0
 10
78.746844
 20
226.864904
 30
0.0
 11
74.884554
 21
249.687528
 31
0.0
  0
ARC
  8
0
 10
67.746844
 20
243.259082
 30
0.0
 40
9.605822
 50
42.007193
 51
137.992807
  0
LINE
  8
0
 10
59.546844
 20
248.104992
 30
0.0
 11
60.205105
 21
247.300085
 31
0.0
  0
LINE
  8
0
 10
75.946844
 20
248.104992
 30
0.0
 11
75.288582
 21
247.300085
 31
0.0
  0
LINE
  8
0
 10
6.593958
 20
279.623392
 30
0.0
 11
7.593958
 21
280.623392
 31
0.0
  0
LINE
  8
0
 10
-10.406042
 20
280.623392
 30
0.0
 11
-9.406042
 21
279.623392
 31
0.0
  0
ARC
  8
0
 10
27.769183
 20
297.049613
 30
0.0
 40
23.186165
 50
158.575546
 51
209.525011
  0
ARC
  8
0
 10
-26.197271
 20
318.32256
 30
0.0
 40
34.821782
 50
338.426742
 51
26.544982
  0
ARC
  8
0
 10
-30.581266
 20
297.049613
 30
0.0
 40
23.186165
 50
330.474989
 51
21.424454
  0
LINE
  8
0
 10
7.593958
 20
280.623392
 30
0.0
 11
7.593958
 21
285.623392
 31
0.0
  0
LINE
  8
0
 10
-10.406042
 20
280.623392
 30
0.0
 11
-10.406042
 21
285.623392
 31
0.0
  0
LINE
  8
0
 10
-9.406042
 20
279.623392
 30
0.0
 11
6.593958
 21
279.623392
 31
0.0
  0
LINE
  8
0
 10
5.093958
 20
273.723392
 30
0.0
 11
5.093958
 21
279.623392
 31
0.0
  0
LINE
  8
0
 10
-7.906042
 20
273.723392
 30
0.0
 11
-7.906042
 21
279.623392
 31
0.0
  0
ARC
  8
0
 10
-13.790776
 20
325.253289
 30
0.0
 40
20.636206
 50
24.72428
 51
42.69262
  0
ARC
  8
0
 10
23.385188
 20
318.32256
 30
0.0
 40
34.821782
 50
153.455018
 51
201.573258
  0
ARC
  8
0
 10
10.978693
 20
325.253289
 30
0.0
 40
20.636206
 50
137.30738
 51
155.27572
  0
ARC
  8
0
 10
-1.406042
 20
337.123392
 30
0.0
 40
3.5
 50
37.333488
 51
142.666512
  0
LINE
  8
0
 10
-10.406042
 20
285.623392
 30
0.0
 11
7.593958
 21
285.623392
 31
0.0
  0
LINE
  8
0
 10
-61.504992
 20
39.910313
 30
0.0
 11
-3.476827
 21
39.910313
 31
0.0
  0
LINE
  8
0
 10
-101.438892
 20
14.160591
 30
0.0
 11
-90.556082
 21
26.6746
 31
0.0
  0
LINE
  8
0
 10
-83.810573
 20
20.304132
 30
0.0
 11
-97.044222
 21
3.783595
 31
0.0
  0
ARC
  8
0
 10
-60.396418
 20
1.548404
 30
0.0
 40
30.0
 50
90.904595
 51
141.303796
  0
ARC
  8
0
 10
-61.504992
 20
1.410313
 30
0.0
 40
38.5
 50
90.0
 51
138.98814
  0
ARC
  8
0
 10
-107.475482
 20
19.410313
 30
0.0
 40
8.0
 50
270.0
 51
318.98814
  0
ARC
  8
0
 10
-104.068577
 20
9.41046
 30
0.0
 40
9.000176
 50
270.146014
 51
321.303496
  0
LINE
  8
0
 10
90.73401
 20
11.410313
 30
0.0
 11
95.695977
 21
35.79239
 31
0.0
  0
LINE
  8
0
 10
117.73401
 20
11.410313
 30
0.0
 11
112.772043
 21
35.79239
 31
0.0
  0
ARC
  8
0
 10
104.23401
 20
29.000043
 30
0.0
 40
10.91027
 50
38.503652
 51
141.496348
  0
LINE
  8
0
 10
94.23401
 20
33.271562
 30
0.0
 11
95.023265
 21
32.486824
 31
0.0
  0
LINE
  8
0
 10
114.23401
 20
33.271562
 30
0.0
 11
113.444755
 21
32.486824
 31
0.0
  0
LINE
  8
0
 10
36.752194
 20
59.296834
 30
0.0
 11
36.752194
 21
67.296834
 31
0.0
  0
LINE
  8
0
 10
21.152194
 20
67.296834
 30
0.0
 11
38.352194
 21
67.296834
 31
0.0
  0
LINE
  8
0
 10
22.752194
 20
59.296834
 30
0.0
 11
22.752194
 21
67.296834
 31
0.0
  0
LINE
  8
0
 10
39.352194
 20
68.296834
 30
0.0
 11
38.352194
 21
67.296834
 31
0.0
  0
LINE
  8
0
 10
20.152194
 20
68.296834
 30
0.0
 11
21.152194
 21
67.296834
 31
0.0
  0
ARC
  8
0
 10
66.855161
 20
86.819511
 30
0.0
 40
30.64761
 50
165.413123
 51
206.182453
  0
ARC
  8
0
 10
2.024498
 20
110.780154
 30
0.0
 40
38.740159
 50
335.212264
 51
24.053185
  0
ARC
  8
0
 10
11.634499
 20
116.11075
 30
0.0
 40
27.808211
 50
22.093701
 51
38.226109
  0
ARC
  8
0
 10
47.869888
 20
116.11075
 30
0.0
 40
27.808211
 50
141.773891
 51
157.906299
  0
ARC
  8
0
 10
-7.350774
 20
86.819511
 30
0.0
 40
30.64761
 50
333.817547
 51
14.586877
  0
ARC
  8
0
 10
57.479889
 20
110.780154
 30
0.0
 40
38.740159
 50
155.946815
 51
204.787736
  0
ARC
  8
0
 10
29.752194
 20
130.796834
 30
0.0
 40
4.5
 50
34.066623
 51
145.933377
  0
LINE
  8
0
 10
20.152194
 20
73.296834
 30
0.0
 11
39.352194
 21
73.296834
 31
0.0
  0
LINE
  8
0
 10
39.352194
 20
68.296834
 30
0.0
 11
39.352194
 21
73.296834
 31
0.0
  0
LINE
  8
0
 10
20.152194
 20
68.296834
 30
0.0
 11
20.152194
 21
73.296834
 31
0.0
  0
LINE
  8
0
 10
-52.507989
 20
-212.565778
 30
0.0
 11
31.106266
 21
-212.565778
 31
0.0
  0
LINE
  8
0
 10
-96.568525
 20
-242.121228
 30
0.0
 11
-89.470653
 21
-231.899429
 31
0.0
  0
LINE
  8
0
 10
-80.756606
 20
-238.511667
 30
0.0
 11
-90.246008
 21
-253.204018
 31
0.0
  0
ARC
  8
0
 10
-108.889413
 20
-233.565778
 30
0.0
 40
15.0
 50
270.0
 51
325.224436
  0
ARC
  8
0
 10
-102.909934
 20
-245.003187
 30
0.0
 40
15.087367
 50
273.284038
 51
327.073952
  0
ARC
  8
0
 10
-51.355768
 20
-257.500893
 30
0.0
 40
35.0
 50
90.678025
 51
147.142649
  0
ARC
  8
0
 10
-52.507989
 20
-257.565778
 30
0.0
 40
45.0
 50
90.0
 51
145.224436
  0
LINE
  8
0
 10
149.708054
 20
-248.565778
 30
0.0
 11
155.251086
 21
-217.386223
 31
0.0
  0
LINE
  8
0
 10
180.708054
 20
-248.565778
 30
0.0
 11
175.165022
 21
-217.386223
 31
0.0
  0
ARC
  8
0
 10
165.208054
 20
-225.25941
 30
0.0
 40
12.693632
 50
38.334174
 51
141.665826
  0
LINE
  8
0
 10
153.708054
 20
-220.747208
 30
0.0
 11
154.527144
 21
-221.458395
 31
0.0
  0
LINE
  8
0
 10
176.708054
 20
-220.747208
 30
0.0
 11
175.888964
 21
-221.458395
 31
0.0
  0
LINE
  8
0
 10
60.794537
 20
-177.111764
 30
0.0
 11
79.594537
 21
-177.111764
 31
0.0
  0
LINE
  8
0
 10
78.194537
 20
-184.911764
 30
0.0
 11
78.194537
 21
-177.111764
 31
0.0
  0
LINE
  8
0
 10
62.194537
 20
-184.911764
 30
0.0
 11
62.194537
 21
-177.111764
 31
0.0
  0
ARC
  8
0
 10
59.331181
 20
-118.532693
 30
0.0
 40
20.250511
 50
28.784105
 51
50.06276
  0
LINE
  8
0
 10
80.594537
 20
-176.111764
 30
0.0
 11
80.594537
 21
-171.111764
 31
0.0
  0
ARC
  8
0
 10
31.53857
 20
-132.086692
 30
0.0
 40
51.157558
 50
339.448813
 51
27.100339
  0
ARC
  8
0
 10
99.689323
 20
-159.500782
 30
0.0
 40
22.347836
 50
154.969075
 51
211.302563
  0
LINE
  8
0
 10
80.594537
 20
-176.111764
 30
0.0
 11
79.594537
 21
-177.111764
 31
0.0
  0
LINE
  8
0
 10
59.794537
 20
-176.111764
 30
0.0
 11
60.794537
 21
-177.111764
 31
0.0
  0
ARC
  8
0
 10
81.057893
 20
-118.532693
 30
0.0
 40
20.250511
 50
129.93724
 51
151.215895
  0
ARC
  8
0
 10
40.699751
 20
-159.500782
 30
0.0
 40
22.347836
 50
328.697437
 51
25.030925
  0
ARC
  8
0
 10
108.850505
 20
-132.086692
 30
0.0
 40
51.157558
 50
152.899661
 51
200.551187
  0
ARC
  8
0
 10
70.194537
 20
-105.111764
 30
0.0
 40
3.0
 50
44.590664
 51
135.409336
  0
LINE
  8
0
 10
59.794537
 20
-171.111764
 30
0.0
 11
80.594537
 21
-171.111764
 31
0.0
  0
LINE
  8
0
 10
59.794537
 20
-176.111764
 30
0.0
 11
59.794537
 21
-171.111764
 31
0.0
  0
LINE
  8
0
 10
382.15019
 20
352.340485
 30
0.0
 11
492.442338
 21
352.340485
 31
0.0
  0
LINE
  8
0
 10
326.74294
 20
314.037938
 30
0.0
 11
333.576773
 21
325.167036
 31
0.0
  0
LINE
  8
0
 10
344.485958
 20
317.3422
 30
0.0
 11
336.830707
 21
303.499246
 31
0.0
  0
ARC
  8
0
 10
383.865567
 20
295.565
 30
0.0
 40
45.0
 50
90.711712
 51
151.057097
  0
ARC
  8
0
 10
382.15019
 20
295.340485
 30
0.0
 40
57.0
 50
90.0
 51
148.447957
  0
ARC
  8
0
 10
315.664793
 20
320.840485
 30
0.0
 40
13.0
 50
270.0
 51
328.447957
  0
ARC
  8
0
 10
322.629109
 20
311.771686
 30
0.0
 40
16.435287
 50
268.722379
 51
329.779171
  0
LINE
  8
0
 10
632.124667
 20
307.143334
 30
0.0
 11
638.787983
 21
345.158405
 31
0.0
  0
LINE
  8
0
 10
668.124667
 20
307.143334
 30
0.0
 11
661.461351
 21
345.158405
 31
0.0
  0
ARC
  8
0
 10
650.124667
 20
338.491709
 30
0.0
 40
13.151625
 50
30.458253
 51
149.541747
  0
LINE
  8
0
 10
636.124667
 20
343.13607
 30
0.0
 11
638.071209
 21
341.069119
 31
0.0
  0
LINE
  8
0
 10
664.124667
 20
343.13607
 30
0.0
 11
662.178125
 21
341.069119
 31
0.0
  0
LINE
  8
0
 10
529.57581
 20
392.706426
 30
0.0
 11
550.57581
 21
392.706426
 31
0.0
  0
LINE
  8
0
 10
549.07581
 20
382.506426
 30
0.0
 11
549.07581
 21
392.706426
 31
0.0
  0
LINE
  8
0
 10
531.07581
 20
382.506426
 30
0.0
 11
531.07581
 21
392.706426
 31
0.0
  0
LINE
  8
0
 10
551.57581
 20
393.706426
 30
0.0
 11
551.57581
 21
398.706426
 31
0.0
  0
LINE
  8
0
 10
551.57581
 20
393.706426
 30
0.0
 11
550.57581
 21
392.706426
 31
0.0
  0
ARC
  8
0
 10
587.044793
 20
415.495162
 30
0.0
 40
39.241692
 50
155.196806
 51
205.329866
  0
ARC
  8
0
 10
508.9361
 20
447.143245
 30
0.0
 40
45.119316
 50
340.331587
 51
29.481807
  0
ARC
  8
0
 10
524.738688
 20
457.94266
 30
0.0
 40
26.098637
 50
25.914636
 51
43.427856
  0
LINE
  8
0
 10
528.57581
 20
393.706426
 30
0.0
 11
529.57581
 21
392.706426
 31
0.0
  0
ARC
  8
0
 10
493.106827
 20
415.495162
 30
0.0
 40
39.241692
 50
334.670134
 51
24.803194
  0
LINE
  8
0
 10
528.57581
 20
398.706426
 30
0.0
 11
551.57581
 21
398.706426
 31
0.0
  0
ARC
  8
0
 10
555.412932
 20
457.94266
 30
0.0
 40
26.098637
 50
136.572144
 51
154.085364
  0
ARC
  8
0
 10
571.21552
 20
447.143245
 30
0.0
 40
45.119316
 50
150.518193
 51
199.668413
  0
ARC
  8
0
 10
540.07581
 20
473.206426
 30
0.0
 40
4.5
 50
36.512623
 51
143.487377
  0
LINE
  8
0
 10
528.57581
 20
393.706426
 30
0.0
 11
528.57581
 21
398.706426
 31
0.0
  0
LINE
  8
0
 10
529.57581
 20
392.706426
 30
0.0
 11
531.07581
 21
392.706426
 31
0.0
  0
LINE
  8
0
 10
396.188339
 20
28.70623
 30
0.0
 11
541.637053
 21
28.70623
 31
0.0
  0
LINE
  8
0
 10
344.260104
 20
-3.458553
 30
0.0
 11
337.729752
 21
-16.584422
 31
0.0
  0
LINE
  8
0
 10
356.463929
 20
-10.067527
 30
0.0
 11
350.360543
 21
-23.698626
 31
0.0
  0
ARC
  8
0
 10
326.090665
 20
-10.79377
 30
0.0
 40
13.0
 50
270.0
 51
333.548841
  0
ARC
  8
0
 10
326.134794
 20
-7.971452
 30
0.0
 40
28.883056
 50
266.283601
 51
327.00867
  0
ARC
  8
0
 10
397.534837
 20
-28.457211
 30
0.0
 40
45.0
 50
90.684668
 51
155.879337
  0
ARC
  8
0
 10
396.188339
 20
-29.29377
 30
0.0
 40
58.0
 50
90.0
 51
153.548841
  0
LINE
  8
0
 10
687.883113
 20
-23.79377
 30
0.0
 11
694.934843
 21
23.068996
 31
0.0
  0
LINE
  8
0
 10
717.831382
 20
23.068996
 30
0.0
 11
724.883113
 21
-23.79377
 31
0.0
  0
ARC
  8
0
 10
706.383113
 20
14.262862
 30
0.0
 40
14.443368
 50
37.567878
 51
142.432122
  0
LINE
  8
0
 10
692.583113
 20
19.765356
 30
0.0
 11
694.162896
 21
17.938969
 31
0.0
  0
LINE
  8
0
 10
720.183113
 20
19.765356
 30
0.0
 11
718.603329
 21
17.938969
 31
0.0
  0
LINE
  8
0
 10
405.960534
 20
-315.733598
 30
0.0
 11
609.72864
 21
-315.733598
 31
0.0
  0
LINE
  8
0
 10
335.189628
 20
-371.821654
 30
0.0
 11
346.031399
 21
-351.60108
 31
0.0
  0
LINE
  8
0
 10
362.882392
 20
-360.617037
 30
0.0
 11
351.306681
 21
-384.235879
 31
0.0
  0
ARC
  8
0
 10
407.780045
 20
-382.621599
 30
0.0
 40
50.0
 50
91.154154
 51
153.890297
  0
ARC
  8
0
 10
405.960534
 20
-383.733598
 30
0.0
 40
68.0
 50
90.0
 51
151.800893
  0
ARC
  8
0
 10
321.969966
 20
-364.733598
 30
0.0
 40
15.0
 50
270.0
 51
331.800893
  0
ARC
  8
0
 10
328.857854
 20
-373.233598
 30
0.0
 40
25.0
 50
270.0
 51
333.890297
  0
ARC
  8
0
 10
627.262654
 20
-325.733598
 30
0.0
 40
3.0
 50
270.0
 51
0.0
  0
ARC
  8
0
 10
326.478371
 20
-465.70448
 30
0.0
 40
10.0
 50
229.661535
 51
268.11331
  0
ARC
  8
0
 10
326.478371
 20
-527.445429
 30
0.0
 40
10.0
 50
91.88669
 51
130.338465
  0
LINE
  8
0
 10
766.461934
 20
-379.733598
 30
0.0
 11
774.691899
 21
-322.481668
 31
0.0
  0
LINE
  8
0
 10
800.231969
 20
-322.481668
 30
0.0
 11
808.461934
 21
-379.733598
 31
0.0
  0
LINE
  8
0
 10
772.461934
 20
-327.030017
 30
0.0
 11
773.811704
 21
-328.604761
 31
0.0
  0
ARC
  8
0
 10
787.461934
 20
-331.190629
 30
0.0
 40
15.45703
 50
34.293365
 51
145.706635
  0
LINE
  8
0
 10
802.461934
 20
-327.030017
 30
0.0
 11
801.112164
 21
-328.604761
 31
0.0
  0
LINE
  8
0
 10
-335.400242
 20
29.474398
 30
0.0
 11
-352.710401
 21
40.893201
 31
0.0
  0
LINE
  8
0
 10
-335.400242
 20
29.474398
 30
0.0
 11
-318.090084
 21
40.893201
 31
0.0
  0
LINE
  8
0
 10
-259.784534
 20
29.474398
 30
0.0
 11
-242.474375
 21
40.893201
 31
0.0
  0
LINE
  8
0
 10
-259.784534
 20
29.474398
 30
0.0
 11
-277.094693
 21
40.893201
 31
0.0
  0
LINE
  8
0
 10
-237.474375
 20
40.893201
 30
0.0
 11
-237.474375
 21
45.893201
 31
0.0
  0
LINE
  8
0
 10
-249.974375
 20
45.893201
 30
0.0
 11
-234.974375
 21
45.893201
 31
0.0
  0
LINE
  8
0
 10
-247.474375
 20
40.893201
 30
0.0
 11
-247.474375
 21
45.893201
 31
0.0
  0
LINE
  8
0
 10
-234.974375
 20
45.893201
 30
0.0
 11
-234.474375
 21
46.393201
 31
0.0
  0
LINE
  8
0
 10
-250.474375
 20
46.393201
 30
0.0
 11
-249.974375
 21
45.893201
 31
0.0
  0
ARC
  8
0
 10
-261.997086
 20
77.791686
 30
0.0
 40
26.485111
 50
13.319167
 51
38.337586
  0
ARC
  8
0
 10
-225.516042
 20
58.122367
 30
0.0
 40
12.16433
 50
151.679306
 51
222.570727
  0
ARC
  8
0
 10
-259.432708
 20
58.122367
 30
0.0
 40
12.16433
 50
317.429273
 51
28.320694
  0
LINE
  8
0
 10
-250.474375
 20
49.893201
 30
0.0
 11
-234.474375
 21
49.893201
 31
0.0
  0
ARC
  8
0
 10
-222.951664
 20
77.791686
 30
0.0
 40
26.485111
 50
141.662414
 51
166.680833
  0
ARC
  8
0
 10
-263.920803
 20
73.893201
 30
0.0
 40
29.446429
 50
340.147509
 51
19.852491
  0
ARC
  8
0
 10
-221.027946
 20
73.893201
 30
0.0
 40
29.446429
 50
160.147509
 51
199.852491
  0
ARC
  8
0
 10
-242.474375
 20
93.393201
 30
0.0
 40
1.5
 50
33.460038
 51
146.539962
  0
LINE
  8
0
 10
-234.474375
 20
46.393201
 30
0.0
 11
-234.474375
 21
49.893201
 31
0.0
  0
LINE
  8
0
 10
-250.474375
 20
46.393201
 30
0.0
 11
-250.474375
 21
49.893201
 31
0.0
  0
LINE
  8
0
 10
-282.094693
 20
40.893201
 30
0.0
 11
-282.094693
 21
48.393201
 31
0.0
  0
LINE
  8
0
 10
-272.094693
 20
40.893201
 30
0.0
 11
-272.094693
 21
48.393201
 31
0.0
  0
LINE
  8
0
 10
-282.094693
 20
48.393201
 30
0.0
 11
-272.094693
 21
48.393201
 31
0.0
  0
ARC
  8
0
 10
-277.094693
 20
87.393201
 30
0.0
 40
3.5
 50
37.340026
 51
142.659974
  0
ARC
  8
0
 10
-258.860872
 20
73.944063
 30
0.0
 40
26.289505
 50
154.312803
 51
205.210117
  0
ARC
  8
0
 10
-268.290978
 20
79.15075
 30
0.0
 40
15.546221
 50
138.183718
 51
156.541547
  0
ARC
  8
0
 10
-301.980106
 20
54.816081
 30
0.0
 40
20.896963
 50
342.099827
 51
22.302295
  0
ARC
  8
0
 10
-285.898408
 20
79.15075
 30
0.0
 40
15.546221
 50
23.458453
 51
41.816282
  0
ARC
  8
0
 10
-295.328513
 20
73.944063
 30
0.0
 40
26.289505
 50
334.789883
 51
25.687197
  0
ARC
  8
0
 10
-252.209279
 20
54.816081
 30
0.0
 40
20.896963
 50
157.697705
 51
197.900173
  0
LINE
  8
0
 10
-318.400242
 20
-146.037117
 30
0.0
 11
-336.34145
 21
-136.204887
 31
0.0
  0
TEXT
  8
0
 10
-354.070282
 20
71.129498
 30
0.0
 40
5.0
  1
F
  0
TEXT
  8
0
 10
-278.526118
 20
71.129498
 30
0.0
 40
5.0
  1
F
  0
TEXT
  8
0
 10
-337.603129
 20
-104.010498
 30
0.0
 40
6.0
  1
F
  0
LINE
  8
0
 10
-318.400242
 20
-146.037117
 30
0.0
 11
-300.459035
 21
-136.204887
 31
0.0
  0
LINE
  8
0
 10
-238.77501
 20
-146.037117
 30
0.0
 11
-220.833802
 21
-136.204887
 31
0.0
  0
TEXT
  8
0
 10
-257.977897
 20
-104.010498
 30
0.0
 40
6.0
  1
F
  0
LINE
  8
0
 10
-238.77501
 20
-146.037117
 30
0.0
 11
-256.716217
 21
-136.204887
 31
0.0
  0
LINE
  8
0
 10
-229.833802
 20
-126.704887
 30
0.0
 11
-211.833802
 21
-126.704887
 31
0.0
  0
LINE
  8
0
 10
-229.833802
 20
-126.704887
 30
0.0
 11
-229.833802
 21
-131.204887
 31
0.0
  0
LINE
  8
0
 10
-211.833802
 20
-126.704887
 30
0.0
 11
-211.833802
 21
-131.204887
 31
0.0
  0
ARC
  8
0
 10
-220.833802
 20
-78.704887
 30
0.0
 40
2.0
 50
40.775316
 51
139.224684
  0
ARC
  8
0
 10
-191.106782
 20
-99.04575
 30
0.0
 40
38.732629
 50
155.128663
 51
198.984203
  0
ARC
  8
0
 10
-208.155844
 20
-91.825468
 30
0.0
 40
20.237567
 50
134.531025
 51
153.373366
  0
ARC
  8
0
 10
-245.759753
 20
-116.806676
 30
0.0
 40
18.751279
 50
328.138447
 51
15.975719
  0
LINE
  8
0
 10
-229.833802
 20
-131.204887
 30
0.0
 11
-229.333802
 21
-131.704887
 31
0.0
  0
ARC
  8
0
 10
-233.511761
 20
-91.825468
 30
0.0
 40
20.237567
 50
26.626634
 51
45.468975
  0
ARC
  8
0
 10
-250.560823
 20
-99.04575
 30
0.0
 40
38.732629
 50
341.015797
 51
24.871337
  0
ARC
  8
0
 10
-195.907852
 20
-116.806676
 30
0.0
 40
18.751279
 50
164.024281
 51
211.861553
  0
LINE
  8
0
 10
-211.833802
 20
-126.704887
 30
0.0
 11
-211.833802
 21
-131.204887
 31
0.0
  0
LINE
  8
0
 10
-211.833802
 20
-131.204887
 30
0.0
 11
-212.333802
 21
-131.704887
 31
0.0
  0
LINE
  8
0
 10
-226.333802
 20
-131.704887
 30
0.0
 11
-226.333802
 21
-136.204887
 31
0.0
  0
LINE
  8
0
 10
-215.333802
 20
-131.704887
 30
0.0
 11
-215.333802
 21
-136.204887
 31
0.0
  0
LINE
  8
0
 10
-229.333802
 20
-131.704887
 30
0.0
 11
-212.333802
 21
-131.704887
 31
0.0
  0
ARC
  8
0
 10
-233.385066
 20
-122.397522
 30
0.0
 40
19.086387
 50
161.495073
 51
200.895259
  0
ARC
  8
0
 10
-281.151412
 20
-100.919016
 30
0.0
 40
33.435285
 50
332.534665
 51
19.016292
  0
ARC
  8
0
 10
-273.260665
 20
-97.027867
 30
0.0
 40
24.732105
 50
16.449282
 51
38.188086
  0
ARC
  8
0
 10
-240.17177
 20
-97.027867
 30
0.0
 40
24.732105
 50
141.811914
 51
163.550718
  0
ARC
  8
0
 10
-280.047369
 20
-122.397522
 30
0.0
 40
19.086387
 50
339.104741
 51
18.504927
  0
ARC
  8
0
 10
-232.281023
 20
-100.919016
 30
0.0
 40
33.435285
 50
160.983708
 51
207.465335
  0
ARC
  8
0
 10
-256.716217
 20
-83.704887
 30
0.0
 40
3.5
 50
34.2045
 51
145.7955
  0
LINE
  8
0
 10
-251.216217
 20
-136.204887
 30
0.0
 11
-251.216217
 21
-129.204887
 31
0.0
  0
LINE
  8
0
 10
-262.216217
 20
-136.204887
 30
0.0
 11
-262.216217
 21
-129.204887
 31
0.0
  0
LINE
  8
0
 10
-262.216217
 20
-129.204887
 30
0.0
 11
-251.216217
 21
-129.204887
 31
0.0
  0
TEXT
  8
0
 10
-42.696605
 20
310.715092
 30
0.0
 40
7.0
  1
F
  0
LINE
  8
0
 10
-21.045641
 20
258.864904
 30
0.0
 11
-40.685239
 21
273.723392
 31
0.0
  0
LINE
  8
0
 10
-21.045641
 20
258.864904
 30
0.0
 11
-1.406042
 21
273.723392
 31
0.0
  0
LINE
  8
0
 10
67.746844
 20
258.864904
 30
0.0
 11
87.386442
 21
273.723392
 31
0.0
  0
LINE
  8
0
 10
67.746844
 20
258.864904
 30
0.0
 11
48.107245
 21
273.723392
 31
0.0
  0
TEXT
  8
0
 10
46.095879
 20
310.715092
 30
0.0
 40
7.0
  1
F
  0
LINE
  8
0
 10
78.386442
 20
285.623392
 30
0.0
 11
96.386442
 21
285.623392
 31
0.0
  0
ARC
  8
0
 10
87.386442
 20
337.123392
 30
0.0
 40
3.5
 50
37.333488
 51
142.666512
  0
ARC
  8
0
 10
99.771177
 20
325.253289
 30
0.0
 40
20.636206
 50
137.30738
 51
155.27572
  0
ARC
  8
0
 10
112.177672
 20
318.32256
 30
0.0
 40
34.821782
 50
153.455018
 51
201.573258
  0
ARC
  8
0
 10
75.001708
 20
325.253289
 30
0.0
 40
20.636206
 50
24.72428
 51
42.69262
  0
LINE
  8
0
 10
80.886442
 20
273.723392
 30
0.0
 11
80.886442
 21
279.623392
 31
0.0
  0
LINE
  8
0
 10
93.886442
 20
273.723392
 30
0.0
 11
93.886442
 21
279.623392
 31
0.0
  0
LINE
  8
0
 10
79.386442
 20
279.623392
 30
0.0
 11
95.386442
 21
279.623392
 31
0.0
  0
LINE
  8
0
 10
78.386442
 20
280.623392
 30
0.0
 11
78.386442
 21
285.623392
 31
0.0
  0
LINE
  8
0
 10
96.386442
 20
280.623392
 30
0.0
 11
96.386442
 21
285.623392
 31
0.0
  0
ARC
  8
0
 10
58.211218
 20
297.049613
 30
0.0
 40
23.186165
 50
330.474989
 51
21.424454
  0
ARC
  8
0
 10
62.595213
 20
318.32256
 30
0.0
 40
34.821782
 50
338.426742
 51
26.544982
  0
ARC
  8
0
 10
116.561667
 20
297.049613
 30
0.0
 40
23.186165
 50
158.575546
 51
209.525011
  0
LINE
  8
0
 10
78.386442
 20
280.623392
 30
0.0
 11
79.386442
 21
279.623392
 31
0.0
  0
LINE
  8
0
 10
95.386442
 20
279.623392
 30
0.0
 11
96.386442
 21
280.623392
 31
0.0
  0
ARC
  8
0
 10
76.841767
 20
291.128853
 30
0.0
 40
23.951644
 50
155.53951
 51
201.827289
  0
ARC
  8
0
 10
21.963801
 20
315.759254
 30
0.0
 40
36.200735
 50
335.637274
 51
25.350031
  0
ARC
  8
0
 10
31.147472
 20
318.57735
 30
0.0
 40
26.730726
 50
28.320509
 51
41.189749
  0
ARC
  8
0
 10
65.067018
 20
318.57735
 30
0.0
 40
26.730726
 50
138.810251
 51
151.679491
  0
ARC
  8
0
 10
19.372722
 20
291.128853
 30
0.0
 40
23.951644
 50
338.172711
 51
24.46049
  0
ARC
  8
0
 10
74.250688
 20
315.759254
 30
0.0
 40
36.200735
 50
154.649969
 51
204.362726
  0
ARC
  8
0
 10
48.107245
 20
333.723392
 30
0.0
 40
4.0
 50
37.908456
 51
142.091544
  0
LINE
  8
0
 10
41.607245
 20
282.223392
 30
0.0
 11
54.607245
 21
282.223392
 31
0.0
  0
LINE
  8
0
 10
54.607245
 20
273.723392
 30
0.0
 11
54.607245
 21
282.223392
 31
0.0
  0
LINE
  8
0
 10
41.607245
 20
273.723392
 30
0.0
 11
41.607245
 21
282.223392
 31
0.0
  0
TEXT
  8
0
 10
-24.168738
 20
102.439855
 30
0.0
 40
7.0
  1
F
  0
LINE
  8
0
 10
3.954359
 20
45.710313
 30
0.0
 11
-21.843475
 21
59.296834
 31
0.0
  0
LINE
  8
0
 10
3.954359
 20
45.710313
 30
0.0
 11
29.752194
 21
59.296834
 31
0.0
  0
LINE
  8
0
 10
104.23401
 20
45.710313
 30
0.0
 11
130.031844
 21
59.296834
 31
0.0
  0
LINE
  8
0
 10
104.23401
 20
45.710313
 30
0.0
 11
78.436176
 21
59.296834
 31
0.0
  0
TEXT
  8
0
 10
76.110913
 20
102.439855
 30
0.0
 40
7.0
  1
F
  0
LINE
  8
0
 10
120.431844
 20
68.296834
 30
0.0
 11
120.431844
 21
73.296834
 31
0.0
  0
LINE
  8
0
 10
139.631844
 20
68.296834
 30
0.0
 11
139.631844
 21
73.296834
 31
0.0
  0
LINE
  8
0
 10
120.431844
 20
73.296834
 30
0.0
 11
139.631844
 21
73.296834
 31
0.0
  0
ARC
  8
0
 10
130.031844
 20
130.796834
 30
0.0
 40
4.5
 50
34.066623
 51
145.933377
  0
ARC
  8
0
 10
157.75954
 20
110.780154
 30
0.0
 40
38.740159
 50
155.946815
 51
204.787736
  0
ARC
  8
0
 10
92.928877
 20
86.819511
 30
0.0
 40
30.64761
 50
333.817547
 51
14.586877
  0
ARC
  8
0
 10
148.149539
 20
116.11075
 30
0.0
 40
27.808211
 50
141.773891
 51
157.906299
  0
ARC
  8
0
 10
111.914149
 20
116.11075
 30
0.0
 40
27.808211
 50
22.093701
 51
38.226109
  0
ARC
  8
0
 10
102.304148
 20
110.780154
 30
0.0
 40
38.740159
 50
335.212264
 51
24.053185
  0
ARC
  8
0
 10
167.134812
 20
86.819511
 30
0.0
 40
30.64761
 50
165.413123
 51
206.182453
  0
LINE
  8
0
 10
120.431844
 20
68.296834
 30
0.0
 11
121.431844
 21
67.296834
 31
0.0
  0
LINE
  8
0
 10
139.631844
 20
68.296834
 30
0.0
 11
138.631844
 21
67.296834
 31
0.0
  0
LINE
  8
0
 10
123.031844
 20
59.296834
 30
0.0
 11
123.031844
 21
67.296834
 31
0.0
  0
LINE
  8
0
 10
121.431844
 20
67.296834
 30
0.0
 11
138.631844
 21
67.296834
 31
0.0
  0
LINE
  8
0
 10
137.031844
 20
59.296834
 30
0.0
 11
137.031844
 21
67.296834
 31
0.0
  0
LINE
  8
0
 10
85.336176
 20
59.296834
 30
0.0
 11
85.336176
 21
68.796834
 31
0.0
  0
ARC
  8
0
 10
104.788939
 20
76.692403
 30
0.0
 40
20.994047
 50
161.340797
 51
202.091456
  0
ARC
  8
0
 10
43.479758
 20
104.174142
 30
0.0
 40
45.468483
 50
19.657514
 51
34.424333
  0
ARC
  8
0
 10
44.881976
 20
103.02014
 30
0.0
 40
44.563447
 50
333.891799
 51
21.66164
  0
ARC
  8
0
 10
113.392594
 20
104.174142
 30
0.0
 40
45.468483
 50
145.575667
 51
160.342486
  0
ARC
  8
0
 10
52.083412
 20
76.692403
 30
0.0
 40
20.994047
 50
337.908544
 51
18.659203
  0
ARC
  8
0
 10
111.990376
 20
103.02014
 30
0.0
 40
44.563447
 50
158.33836
 51
206.108201
  0
ARC
  8
0
 10
78.436176
 20
128.296834
 30
0.0
 40
3.0
 50
31.81268
 51
148.18732
  0
LINE
  8
0
 10
71.536176
 20
68.796834
 30
0.0
 11
85.336176
 21
68.796834
 31
0.0
  0
LINE
  8
0
 10
71.536176
 20
59.296834
 30
0.0
 11
71.536176
 21
68.796834
 31
0.0
  0
TEXT
  8
0
 10
5.242995
 20
-141.19407
 30
0.0
 40
10.0
  1
F
  0
LINE
  8
0
 10
38.954359
 20
-207.265778
 30
0.0
 11
7.714182
 21
-184.911764
 31
0.0
  0
LINE
  8
0
 10
38.954359
 20
-207.265778
 30
0.0
 11
70.194537
 21
-184.911764
 31
0.0
  0
LINE
  8
0
 10
165.208054
 20
-207.265778
 30
0.0
 11
196.448232
 21
-184.911764
 31
0.0
  0
LINE
  8
0
 10
165.208054
 20
-207.265778
 30
0.0
 11
133.967876
 21
-184.911764
 31
0.0
  0
TEXT
  8
0
 10
131.496689
 20
-141.19407
 30
0.0
 40
10.0
  1
F
  0
LINE
  8
0
 10
186.048232
 20
-176.111764
 30
0.0
 11
186.048232
 21
-171.111764
 31
0.0
  0
LINE
  8
0
 10
186.048232
 20
-171.111764
 30
0.0
 11
206.848232
 21
-171.111764
 31
0.0
  0
ARC
  8
0
 10
196.448232
 20
-105.111764
 30
0.0
 40
3.0
 50
44.590664
 51
135.409336
  0
ARC
  8
0
 10
235.104199
 20
-132.086692
 30
0.0
 40
51.157558
 50
152.899661
 51
200.551187
  0
ARC
  8
0
 10
166.953445
 20
-159.500782
 30
0.0
 40
22.347836
 50
328.697437
 51
25.030925
  0
ARC
  8
0
 10
207.311588
 20
-118.532693
 30
0.0
 40
20.250511
 50
129.93724
 51
151.215895
  0
LINE
  8
0
 10
186.048232
 20
-176.111764
 30
0.0
 11
187.048232
 21
-177.111764
 31
0.0
  0
LINE
  8
0
 10
206.848232
 20
-176.111764
 30
0.0
 11
205.848232
 21
-177.111764
 31
0.0
  0
ARC
  8
0
 10
225.943018
 20
-159.500782
 30
0.0
 40
22.347836
 50
154.969075
 51
211.302563
  0
ARC
  8
0
 10
157.792264
 20
-132.086692
 30
0.0
 40
51.157558
 50
339.448813
 51
27.100339
  0
LINE
  8
0
 10
206.848232
 20
-176.111764
 30
0.0
 11
206.848232
 21
-171.111764
 31
0.0
  0
ARC
  8
0
 10
185.584875
 20
-118.532693
 30
0.0
 40
20.250511
 50
28.784105
 51
50.06276
  0
LINE
  8
0
 10
188.448232
 20
-184.911764
 30
0.0
 11
188.448232
 21
-177.111764
 31
0.0
  0
LINE
  8
0
 10
204.448232
 20
-184.911764
 30
0.0
 11
204.448232
 21
-177.111764
 31
0.0
  0
LINE
  8
0
 10
187.048232
 20
-177.111764
 30
0.0
 11
205.848232
 21
-177.111764
 31
0.0
  0
ARC
  8
0
 10
101.660289
 20
-132.656696
 30
0.0
 40
43.890162
 50
25.917183
 51
36.693263
  0
ARC
  8
0
 10
165.316106
 20
-165.506657
 30
0.0
 40
25.17133
 50
156.183171
 51
201.940505
  0
ARC
  8
0
 10
97.898683
 20
-135.613423
 30
0.0
 40
48.576363
 50
336.037551
 51
27.114778
  0
ARC
  8
0
 10
166.275464
 20
-132.656696
 30
0.0
 40
43.890162
 50
143.306737
 51
154.082817
  0
ARC
  8
0
 10
102.619647
 20
-165.506657
 30
0.0
 40
25.17133
 50
338.059495
 51
23.816829
  0
ARC
  8
0
 10
170.037069
 20
-135.613423
 30
0.0
 40
48.576363
 50
152.885222
 51
203.962449
  0
ARC
  8
0
 10
133.967876
 20
-108.411764
 30
0.0
 40
3.5
 50
34.467679
 51
145.532321
  0
LINE
  8
0
 10
125.967876
 20
-174.911764
 30
0.0
 11
141.967876
 21
-174.911764
 31
0.0
  0
LINE
  8
0
 10
141.967876
 20
-184.911764
 30
0.0
 11
141.967876
 21
-174.911764
 31
0.0
  0
LINE
  8
0
 10
125.967876
 20
-184.911764
 30
0.0
 11
125.967876
 21
-174.911764
 31
0.0
  0
TEXT
  8
0
 10
457.208329
 20
431.472184
 30
0.0
 40
10.0
  1
F
  0
LINE
  8
0
 10
500.262654
 20
362.840485
 30
0.0
 11
460.449499
 21
382.506426
 31
0.0
  0
LINE
  8
0
 10
500.262654
 20
362.840485
 30
0.0
 11
540.07581
 21
382.506426
 31
0.0
  0
LINE
  8
0
 10
650.124667
 20
362.143334
 30
0.0
 11
689.937823
 21
381.809275
 31
0.0
  0
LINE
  8
0
 10
650.124667
 20
362.143334
 30
0.0
 11
610.311511
 21
381.809275
 31
0.0
  0
TEXT
  8
0
 10
607.070342
 20
430.775033
 30
0.0
 40
10.0
  1
F
  0
LINE
  8
0
 10
679.437823
 20
392.009275
 30
0.0
 11
680.937823
 21
392.009275
 31
0.0
  0
LINE
  8
0
 10
678.437823
 20
393.009275
 30
0.0
 11
678.437823
 21
398.009275
 31
0.0
  0
ARC
  8
0
 10
689.937823
 20
472.509275
 30
0.0
 40
4.5
 50
36.512623
 51
143.487377
  0
ARC
  8
0
 10
721.077532
 20
446.446094
 30
0.0
 40
45.119316
 50
150.518193
 51
199.668413
  0
ARC
  8
0
 10
705.274945
 20
457.245509
 30
0.0
 40
26.098637
 50
136.572144
 51
154.085364
  0
LINE
  8
0
 10
678.437823
 20
398.009275
 30
0.0
 11
701.437823
 21
398.009275
 31
0.0
  0
ARC
  8
0
 10
642.96884
 20
414.798011
 30
0.0
 40
39.241692
 50
334.670134
 51
24.803194
  0
LINE
  8
0
 10
678.437823
 20
393.009275
 30
0.0
 11
679.437823
 21
392.009275
 31
0.0
  0
ARC
  8
0
 10
674.6007
 20
457.245509
 30
0.0
 40
26.098637
 50
25.914636
 51
43.427856
  0
ARC
  8
0
 10
658.798113
 20
446.446094
 30
0.0
 40
45.119316
 50
340.331587
 51
29.481807
  0
ARC
  8
0
 10
736.906805
 20
414.798011
 30
0.0
 40
39.241692
 50
155.196806
 51
205.329866
  0
LINE
  8
0
 10
701.437823
 20
393.009275
 30
0.0
 11
700.437823
 21
392.009275
 31
0.0
  0
LINE
  8
0
 10
701.437823
 20
393.009275
 30
0.0
 11
701.437823
 21
398.009275
 31
0.0
  0
LINE
  8
0
 10
680.937823
 20
381.809275
 30
0.0
 11
680.937823
 21
392.009275
 31
0.0
  0
LINE
  8
0
 10
698.937823
 20
381.809275
 30
0.0
 11
698.937823
 21
392.009275
 31
0.0
  0
LINE
  8
0
 10
679.437823
 20
392.009275
 30
0.0
 11
700.437823
 21
392.009275
 31
0.0
  0
LINE
  8
0
 10
619.311511
 20
381.809275
 30
0.0
 11
619.311511
 21
392.309275
 31
0.0
  0
ARC
  8
0
 10
662.303731
 20
404.706578
 30
0.0
 40
44.743984
 50
161.899305
 51
196.085527
  0
ARC
  8
0
 10
571.371977
 20
440.053279
 30
0.0
 40
52.940153
 50
336.103521
 51
23.685354
  0
ARC
  8
0
 10
579.759478
 20
443.203164
 30
0.0
 40
43.99649
 50
24.316736
 51
36.023122
  0
ARC
  8
0
 10
640.863544
 20
443.203164
 30
0.0
 40
43.99649
 50
143.976878
 51
155.683264
  0
ARC
  8
0
 10
558.319292
 20
404.706578
 30
0.0
 40
44.743984
 50
343.914473
 51
18.100695
  0
ARC
  8
0
 10
649.251046
 20
440.053279
 30
0.0
 40
52.940153
 50
156.314646
 51
203.896479
  0
ARC
  8
0
 10
610.311511
 20
465.809275
 30
0.0
 40
6.0
 50
33.010301
 51
146.989699
  0
LINE
  8
0
 10
601.311511
 20
392.309275
 30
0.0
 11
619.311511
 21
392.309275
 31
0.0
  0
LINE
  8
0
 10
601.311511
 20
381.809275
 30
0.0
 11
601.311511
 21
392.309275
 31
0.0
  0
TEXT
  8
0
 10
504.132484
 20
115.684914
 30
0.0
 40
12.0
  1
F
  0
LINE
  8
0
 10
550.262654
 20
39.20623
 30
0.0
 11
508.115136
 21
58.339775
 31
0.0
  0
LINE
  8
0
 10
550.262654
 20
39.20623
 30
0.0
 11
592.410172
 21
58.339775
 31
0.0
  0
LINE
  8
0
 10
580.910172
 20
68.539775
 30
0.0
 11
603.910172
 21
68.539775
 31
0.0
  0
LINE
  8
0
 10
602.410172
 20
58.339775
 30
0.0
 11
602.410172
 21
68.539775
 31
0.0
  0
LINE
  8
0
 10
582.410172
 20
58.339775
 30
0.0
 11
582.410172
 21
68.539775
 31
0.0
  0
LINE
  8
0
 10
604.910172
 20
69.539775
 30
0.0
 11
603.910172
 21
68.539775
 31
0.0
  0
LINE
  8
0
 10
604.910172
 20
69.539775
 30
0.0
 11
604.910172
 21
76.039775
 31
0.0
  0
ARC
  8
0
 10
639.571482
 20
93.797345
 30
0.0
 40
38.945317
 50
161.617497
 51
207.126824
  0
ARC
  8
0
 10
557.66946
 20
129.316812
 30
0.0
 40
50.595981
 50
332.65937
 51
31.791479
  0
ARC
  8
0
 10
577.162401
 20
143.229968
 30
0.0
 40
26.74301
 50
28.455234
 51
43.251298
  0
LINE
  8
0
 10
579.910172
 20
69.539775
 30
0.0
 11
580.910172
 21
68.539775
 31
0.0
  0
ARC
  8
0
 10
607.657943
 20
143.229968
 30
0.0
 40
26.74301
 50
136.748702
 51
151.544766
  0
ARC
  8
0
 10
545.248862
 20
93.797345
 30
0.0
 40
38.945317
 50
332.873176
 51
18.382503
  0
ARC
  8
0
 10
627.150884
 20
129.316812
 30
0.0
 40
50.595981
 50
148.208521
 51
207.34063
  0
ARC
  8
0
 10
592.410172
 20
158.039775
 30
0.0
 40
5.5
 50
39.717147
 51
140.282853
  0
LINE
  8
0
 10
579.910172
 20
76.039775
 30
0.0
 11
604.910172
 21
76.039775
 31
0.0
  0
LINE
  8
0
 10
604.910172
 20
69.539775
 30
0.0
 11
604.910172
 21
76.039775
 31
0.0
  0
LINE
  8
0
 10
579.910172
 20
69.539775
 30
0.0
 11
579.910172
 21
76.039775
 31
0.0
  0
LINE
  8
0
 10
736.030631
 20
69.539775
 30
0.0
 11
736.030631
 21
76.039775
 31
0.0
  0
LINE
  8
0
 10
761.030631
 20
69.539775
 30
0.0
 11
761.030631
 21
76.039775
 31
0.0
  0
LINE
  8
0
 10
736.030631
 20
76.039775
 30
0.0
 11
761.030631
 21
76.039775
 31
0.0
  0
ARC
  8
0
 10
748.530631
 20
158.039775
 30
0.0
 40
5.5
 50
39.717147
 51
140.282853
  0
ARC
  8
0
 10
783.271343
 20
129.316812
 30
0.0
 40
50.595981
 50
148.208521
 51
207.34063
  0
ARC
  8
0
 10
701.369321
 20
93.797345
 30
0.0
 40
38.945317
 50
332.873176
 51
18.382503
  0
ARC
  8
0
 10
763.778402
 20
143.229968
 30
0.0
 40
26.74301
 50
136.748702
 51
151.544766
  0
LINE
  8
0
 10
736.030631
 20
69.539775
 30
0.0
 11
737.030631
 21
68.539775
 31
0.0
  0
ARC
  8
0
 10
733.28286
 20
143.229968
 30
0.0
 40
26.74301
 50
28.455234
 51
43.251298
  0
ARC
  8
0
 10
713.789918
 20
129.316812
 30
0.0
 40
50.595981
 50
332.65937
 51
31.791479
  0
ARC
  8
0
 10
795.691941
 20
93.797345
 30
0.0
 40
38.945317
 50
161.617497
 51
207.126824
  0
LINE
  8
0
 10
761.030631
 20
69.539775
 30
0.0
 11
761.030631
 21
76.039775
 31
0.0
  0
LINE
  8
0
 10
761.030631
 20
69.539775
 30
0.0
 11
760.030631
 21
68.539775
 31
0.0
  0
LINE
  8
0
 10
738.530631
 20
58.339775
 30
0.0
 11
738.530631
 21
68.539775
 31
0.0
  0
LINE
  8
0
 10
758.530631
 20
58.339775
 30
0.0
 11
758.530631
 21
68.539775
 31
0.0
  0
LINE
  8
0
 10
737.030631
 20
68.539775
 30
0.0
 11
760.030631
 21
68.539775
 31
0.0
  0
LINE
  8
0
 10
706.383113
 20
39.20623
 30
0.0
 11
748.530631
 21
58.339775
 31
0.0
  0
LINE
  8
0
 10
706.383113
 20
39.20623
 30
0.0
 11
664.235595
 21
58.339775
 31
0.0
  0
TEXT
  8
0
 10
660.252942
 20
115.684914
 30
0.0
 40
12.0
  1
F
  0
LINE
  8
0
 10
674.235595
 20
58.339775
 30
0.0
 11
674.235595
 21
71.339775
 31
0.0
  0
ARC
  8
0
 10
710.644442
 20
83.89082
 30
0.0
 40
38.511464
 50
158.624529
 51
199.020359
  0
ARC
  8
0
 10
619.367715
 20
123.13827
 30
0.0
 40
60.879737
 50
335.536766
 51
22.287707
  0
ARC
  8
0
 10
643.848882
 20
134.690803
 30
0.0
 40
33.875285
 50
19.911005
 51
35.375805
  0
ARC
  8
0
 10
684.622308
 20
134.690803
 30
0.0
 40
33.875285
 50
144.624195
 51
160.088995
  0
ARC
  8
0
 10
617.826748
 20
83.89082
 30
0.0
 40
38.511464
 50
340.979641
 51
21.375471
  0
ARC
  8
0
 10
709.103475
 20
123.13827
 30
0.0
 40
60.879737
 50
157.712293
 51
204.463234
  0
ARC
  8
0
 10
664.235595
 20
149.839775
 30
0.0
 40
8.5
 50
31.669674
 51
148.330326
  0
LINE
  8
0
 10
654.235595
 20
58.339775
 30
0.0
 11
654.235595
 21
71.339775
 31
0.0
  0
LINE
  8
0
 10
654.235595
 20
71.339775
 30
0.0
 11
674.235595
 21
71.339775
 31
0.0
  0
TEXT
  8
0
 10
570.034084
 20
-217.480127
 30
0.0
 40
12.0
  1
F
  0
LINE
  8
0
 10
615.262654
 20
-308.233598
 30
0.0
 11
573.390485
 21
-282.999876
 31
0.0
  0
LINE
  8
0
 10
615.262654
 20
-308.233598
 30
0.0
 11
657.134823
 21
-282.999876
 31
0.0
  0
LINE
  8
0
 10
643.134823
 20
-270.999876
 30
0.0
 11
643.134823
 21
-262.999876
 31
0.0
  0
LINE
  8
0
 10
671.134823
 20
-270.999876
 30
0.0
 11
671.134823
 21
-262.999876
 31
0.0
  0
LINE
  8
0
 10
643.134823
 20
-262.999876
 30
0.0
 11
671.134823
 21
-262.999876
 31
0.0
  0
ARC
  8
0
 10
657.134823
 20
-171.999876
 30
0.0
 40
6.0
 50
29.018435
 51
150.981565
  0
ARC
  8
0
 10
690.125332
 20
-208.527583
 30
0.0
 40
51.003418
 50
166.053883
 51
206.951203
  0
ARC
  8
0
 10
609.599752
 20
-245.652245
 30
0.0
 40
37.756341
 50
332.647557
 51
21.778454
  0
ARC
  8
0
 10
717.270214
 20
-212.12538
 30
0.0
 40
78.274709
 50
146.646168
 51
168.287308
  0
LINE
  8
0
 10
643.134823
 20
-270.999876
 30
0.0
 11
644.134823
 21
-271.999876
 31
0.0
  0
ARC
  8
0
 10
596.999432
 20
-212.12538
 30
0.0
 40
78.274709
 50
11.712692
 51
33.353832
  0
ARC
  8
0
 10
624.144314
 20
-208.527583
 30
0.0
 40
51.003418
 50
333.048797
 51
13.946117
  0
ARC
  8
0
 10
704.669895
 20
-245.652245
 30
0.0
 40
37.756341
 50
158.221546
 51
207.352443
  0
LINE
  8
0
 10
671.134823
 20
-270.999876
 30
0.0
 11
671.134823
 21
-262.999876
 31
0.0
  0
LINE
  8
0
 10
671.134823
 20
-270.999876
 30
0.0
 11
670.134823
 21
-271.999876
 31
0.0
  0
LINE
  8
0
 10
646.134823
 20
-282.999876
 30
0.0
 11
646.134823
 21
-271.999876
 31
0.0
  0
LINE
  8
0
 10
644.134823
 20
-271.999876
 30
0.0
 11
670.134823
 21
-271.999876
 31
0.0
  0
LINE
  8
0
 10
668.134823
 20
-282.999876
 30
0.0
 11
668.134823
 21
-271.999876
 31
0.0
  0
LINE
  8
0
 10
840.334103
 20
-282.999876
 30
0.0
 11
840.334103
 21
-271.999876
 31
0.0
  0
LINE
  8
0
 10
816.334103
 20
-271.999876
 30
0.0
 11
842.334103
 21
-271.999876
 31
0.0
  0
LINE
  8
0
 10
818.334103
 20
-282.999876
 30
0.0
 11
818.334103
 21
-271.999876
 31
0.0
  0
LINE
  8
0
 10
843.334103
 20
-270.999876
 30
0.0
 11
842.334103
 21
-271.999876
 31
0.0
  0
LINE
  8
0
 10
843.334103
 20
-270.999876
 30
0.0
 11
843.334103
 21
-262.999876
 31
0.0
  0
ARC
  8
0
 10
876.869174
 20
-245.652245
 30
0.0
 40
37.756341
 50
158.221546
 51
207.352443
  0
ARC
  8
0
 10
796.343594
 20
-208.527583
 30
0.0
 40
51.003418
 50
333.048797
 51
13.946117
  0
ARC
  8
0
 10
769.198712
 20
-212.12538
 30
0.0
 40
78.274709
 50
11.712692
 51
33.353832
  0
LINE
  8
0
 10
815.334103
 20
-270.999876
 30
0.0
 11
816.334103
 21
-271.999876
 31
0.0
  0
ARC
  8
0
 10
889.469494
 20
-212.12538
 30
0.0
 40
78.274709
 50
146.646168
 51
168.287308
  0
ARC
  8
0
 10
781.799032
 20
-245.652245
 30
0.0
 40
37.756341
 50
332.647557
 51
21.778454
  0
ARC
  8
0
 10
862.324612
 20
-208.527583
 30
0.0
 40
51.003418
 50
166.053883
 51
206.951203
  0
ARC
  8
0
 10
829.334103
 20
-171.999876
 30
0.0
 40
6.0
 50
29.018435
 51
150.981565
  0
LINE
  8
0
 10
815.334103
 20
-262.999876
 30
0.0
 11
843.334103
 21
-262.999876
 31
0.0
  0
LINE
  8
0
 10
843.334103
 20
-270.999876
 30
0.0
 11
843.334103
 21
-262.999876
 31
0.0
  0
LINE
  8
0
 10
815.334103
 20
-270.999876
 30
0.0
 11
815.334103
 21
-262.999876
 31
0.0
  0
LINE
  8
0
 10
787.461934
 20
-308.233598
 30
0.0
 11
829.334103
 21
-282.999876
 31
0.0
  0
LINE
  8
0
 10
787.461934
 20
-308.233598
 30
0.0
 11
745.589765
 21
-282.999876
 31
0.0
  0
TEXT
  8
0
 10
742.233364
 20
-217.480127
 30
0.0
 40
12.0
  1
F
  0
LINE
  8
0
 10
756.589765
 20
-282.999876
 30
0.0
 11
756.589765
 21
-267.999876
 31
0.0
  0
ARC
  8
0
 10
783.61796
 20
-256.518891
 30
0.0
 40
29.365564
 50
156.501796
 51
203.014721
  0
ARC
  8
0
 10
693.420285
 20
-214.428618
 30
0.0
 40
70.184024
 50
334.349197
 51
17.440454
  0
ARC
  8
0
 10
698.894716
 20
-209.582703
 30
0.0
 40
63.578855
 50
14.751819
 51
33.188498
  0
ARC
  8
0
 10
792.284814
 20
-209.582703
 30
0.0
 40
63.578855
 50
146.811502
 51
165.248181
  0
ARC
  8
0
 10
707.561569
 20
-256.518891
 30
0.0
 40
29.365564
 50
336.985279
 51
23.498204
  0
ARC
  8
0
 10
797.759244
 20
-214.428618
 30
0.0
 40
70.184024
 50
162.559546
 51
205.650803
  0
ARC
  8
0
 10
745.589765
 20
-178.499876
 30
0.0
 40
7.5
 50
29.735141
 51
150.264859
  0
LINE
  8
0
 10
734.589765
 20
-267.999876
 30
0.0
 11
756.589765
 21
-267.999876
 31
0.0
  0
LINE
  8
0
 10
734.589765
 20
-282.999876
 30
0.0
 11
734.589765
 21
-267.999876
 31
0.0
  0
ENDSEC
  0
EOF
