  0
SECTION
  2
HEADER
  9
$ACADVER
  1
AC1009
  9
$INSBASE
 10
0.0
 20
0.0
 30
0.0
  9
$EXTMIN
 10
-154.094382
 20
-157.087385
 30
0.0
  9
$EXTMAX
 10
1210.552855
 20
504.589982
 30
0.0
  9
$LIMMIN
 10
0.0
 20
0.0
  9
$LIMMAX
 10
420.0
 20
297.0
  9
$ORTHOMODE
 70
     1
  9
$REGENMODE
 70
     1
  9
$FILLMODE
 70
     1
  9
$QTEXTMODE
 70
     0
  9
$MIRRTEXT
 70
     1
  9
$DRAGMODE
 70
     2
  9
$LTSCALE
 40
12.0
  9
$OSMODE
 70
     0
  9
$ATTMODE
 70
     1
  9
$TEXTSIZE
 40
3.5
  9
$TRACEWID
 40
1.0
  9
$TEXTSTYLE
  7
STANDARD
  9
$CLAYER
  8
0
  9
$CELTYPE
  6
BYLAYER
  9
$CECOLOR
 62
   256
  9
$DIMSCALE
 40
1.0
  9
$DIMASZ
 40
2.5
  9
$DIMEXO
 40
0.625
  9
$DIMDLI
 40
3.75
  9
$DIMRND
 40
0.0
  9
$DIMDLE
 40
0.0
  9
$DIMEXE
 40
1.25
  9
$DIMTP
 40
0.0
  9
$DIMTM
 40
0.0
  9
$DIMTXT
 40
2.5
  9
$DIMCEN
 40
2.5
  9
$DIMTSZ
 40
0.0
  9
$DIMTOL
 70
     0
  9
$DIMLIM
 70
     0
  9
$DIMTIH
 70
     1
  9
$DIMTOH
 70
     0
  9
$DIMSE1
 70
     0
  9
$DIMSE2
 70
     0
  9
$DIMTAD
 70
     1
  9
$DIMZIN
 70
     8
  9
$DIMBLK
  1

  9
$DIMASO
 70
     1
  9
$DIMSHO
 70
     1
  9
$DIMPOST
  1

  9
$DIMAPOST
  1

  9
$DIMALT
 70
     0
  9
$DIMALTD
 70
     2
  9
$DIMALTF
 40
0.0394
  9
$DIMLFAC
 40
1.0
  9
$DIMTOFL
 70
     1
  9
$DIMTVP
 40
1.0
  9
$DIMTIX
 70
     0
  9
$DIMSOXD
 70
     0
  9
$DIMSAH
 70
     0
  9
$DIMBLK1
  1

  9
$DIMBLK2
  1

  9
$DIMSTYLE
  2
*UNNAMED
  9
$DIMCLRD
 70
     0
  9
$DIMCLRE
 70
     0
  9
$DIMCLRT
 70
     0
  9
$DIMTFAC
 40
1.0
  9
$DIMGAP
 40
0.625
  9
$LUNITS
 70
     2
  9
$LUPREC
 70
     4
  9
$SKETCHINC
 40
1.0
  9
$FILLETRAD
 40
0.0
  9
$AUNITS
 70
     0
  9
$AUPREC
 70
     0
  9
$MENU
  1
acad
  9
$ELEVATION
 40
0.0
  9
$PELEVATION
 40
0.0
  9
$THICKNESS
 40
0.0
  9
$LIMCHECK
 70
     0
  9
$BLIPMODE
 70
     1
  9
$CHAMFERA
 40
10.0
  9
$CHAMFERB
 40
10.0
  9
$SKPOLY
 70
     0
  9
$TDCREATE
 40
2450203.310069560
  9
$TDUPDATE
 40
2450227.290162962
  9
$TDINDWG
 40
0.0263462963
  9
$TDUSRTIMER
 40
0.0263462963
  9
$USRTIMER
 70
     1
  9
$ANGBASE
 50
0.0
  9
$ANGDIR
 70
     0
  9
$PDMODE
 70
     0
  9
$PDSIZE
 40
0.0
  9
$PLINEWID
 40
0.0
  9
$COORDS
 70
     1
  9
$SPLFRAME
 70
     0
  9
$SPLINETYPE
 70
     6
  9
$SPLINESEGS
 70
     8
  9
$ATTDIA
 70
     0
  9
$ATTREQ
 70
     1
  9
$HANDLING
 70
     0
  9
$HANDSEED
  5
0
  9
$SURFTAB1
 70
     6
  9
$SURFTAB2
 70
     6
  9
$SURFTYPE
 70
     6
  9
$SURFU
 70
     6
  9
$SURFV
 70
     6
  9
$UCSNAME
  2

  9
$UCSORG
 10
0.0
 20
0.0
 30
0.0
  9
$UCSXDIR
 10
1.0
 20
0.0
 30
0.0
  9
$UCSYDIR
 10
0.0
 20
1.0
 30
0.0
  9
$PUCSNAME
  2

  9
$PUCSORG
 10
0.0
 20
0.0
 30
0.0
  9
$PUCSXDIR
 10
1.0
 20
0.0
 30
0.0
  9
$PUCSYDIR
 10
0.0
 20
1.0
 30
0.0
  9
$USERI1
 70
     0
  9
$USERI2
 70
     0
  9
$USERI3
 70
     0
  9
$USERI4
 70
     0
  9
$USERI5
 70
     0
  9
$USERR1
 40
0.0
  9
$USERR2
 40
0.0
  9
$USERR3
 40
0.0
  9
$USERR4
 40
0.0
  9
$USERR5
 40
0.0
  9
$WORLDVIEW
 70
     1
  9
$SHADEDGE
 70
     3
  9
$SHADEDIF
 70
    70
  9
$TILEMODE
 70
     1
  9
$MAXACTVP
 70
    16
  9
$PINSBASE
 10
0.0
 20
0.0
 30
0.0
  9
$PLIMCHECK
 70
     0
  9
$PEXTMIN
 10
1.000000E+20
 20
1.000000E+20
 30
1.000000E+20
  9
$PEXTMAX
 10
-1.000000E+20
 20
-1.000000E+20
 30
-1.000000E+20
  9
$PLIMMIN
 10
0.0
 20
0.0
  9
$PLIMMAX
 10
420.0
 20
297.0
  9
$UNITMODE
 70
     0
  9
$VISRETAIN
 70
     0
  9
$PLINEGEN
 70
     0
  9
$PSLTSCALE
 70
     1
  9
$TREEDEPTH
 70
  3020
  9
$DWGCODEPAGE
  3
iso8859-1
  0
ENDSEC
  0
SECTION
  2
TABLES
  0
TABLE
  2
VPORT
 70
     2
  0
VPORT
  2
*ACTIVE
 70
     0
 10
0.0
 20
0.0
 11
1.0
 21
1.0
 12
578.165511
 22
254.377047
 13
0.0
 23
0.0
 14
10.0
 24
10.0
 15
10.0
 25
10.0
 16
0.0
 26
0.0
 36
1.0
 17
0.0
 27
0.0
 37
0.0
 40
914.365405
 41
1.767507
 42
50.0
 43
0.0
 44
0.0
 50
0.0
 51
0.0
 71
     0
 72
   100
 73
     1
 74
     0
 75
     0
 76
     0
 77
     0
 78
     0
  0
ENDTAB
  0
TABLE
  2
LTYPE
 70
     3
  0
LTYPE
  2
CONTINUOUS
 70
    64
  3
Solid line
 72
    65
 73
     0
 40
0.0
  0
LTYPE
  2
CENTER
 70
    64
  3
____ _ ____ _ ____ _ ____ _ ____ _ ____ _ ____
 72
    65
 73
     4
 40
2.0
 49
1.25
 49
-0.25
 49
0.25
 49
-0.25
  0
LTYPE
  2
HIDDEN
 70
    64
  3
_ _ _ _ _ _ _ _ _ _ _ _ _ _ _ _ _ _ _ _ _ _ _
 72
    65
 73
     2
 40
0.375
 49
0.25
 49
-0.125
  0
ENDTAB
  0
TABLE
  2
LAYER
 70
     1
  0
LAYER
  2
0
 70
    64
 62
     7
  6
CONTINUOUS
  0
ENDTAB
  0
TABLE
  2
STYLE
 70
     1
  0
STYLE
  2
STANDARD
 70
     0
 40
0.0
 41
1.0
 50
0.0
 71
     0
 42
3.5
  3
txt
  4

  0
ENDTAB
  0
TABLE
  2
VIEW
 70
     0
  0
ENDTAB
  0
TABLE
  2
UCS
 70
     0
  0
ENDTAB
  0
TABLE
  2
APPID
 70
     1
  0
APPID
  2
ACAD
 70
    64
  0
ENDTAB
  0
TABLE
  2
DIMSTYLE
 70
     0
  0
ENDTAB
  0
ENDSEC
  0
SECTION
  2
BLOCKS
  0
BLOCK
  8
0
  2
ACAD2C3F
 70
     0
 10
0.0
 20
0.0
 30
0.0
  3
ACAD2C3F
  0
ARC
  8
0
  6
HIDDEN
 10
90.011152
 20
-9.154161
 30
0.0
 40
13.859843
 50
330.024595
 51
89.975405
  0
ARC
  8
0
  6
HIDDEN
 10
153.54264
 20
27.52576
 30
0.0
 40
67.5
 50
140.240348
 51
159.759652
  0
CIRCLE
  8
0
 10
153.54264
 20
27.52576
 30
0.0
 40
71.0
  0
CIRCLE
  8
0
 10
153.54264
 20
27.52576
 30
0.0
 40
80.0
  0
CIRCLE
  8
0
 10
153.54264
 20
27.52576
 30
0.0
 40
68.0
  0
CIRCLE
  8
0
 10
106.90399
 20
198.418767
 30
0.0
 40
15.5
  0
ARC
  8
0
  6
HIDDEN
 10
106.90399
 20
198.418767
 30
0.0
 40
51.95
 50
257.075033
 51
282.924967
  0
ARC
  8
0
  6
HIDDEN
 10
106.90399
 20
260.935745
 30
0.0
 40
16.516979
 50
225.872831
 51
314.127169
  0
CIRCLE
  8
0
 10
106.90399
 20
198.418767
 30
0.0
 40
54.5
  0
CIRCLE
  8
0
 10
106.90399
 20
198.418767
 30
0.0
 40
16.0
  0
CIRCLE
  8
0
 10
106.90399
 20
198.418767
 30
0.0
 40
62.5
  0
CIRCLE
  8
0
 10
106.90399
 20
198.418767
 30
0.0
 40
52.45
  0
ARC
  8
0
  6
HIDDEN
 10
-51.086827
 20
-23.697162
 30
0.0
 40
16.222922
 50
49.666742
 51
130.333258
  0
ARC
  8
0
  6
HIDDEN
 10
-51.086827
 20
78.748682
 30
0.0
 40
16.222922
 50
229.666742
 51
310.333258
  0
CIRCLE
  8
0
 10
-51.086827
 20
27.52576
 30
0.0
 40
14.0
  0
CIRCLE
  8
0
 10
-51.086827
 20
27.52576
 30
0.0
 40
50.0
  0
CIRCLE
  8
0
 10
-51.086827
 20
27.52576
 30
0.0
 40
42.5
  0
CIRCLE
  8
0
 10
-51.086827
 20
27.52576
 30
0.0
 40
40.75
  0
ARC
  8
0
  6
HIDDEN
 10
-51.086827
 20
27.52576
 30
0.0
 40
40.25
 50
165.121665
 51
194.878335
  0
ARC
  8
0
  6
HIDDEN
 10
-51.086827
 20
27.52576
 30
0.0
 40
40.25
 50
225.121665
 51
254.878335
  0
ARC
  8
0
  6
HIDDEN
 10
-95.447179
 20
1.914299
 30
0.0
 40
16.222922
 50
349.666742
 51
70.333258
  0
CIRCLE
  8
0
 10
-51.086827
 20
27.52576
 30
0.0
 40
5.0
  0
ARC
  8
0
  6
HIDDEN
 10
-95.447179
 20
53.137221
 30
0.0
 40
16.222922
 50
289.666742
 51
10.333258
  0
ARC
  8
0
  6
HIDDEN
 10
-51.086827
 20
27.52576
 30
0.0
 40
40.25
 50
105.121665
 51
134.878335
  0
ARC
  8
0
 10
44.780142
 20
-14.98206
 30
0.0
 40
7.492184
 50
179.940196
 51
0.059804
  0
INSERT
  8
0
  2
*X3
 10
-34.381471
 20
-10.707395
 30
0.0
  0
LINE
  8
0
  6
CENTER
 10
15.715444
 20
27.52576
 30
0.0
 11
58.430055
 21
27.52576
 31
0.0
  0
LINE
  8
0
 10
20.287962
 20
22.52576
 30
0.0
 11
37.287962
 21
22.52576
 31
0.0
  0
LINE
  8
0
 10
20.287962
 20
32.52576
 30
0.0
 11
37.287962
 21
32.52576
 31
0.0
  0
LINE
  8
0
 10
26.297163
 20
41.52576
 30
0.0
 11
29.045987
 21
42.504155
 31
0.0
  0
LINE
  8
0
 10
26.297163
 20
13.52576
 30
0.0
 11
29.045987
 21
12.547365
 31
0.0
  0
ARC
  8
0
  6
HIDDEN
 10
-51.086827
 20
27.52576
 30
0.0
 40
40.25
 50
345.121665
 51
14.878335
  0
LINE
  8
0
 10
20.287962
 20
40.52576
 30
0.0
 11
20.287962
 21
14.52576
 31
0.0
  0
ARC
  8
0
  6
HIDDEN
 10
-6.726476
 20
1.914299
 30
0.0
 40
16.222922
 50
109.666742
 51
190.333258
  0
ARC
  8
0
  6
HIDDEN
 10
-51.086827
 20
27.52576
 30
0.0
 40
40.25
 50
285.121665
 51
314.878335
  0
LINE
  8
0
 10
21.287962
 20
13.52576
 30
0.0
 11
26.297163
 21
13.52576
 31
0.0
  0
LINE
  8
0
 10
21.287962
 20
13.52576
 30
0.0
 11
20.287962
 21
14.52576
 31
0.0
  0
ARC
  8
0
  6
HIDDEN
 10
-51.086827
 20
27.52576
 30
0.0
 40
40.25
 50
45.121665
 51
74.878335
  0
ARC
  8
0
  6
HIDDEN
 10
-6.726476
 20
53.137221
 30
0.0
 40
16.222922
 50
169.666742
 51
250.333258
  0
LINE
  8
0
 10
21.287962
 20
41.52576
 30
0.0
 11
20.287962
 21
40.52576
 31
0.0
  0
LINE
  8
0
 10
21.287962
 20
41.52576
 30
0.0
 11
26.297163
 21
41.52576
 31
0.0
  0
ARC
  8
0
  6
HIDDEN
 10
81.297298
 20
40.264563
 30
0.0
 40
13.859843
 50
290.024595
 51
49.975405
  0
LINE
  8
0
 10
37.287962
 20
41.52576
 30
0.0
 11
37.287962
 21
27.52576
 31
0.0
  0
LINE
  8
0
 10
51.696497
 20
68.27576
 30
0.0
 11
51.696497
 21
27.52576
 31
0.0
  0
LINE
  8
0
 10
52.272322
 20
70.02576
 30
0.0
 11
52.272322
 21
-14.97424
 31
0.0
  0
LINE
  8
0
 10
37.287962
 20
27.52576
 30
0.0
 11
37.287962
 21
-14.97424
 31
0.0
  0
LINE
  8
0
 10
29.045987
 20
12.547365
 30
0.0
 11
37.287962
 21
1.909314
 31
0.0
  0
ARC
  8
0
  6
HIDDEN
 10
153.54264
 20
27.52576
 30
0.0
 40
67.5
 50
180.240348
 51
199.759652
  0
LINE
  8
0
 10
36.320597
 20
43.209212
 30
0.0
 11
51.696497
 21
68.27576
 31
0.0
  0
LINE
  8
0
 10
37.287962
 20
70.02576
 30
0.0
 11
37.287962
 21
53.142206
 31
0.0
  0
LINE
  8
0
 10
39.287962
 20
67.56356
 30
0.0
 11
39.287962
 21
55.723638
 31
0.0
  0
LINE
  8
0
 10
29.045987
 20
42.504155
 30
0.0
 11
43.788187
 21
61.532152
 31
0.0
  0
LINE
  8
0
 10
37.863787
 20
68.27576
 30
0.0
 11
37.863787
 21
53.885432
 31
0.0
  0
LINE
  8
0
 10
36.320597
 20
41.52576
 30
0.0
 11
37.287962
 21
41.52576
 31
0.0
  0
LINE
  8
0
 10
36.320597
 20
41.52576
 30
0.0
 11
36.320597
 21
43.209212
 31
0.0
  0
ARC
  8
0
 10
44.780142
 20
70.03358
 30
0.0
 40
7.492184
 50
359.940196
 51
180.059804
  0
LINE
  8
0
 10
37.863787
 20
68.27576
 30
0.0
 11
39.287962
 21
67.56356
 31
0.0
  0
LINE
  8
0
 10
43.788187
 20
62.025764
 30
0.0
 11
39.787962
 21
62.025764
 31
0.0
  0
LINE
  8
0
 10
39.287962
 20
62.525764
 30
0.0
 11
39.787962
 21
62.025764
 31
0.0
  0
LINE
  8
0
 10
43.788187
 20
62.025764
 30
0.0
 11
43.788187
 21
61.532152
 31
0.0
  0
LINE
  8
0
 10
37.287962
 20
70.02576
 30
0.0
 11
37.863787
 21
68.27576
 31
0.0
  0
LINE
  8
0
 10
52.272322
 20
70.02576
 30
0.0
 11
51.696497
 21
68.27576
 31
0.0
  0
ARC
  8
0
  6
HIDDEN
 10
-61.086827
 20
198.418767
 30
0.0
 40
30.5
 50
49.139474
 51
70.860526
  0
ARC
  8
0
  6
HIDDEN
 10
-13.048807
 20
226.153531
 30
0.0
 40
28.469528
 50
189.436042
 51
230.563958
  0
ARC
  8
0
  6
HIDDEN
 10
-13.048807
 20
170.684003
 30
0.0
 40
28.469528
 50
129.436042
 51
170.563958
  0
ARC
  8
0
  6
HIDDEN
 10
-61.086827
 20
198.418767
 30
0.0
 40
30.5
 50
289.139474
 51
310.860526
  0
CIRCLE
  8
0
 10
-61.086827
 20
198.418767
 30
0.0
 40
31.0
  0
CIRCLE
  8
0
 10
-61.086827
 20
198.418767
 30
0.0
 40
40.0
  0
CIRCLE
  8
0
 10
-61.086827
 20
198.418767
 30
0.0
 40
32.5
  0
ARC
  8
0
  6
HIDDEN
 10
-61.086827
 20
198.418767
 30
0.0
 40
30.5
 50
169.139474
 51
190.860526
  0
CIRCLE
  8
0
 10
-61.086827
 20
198.418767
 30
0.0
 40
13.0
  0
CIRCLE
  8
0
 10
-61.086827
 20
198.418767
 30
0.0
 40
5.0
  0
ARC
  8
0
  6
HIDDEN
 10
-61.086827
 20
198.418767
 30
0.0
 40
30.5
 50
229.139474
 51
250.860526
  0
ARC
  8
0
  6
HIDDEN
 10
-109.124848
 20
170.684003
 30
0.0
 40
28.469528
 50
9.436042
 51
50.563958
  0
ARC
  8
0
  6
HIDDEN
 10
-61.086827
 20
142.949239
 30
0.0
 40
28.469528
 50
69.436042
 51
110.563958
  0
ARC
  8
0
  6
HIDDEN
 10
-61.086827
 20
198.418767
 30
0.0
 40
30.5
 50
109.139474
 51
130.860526
  0
ARC
  8
0
  6
HIDDEN
 10
-109.124848
 20
226.153531
 30
0.0
 40
28.469528
 50
309.436042
 51
350.563958
  0
ARC
  8
0
  6
HIDDEN
 10
-61.086827
 20
253.888295
 30
0.0
 40
28.469528
 50
249.436042
 51
290.563958
  0
ARC
  8
0
  6
HIDDEN
 10
45.954443
 20
184.50743
 30
0.0
 40
16.516979
 50
328.729974
 51
56.984312
  0
ARC
  8
0
  6
HIDDEN
 10
-61.086827
 20
198.418767
 30
0.0
 40
30.5
 50
349.139474
 51
10.860526
  0
LINE
  8
0
 10
6.964645
 20
198.418767
 30
0.0
 11
6.964645
 21
166.168766
 31
0.0
  0
LINE
  8
0
 10
-6.535355
 20
210.418767
 30
0.0
 11
-6.535355
 21
186.418767
 31
0.0
  0
LINE
  8
0
 10
22.464645
 20
230.668767
 30
0.0
 11
22.464645
 21
166.168766
 31
0.0
  0
ARC
  8
0
 10
14.714645
 20
166.168767
 30
0.0
 40
7.75
 50
180.0
 51
0.0
  0
LINE
  8
0
 10
1.406517
 20
184.512152
 30
0.0
 11
6.964645
 21
179.162085
 31
0.0
  0
LINE
  8
0
 10
-5.535355
 20
185.418767
 30
0.0
 11
-0.878152
 21
185.418767
 31
0.0
  0
LINE
  8
0
 10
-5.535355
 20
185.418767
 30
0.0
 11
-6.535355
 21
186.418767
 31
0.0
  0
LINE
  8
0
 10
1.406517
 20
184.512152
 30
0.0
 11
-0.878152
 21
185.418767
 31
0.0
  0
ARC
  8
0
  6
HIDDEN
 10
106.90399
 20
198.418767
 30
0.0
 40
51.95
 50
205.646461
 51
231.496396
  0
ARC
  8
0
  6
HIDDEN
 10
79.77889
 20
142.092915
 30
0.0
 40
16.516979
 50
20.158545
 51
108.412883
  0
LINE
  8
0
  6
CENTER
 10
-11.272154
 20
198.418767
 30
0.0
 11
25.447629
 21
198.418767
 31
0.0
  0
INSERT
  8
0
  2
*X1
 10
-38.786556
 20
0.0
 30
0.0
  0
LINE
  8
0
 10
22.024007
 20
229.418767
 30
0.0
 11
22.024007
 21
198.418767
 31
0.0
  0
LINE
  8
0
 10
7.405282
 20
229.418767
 30
0.0
 11
7.405282
 21
218.099591
 31
0.0
  0
LINE
  8
0
 10
6.964645
 20
230.668766
 30
0.0
 11
6.964645
 21
217.675449
 31
0.0
  0
LINE
  8
0
 10
22.024007
 20
229.418767
 30
0.0
 11
8.40884
 21
212.586093
 31
0.0
  0
LINE
  8
0
 10
8.964645
 20
228.600621
 30
0.0
 11
8.964645
 21
219.600581
 31
0.0
  0
LINE
  8
0
 10
1.406517
 20
212.325381
 30
0.0
 11
14.441987
 21
224.872887
 31
0.0
  0
LINE
  8
0
 10
9.464645
 20
211.418767
 30
0.0
 11
9.464645
 21
198.418767
 31
0.0
  0
LINE
  8
0
 10
-6.535355
 20
203.418767
 30
0.0
 11
9.464645
 21
203.418767
 31
0.0
  0
LINE
  8
0
 10
-5.535355
 20
211.418767
 30
0.0
 11
-0.878152
 21
211.418767
 31
0.0
  0
LINE
  8
0
 10
-5.535355
 20
211.418767
 30
0.0
 11
-6.535355
 21
210.418767
 31
0.0
  0
LINE
  8
0
 10
1.406517
 20
212.325381
 30
0.0
 11
-0.878152
 21
211.418767
 31
0.0
  0
LINE
  8
0
 10
8.40884
 20
212.586093
 30
0.0
 11
8.40884
 21
211.418767
 31
0.0
  0
LINE
  8
0
 10
8.40884
 20
211.418767
 30
0.0
 11
9.464645
 21
211.418767
 31
0.0
  0
ARC
  8
0
 10
14.714645
 20
230.668767
 30
0.0
 40
7.75
 50
0.000003
 51
179.999998
  0
LINE
  8
0
 10
14.441987
 20
225.418767
 30
0.0
 11
9.464645
 21
225.418767
 31
0.0
  0
LINE
  8
0
 10
6.964645
 20
230.668767
 30
0.0
 11
7.405282
 21
229.418767
 31
0.0
  0
LINE
  8
0
 10
7.405282
 20
229.418767
 30
0.0
 11
8.964645
 21
228.600621
 31
0.0
  0
LINE
  8
0
 10
8.964645
 20
225.918767
 30
0.0
 11
9.464645
 21
225.418767
 31
0.0
  0
LINE
  8
0
 10
14.441987
 20
225.418767
 30
0.0
 11
14.441987
 21
224.872887
 31
0.0
  0
LINE
  8
0
 10
22.464645
 20
230.668767
 30
0.0
 11
22.024007
 21
229.418767
 31
0.0
  0
ARC
  8
0
  6
HIDDEN
 10
106.90399
 20
198.418767
 30
0.0
 40
51.95
 50
102.789318
 51
128.639253
  0
ARC
  8
0
  6
HIDDEN
 10
58.026248
 20
237.397465
 30
0.0
 40
16.516979
 50
277.301402
 51
5.55574
  0
ARC
  8
0
  6
HIDDEN
 10
106.90399
 20
198.418767
 30
0.0
 40
51.95
 50
154.21789
 51
180.067824
  0
INSERT
  8
0
  2
*X4
 10
-106.889257
 20
15.587115
 30
0.0
  0
ARC
  8
0
  6
HIDDEN
 10
153.54264
 20
27.52576
 30
0.0
 40
67.5
 50
60.240348
 51
79.759652
  0
ARC
  8
0
  6
HIDDEN
 10
153.54264
 20
27.52576
 30
0.0
 40
67.5
 50
100.240348
 51
119.759652
  0
ARC
  8
0
  6
HIDDEN
 10
153.54264
 20
100.885603
 30
0.0
 40
13.859843
 50
210.024595
 51
329.975405
  0
LINE
  8
0
 10
280.465834
 20
98.52576
 30
0.0
 11
280.465834
 21
69.442915
 31
0.0
  0
LINE
  8
0
 10
298.465834
 20
98.52576
 30
0.0
 11
298.465834
 21
-43.47424
 31
0.0
  0
LINE
  8
0
 10
277.190634
 20
47.217182
 30
0.0
 11
297.891607
 21
95.52576
 31
0.0
  0
LINE
  8
0
 10
282.465834
 20
94.94639
 30
0.0
 11
282.465834
 21
73.429108
 31
0.0
  0
LINE
  8
0
 10
281.04006
 20
95.52576
 30
0.0
 11
281.04006
 21
70.587404
 31
0.0
  0
LINE
  8
0
 10
297.891607
 20
95.52576
 30
0.0
 11
297.891607
 21
27.52576
 31
0.0
  0
ARC
  8
0
  6
HIDDEN
 10
153.54264
 20
27.52576
 30
0.0
 40
67.5
 50
300.240348
 51
319.759652
  0
ARC
  8
0
  6
HIDDEN
 10
153.54264
 20
27.52576
 30
0.0
 40
67.5
 50
220.240348
 51
239.759652
  0
ARC
  8
0
  6
HIDDEN
 10
178.633184
 20
-41.409943
 30
0.0
 40
13.859843
 50
50.024595
 51
169.975405
  0
ARC
  8
0
  6
HIDDEN
 10
128.452096
 20
-41.409943
 30
0.0
 40
13.859843
 50
10.024595
 51
129.975405
  0
ARC
  8
0
  6
HIDDEN
 10
153.54264
 20
27.52576
 30
0.0
 40
67.5
 50
260.240348
 51
279.759652
  0
CIRCLE
  8
0
 10
153.54264
 20
27.52576
 30
0.0
 40
18.0
  0
CIRCLE
  8
0
 10
153.54264
 20
27.52576
 30
0.0
 40
7.0
  0
ARC
  8
0
  6
HIDDEN
 10
106.387842
 20
83.72266
 30
0.0
 40
13.859843
 50
250.024595
 51
9.975405
  0
ARC
  8
0
  6
HIDDEN
 10
225.787982
 20
40.264563
 30
0.0
 40
13.859843
 50
130.024595
 51
249.975405
  0
ARC
  8
0
  6
HIDDEN
 10
217.074127
 20
-9.154161
 30
0.0
 40
13.859843
 50
90.024595
 51
209.975405
  0
ARC
  8
0
  6
HIDDEN
 10
153.54264
 20
27.52576
 30
0.0
 40
67.5
 50
340.240348
 51
359.759652
  0
ARC
  8
0
  6
HIDDEN
 10
200.697438
 20
83.72266
 30
0.0
 40
13.859843
 50
170.024595
 51
289.975405
  0
ARC
  8
0
  6
HIDDEN
 10
153.54264
 20
27.52576
 30
0.0
 40
67.5
 50
20.240348
 51
39.759652
  0
LINE
  8
0
 10
280.465834
 20
27.52576
 30
0.0
 11
280.465834
 21
-43.47424
 31
0.0
  0
ARC
  8
0
 10
289.465834
 20
-43.47424
 30
0.0
 40
9.0
 50
180.0
 51
360.0
  0
LINE
  8
0
 10
258.465834
 20
44.52576
 30
0.0
 11
258.465834
 21
10.52576
 31
0.0
  0
LINE
  8
0
 10
278.465834
 20
45.02576
 30
0.0
 11
278.465834
 21
27.52576
 31
0.0
  0
LINE
  8
0
  6
CENTER
 10
253.621682
 20
27.52576
 30
0.0
 11
302.792696
 21
27.52576
 31
0.0
  0
LINE
  8
0
 10
269.254749
 20
7.953376
 30
0.0
 11
280.465834
 21
-14.391395
 31
0.0
  0
LINE
  8
0
 10
259.465834
 20
9.52576
 30
0.0
 11
266.472623
 21
9.52576
 31
0.0
  0
LINE
  8
0
 10
259.465834
 20
9.52576
 30
0.0
 11
258.465834
 21
10.52576
 31
0.0
  0
LINE
  8
0
 10
269.254749
 20
7.953376
 30
0.0
 11
266.472623
 21
9.52576
 31
0.0
  0
LINE
  8
0
 10
258.465834
 20
34.52576
 30
0.0
 11
278.465834
 21
34.52576
 31
0.0
  0
LINE
  8
0
 10
269.254749
 20
47.098144
 30
0.0
 11
288.666199
 21
85.787031
 31
0.0
  0
LINE
  8
0
 10
259.465834
 20
45.52576
 30
0.0
 11
266.472623
 21
45.52576
 31
0.0
  0
LINE
  8
0
 10
259.465834
 20
45.52576
 30
0.0
 11
258.465834
 21
44.52576
 31
0.0
  0
LINE
  8
0
 10
269.254749
 20
47.098144
 30
0.0
 11
266.472623
 21
45.52576
 31
0.0
  0
LINE
  8
0
 10
277.965834
 20
45.52576
 30
0.0
 11
278.465834
 21
45.02576
 31
0.0
  0
LINE
  8
0
 10
277.190634
 20
47.217182
 30
0.0
 11
277.190634
 21
45.52576
 31
0.0
  0
LINE
  8
0
 10
277.190634
 20
45.52576
 30
0.0
 11
277.965834
 21
45.52576
 31
0.0
  0
LINE
  8
0
 10
282.465834
 20
87.52576
 30
0.0
 11
282.965834
 21
87.02576
 31
0.0
  0
LINE
  8
0
 10
288.666199
 20
87.02576
 30
0.0
 11
282.965834
 21
87.02576
 31
0.0
  0
LINE
  8
0
 10
288.666199
 20
85.787031
 30
0.0
 11
288.666199
 21
87.02576
 31
0.0
  0
ARC
  8
0
  6
HIDDEN
 10
167.853538
 20
184.50743
 30
0.0
 40
16.516979
 50
123.015688
 51
211.270026
  0
LINE
  8
0
 10
205.769399
 20
198.418767
 30
0.0
 11
205.769399
 21
143.918767
 31
0.0
  0
LINE
  8
0
 10
185.769399
 20
213.418767
 30
0.0
 11
185.769399
 21
183.418767
 31
0.0
  0
LINE
  8
0
 10
221.769399
 20
252.918767
 30
0.0
 11
221.769399
 21
143.918767
 31
0.0
  0
CIRCLE
  8
0
 10
106.90399
 20
198.418767
 30
0.0
 40
6.0
  0
ARC
  8
0
  6
HIDDEN
 10
134.029091
 20
142.092915
 30
0.0
 40
16.516979
 50
71.587117
 51
159.841455
  0
ARC
  8
0
  6
HIDDEN
 10
106.90399
 20
198.418767
 30
0.0
 40
51.95
 50
308.503604
 51
334.353539
  0
ARC
  8
0
 10
213.769399
 20
143.918767
 30
0.0
 40
8.0
 50
180.0
 51
0.0
  0
LINE
  8
0
 10
194.390443
 20
181.49285
 30
0.0
 11
205.769399
 21
164.100038
 31
0.0
  0
LINE
  8
0
 10
185.769399
 20
192.418767
 30
0.0
 11
203.769399
 21
192.418767
 31
0.0
  0
LINE
  8
0
 10
186.769399
 20
182.418767
 30
0.0
 11
185.769399
 21
183.418767
 31
0.0
  0
LINE
  8
0
 10
186.769399
 20
182.418767
 30
0.0
 11
192.597423
 21
182.418767
 31
0.0
  0
LINE
  8
0
 10
194.390443
 20
181.49285
 30
0.0
 11
192.597423
 21
182.418767
 31
0.0
  0
ARC
  8
0
  6
HIDDEN
 10
106.90399
 20
198.418767
 30
0.0
 40
51.95
 50
51.360747
 51
77.210682
  0
ARC
  8
0
  6
HIDDEN
 10
155.781732
 20
237.397465
 30
0.0
 40
16.516979
 50
174.44426
 51
262.698598
  0
ARC
  8
0
  6
HIDDEN
 10
106.90399
 20
198.418767
 30
0.0
 40
51.95
 50
359.932176
 51
25.78211
  0
INSERT
  8
0
  2
*X2
 10
-42.060228
 20
13.237578
 30
0.0
  0
LINE
  8
0
 10
221.221635
 20
250.868767
 30
0.0
 11
221.221635
 21
198.418767
 31
0.0
  0
LINE
  8
0
 10
206.317162
 20
250.868767
 30
0.0
 11
206.317162
 21
233.574755
 31
0.0
  0
LINE
  8
0
 10
205.769399
 20
252.918767
 30
0.0
 11
205.769399
 21
232.737496
 31
0.0
  0
LINE
  8
0
 10
207.269399
 20
250.365096
 30
0.0
 11
207.269399
 21
235.030256
 31
0.0
  0
LINE
  8
0
 10
201.769399
 20
215.022771
 30
0.0
 11
221.221635
 21
250.868767
 31
0.0
  0
LINE
  8
0
 10
194.390443
 20
215.344684
 30
0.0
 11
213.002371
 21
243.793144
 31
0.0
  0
LINE
  8
0
  6
CENTER
 10
183.185721
 20
198.418767
 30
0.0
 11
227.192616
 21
198.418767
 31
0.0
  0
LINE
  8
0
 10
185.769399
 20
204.418767
 30
0.0
 11
203.769399
 21
204.418767
 31
0.0
  0
LINE
  8
0
 10
203.269399
 20
214.418767
 30
0.0
 11
203.769399
 21
213.918767
 31
0.0
  0
LINE
  8
0
 10
186.769399
 20
214.418767
 30
0.0
 11
185.769399
 21
213.418767
 31
0.0
  0
LINE
  8
0
 10
186.769399
 20
214.418767
 30
0.0
 11
192.597423
 21
214.418767
 31
0.0
  0
LINE
  8
0
 10
194.390443
 20
215.344684
 30
0.0
 11
192.597423
 21
214.418767
 31
0.0
  0
LINE
  8
0
 10
201.769399
 20
214.418767
 30
0.0
 11
203.269399
 21
214.418767
 31
0.0
  0
LINE
  8
0
 10
201.769399
 20
214.418767
 30
0.0
 11
201.769399
 21
215.022771
 31
0.0
  0
LINE
  8
0
 10
203.769399
 20
213.918767
 30
0.0
 11
203.769399
 21
198.418767
 31
0.0
  0
LINE
  8
0
 10
213.002371
 20
244.418767
 30
0.0
 11
207.769399
 21
244.418767
 31
0.0
  0
LINE
  8
0
 10
207.269399
 20
244.918767
 30
0.0
 11
207.769399
 21
244.418767
 31
0.0
  0
LINE
  8
0
 10
213.002371
 20
244.418767
 30
0.0
 11
213.002371
 21
243.793144
 31
0.0
  0
ARC
  8
0
 10
213.769399
 20
252.918767
 30
0.0
 40
8.0
 50
0.0
 51
180.0
  0
LINE
  8
0
 10
221.769399
 20
252.918767
 30
0.0
 11
221.221635
 21
250.868767
 31
0.0
  0
LINE
  8
0
 10
205.769399
 20
252.918767
 30
0.0
 11
206.317162
 21
250.868767
 31
0.0
  0
LINE
  8
0
 10
206.317162
 20
250.868767
 30
0.0
 11
207.269399
 21
250.365096
 31
0.0
  0
ARC
  8
0
 10
289.465834
 20
98.52576
 30
0.0
 40
9.0
 50
0.0
 51
180.0
  0
LINE
  8
0
 10
280.465834
 20
98.52576
 30
0.0
 11
281.04006
 21
95.52576
 31
0.0
  0
LINE
  8
0
 10
281.04006
 20
95.52576
 30
0.0
 11
282.465834
 21
94.94639
 31
0.0
  0
LINE
  8
0
 10
298.465834
 20
98.52576
 30
0.0
 11
297.891607
 21
95.52576
 31
0.0
  0
ENDBLK
  8
0
  0
BLOCK
  8
0
  2
*X1
 70
    65
 10
0.0
 20
0.0
 30
0.0
  3
*X
  0
LINE
  8
0
 62
     0
 10
33.713139
 20
203.418767
 30
0.0
 11
61.246035
 21
230.951663
 31
0.0
  0
LINE
  8
0
 62
     0
 10
32.2512
 20
204.785255
 30
0.0
 11
39.52702
 21
212.061075
 31
0.0
  0
LINE
  8
0
 62
     0
 10
52.884712
 20
225.418767
 30
0.0
 11
60.784232
 21
233.318286
 31
0.0
  0
LINE
  8
0
 62
     0
 10
32.2512
 20
207.613682
 30
0.0
 11
36.056285
 21
211.418767
 31
0.0
  0
LINE
  8
0
 62
     0
 10
50.056285
 20
225.418767
 30
0.0
 11
59.808987
 21
235.171469
 31
0.0
  0
LINE
  8
0
 62
     0
 10
47.7512
 20
225.942109
 30
0.0
 11
58.445667
 21
236.636576
 31
0.0
  0
LINE
  8
0
 62
     0
 10
47.639756
 20
228.659092
 30
0.0
 11
56.705834
 21
237.72517
 31
0.0
  0
LINE
  8
0
 62
     0
 10
46.030027
 20
229.87779
 30
0.0
 11
54.505638
 21
238.353401
 31
0.0
  0
LINE
  8
0
 62
     0
 10
46.021495
 20
232.697685
 30
0.0
 11
51.472282
 21
238.148472
 31
0.0
  0
LINE
  8
0
 62
     0
 10
36.541566
 20
203.418767
 30
0.0
 11
53.485668
 21
220.362868
 31
0.0
  0
LINE
  8
0
 62
     0
 10
39.369993
 20
203.418767
 30
0.0
 11
47.369993
 21
211.418767
 31
0.0
  0
LINE
  8
0
 62
     0
 10
42.198421
 20
203.418767
 30
0.0
 11
48.2512
 21
209.471546
 31
0.0
  0
LINE
  8
0
 62
     0
 10
45.026848
 20
203.418767
 30
0.0
 11
48.2512
 21
206.643119
 31
0.0
  0
LINE
  8
0
 62
     0
 10
47.855275
 20
203.418767
 30
0.0
 11
48.2512
 21
203.814692
 31
0.0
  0
ENDBLK
  8
0
  0
BLOCK
  8
0
  2
*X2
 70
    65
 10
0.0
 20
0.0
 30
0.0
  3
*X
  0
LINE
  8
0
 62
     0
 10
227.829627
 20
199.545355
 30
0.0
 11
229.46546
 21
201.181189
 31
0.0
  0
LINE
  8
0
 62
     0
 10
247.9156
 20
219.631329
 30
0.0
 11
260.156933
 21
231.872662
 31
0.0
  0
LINE
  8
0
 62
     0
 10
254.605266
 20
229.856528
 30
0.0
 11
263.610738
 21
238.862001
 31
0.0
  0
LINE
  8
0
 62
     0
 10
252.394392
 20
231.181189
 30
0.0
 11
263.420373
 21
242.207169
 31
0.0
  0
LINE
  8
0
 62
     0
 10
249.344243
 20
231.666573
 30
0.0
 11
262.199183
 21
244.521514
 31
0.0
  0
LINE
  8
0
 62
     0
 10
249.329627
 20
235.187491
 30
0.0
 11
260.393673
 21
246.251537
 31
0.0
  0
LINE
  8
0
 62
     0
 10
248.347954
 20
237.741352
 30
0.0
 11
257.990444
 21
247.383842
 31
0.0
  0
LINE
  8
0
 62
     0
 10
247.914503
 20
240.843435
 30
0.0
 11
254.667381
 21
247.596313
 31
0.0
  0
LINE
  8
0
 62
     0
 10
227.829627
 20
196.009821
 30
0.0
 11
233.000994
 21
201.181189
 31
0.0
  0
LINE
  8
0
 62
     0
 10
241.225935
 20
209.40613
 30
0.0
 11
255.961798
 21
224.141992
 31
0.0
  0
LINE
  8
0
 62
     0
 10
227.829627
 20
192.474288
 30
0.0
 11
251.766662
 21
216.411323
 31
0.0
  0
LINE
  8
0
 62
     0
 10
230.072062
 20
191.181189
 30
0.0
 11
247.571526
 21
208.680653
 31
0.0
  0
LINE
  8
0
 62
     0
 10
233.607596
 20
191.181189
 30
0.0
 11
243.829627
 21
201.40322
 31
0.0
  0
LINE
  8
0
 62
     0
 10
237.14313
 20
191.181189
 30
0.0
 11
245.829627
 21
199.867686
 31
0.0
  0
LINE
  8
0
 62
     0
 10
240.678664
 20
191.181189
 30
0.0
 11
245.829627
 21
196.332152
 31
0.0
  0
LINE
  8
0
 62
     0
 10
244.214198
 20
191.181189
 30
0.0
 11
245.829627
 21
192.796618
 31
0.0
  0
ENDBLK
  8
0
  0
BLOCK
  8
0
  2
*X3
 70
    65
 10
0.0
 20
0.0
 30
0.0
  3
*X
  0
LINE
  8
0
 62
     0
 10
54.669433
 20
46.184151
 30
0.0
 11
60.740432
 21
52.255151
 31
0.0
  0
LINE
  8
0
 62
     0
 10
69.380433
 20
60.895152
 30
0.0
 11
83.871748
 21
75.386466
 31
0.0
  0
LINE
  8
0
 62
     0
 10
54.669433
 20
49.012579
 30
0.0
 11
57.890009
 21
52.233155
 31
0.0
  0
LINE
  8
0
 62
     0
 10
78.169658
 20
72.512804
 30
0.0
 11
86.649566
 21
80.992712
 31
0.0
  0
LINE
  8
0
 62
     0
 10
75.561586
 20
72.733159
 30
0.0
 11
86.183106
 21
83.354679
 31
0.0
  0
LINE
  8
0
 62
     0
 10
73.669433
 20
73.669433
 30
0.0
 11
85.189883
 21
85.189883
 31
0.0
  0
LINE
  8
0
 62
     0
 10
73.669433
 20
76.49786
 30
0.0
 11
83.797914
 21
86.626341
 31
0.0
  0
LINE
  8
0
 62
     0
 10
72.965915
 20
78.622769
 30
0.0
 11
82.012644
 21
87.669499
 31
0.0
  0
LINE
  8
0
 62
     0
 10
71.812642
 20
80.297924
 30
0.0
 11
79.726548
 21
88.21183
 31
0.0
  0
LINE
  8
0
 62
     0
 10
72.202303
 20
83.516011
 30
0.0
 11
76.386576
 21
87.700285
 31
0.0
  0
LINE
  8
0
 62
     0
 10
54.669433
 20
43.355724
 30
0.0
 11
79.383956
 21
68.070247
 31
0.0
  0
LINE
  8
0
 62
     0
 10
57.37529
 20
43.233155
 30
0.0
 11
74.896163
 21
60.754028
 31
0.0
  0
LINE
  8
0
 62
     0
 10
60.203718
 20
43.233155
 30
0.0
 11
70.702067
 21
53.731504
 31
0.0
  0
LINE
  8
0
 62
     0
 10
63.032145
 20
43.233155
 30
0.0
 11
71.669433
 21
51.870443
 31
0.0
  0
LINE
  8
0
 62
     0
 10
65.860572
 20
43.233155
 30
0.0
 11
71.669433
 21
49.042016
 31
0.0
  0
LINE
  8
0
 62
     0
 10
68.688999
 20
43.233155
 30
0.0
 11
71.669433
 21
46.213589
 31
0.0
  0
LINE
  8
0
 62
     0
 10
71.517426
 20
43.233155
 30
0.0
 11
71.669433
 21
43.385162
 31
0.0
  0
ENDBLK
  8
0
  0
BLOCK
  8
0
  2
*X4
 70
    65
 10
0.0
 20
0.0
 30
0.0
  3
*X
  0
LINE
  8
0
 62
     0
 10
388.522252
 20
56.182065
 30
0.0
 11
399.158673
 21
66.818486
 31
0.0
  0
LINE
  8
0
 62
     0
 10
392.082364
 20
63.277711
 30
0.0
 11
401.809718
 21
73.005065
 31
0.0
  0
LINE
  8
0
 62
     0
 10
395.555456
 20
70.286336
 30
0.0
 11
404.460762
 21
79.191643
 31
0.0
  0
LINE
  8
0
 62
     0
 10
393.172231
 20
71.438645
 30
0.0
 11
405.330952
 21
83.597367
 31
0.0
  0
LINE
  8
0
 62
     0
 10
389.745894
 20
71.547842
 30
0.0
 11
404.643695
 21
86.445644
 31
0.0
  0
LINE
  8
0
 62
     0
 10
389.355091
 20
74.692573
 30
0.0
 11
403.311517
 21
88.648999
 31
0.0
  0
LINE
  8
0
 62
     0
 10
389.355091
 20
78.228107
 30
0.0
 11
401.470519
 21
90.343535
 31
0.0
  0
LINE
  8
0
 62
     0
 10
387.865179
 20
80.27373
 30
0.0
 11
399.100981
 21
91.509531
 31
0.0
  0
LINE
  8
0
 62
     0
 10
387.36262
 20
83.306704
 30
0.0
 11
395.987032
 21
91.931116
 31
0.0
  0
LINE
  8
0
 62
     0
 10
384.96214
 20
49.086419
 30
0.0
 11
396.507629
 21
60.631908
 31
0.0
  0
LINE
  8
0
 62
     0
 10
365.355091
 20
25.943836
 30
0.0
 11
369.3499
 21
29.938645
 31
0.0
  0
LINE
  8
0
 62
     0
 10
381.402028
 20
41.990773
 30
0.0
 11
393.856584
 21
54.445329
 31
0.0
  0
LINE
  8
0
 62
     0
 10
365.355091
 20
22.408302
 30
0.0
 11
372.885434
 21
29.938645
 31
0.0
  0
LINE
  8
0
 62
     0
 10
377.841916
 20
34.895127
 30
0.0
 11
391.205539
 21
48.258751
 31
0.0
  0
LINE
  8
0
 62
     0
 10
365.420968
 20
18.938645
 30
0.0
 11
388.554495
 21
42.072172
 31
0.0
  0
LINE
  8
0
 62
     0
 10
368.956502
 20
18.938645
 30
0.0
 11
385.90345
 21
35.885594
 31
0.0
  0
LINE
  8
0
 62
     0
 10
372.492036
 20
18.938645
 30
0.0
 11
384.079891
 21
30.526501
 31
0.0
  0
LINE
  8
0
 62
     0
 10
376.02757
 20
18.938645
 30
0.0
 11
385.355091
 21
28.266166
 31
0.0
  0
LINE
  8
0
 62
     0
 10
379.563104
 20
18.938645
 30
0.0
 11
385.355091
 21
24.730633
 31
0.0
  0
LINE
  8
0
 62
     0
 10
383.098638
 20
18.938645
 30
0.0
 11
385.355091
 21
21.195099
 31
0.0
  0
ENDBLK
  8
0
  0
BLOCK
  8
0
  2
ACAD054D
 70
     0
 10
0.0
 20
0.0
 30
0.0
  3
ACAD054D
  0
ARC
  8
0
  6
HIDDEN
 10
433.552496
 20
-8.606085
 30
0.0
 40
16.250751
 50
306.840557
 51
73.159443
  0
ARC
  8
0
  6
HIDDEN
 10
616.97368
 20
23.736018
 30
0.0
 40
179.5
 50
194.633398
 51
205.366602
  0
ARC
  8
0
  6
HIDDEN
 10
433.552496
 20
56.078122
 30
0.0
 40
16.250751
 50
286.840557
 51
53.159443
  0
ARC
  8
0
  6
HIDDEN
 10
616.97368
 20
23.736018
 30
0.0
 40
179.5
 50
154.633398
 51
165.366602
  0
CIRCLE
  8
0
 10
616.97368
 20
23.736018
 30
0.0
 40
181.0
  0
CIRCLE
  8
0
 10
616.97368
 20
23.736018
 30
0.0
 40
184.0
  0
CIRCLE
  8
0
 10
616.97368
 20
23.736018
 30
0.0
 40
200.0
  0
ARC
  8
0
  6
HIDDEN
 10
445.427431
 20
453.461045
 30
0.0
 40
107.5
 50
264.174779
 51
275.825221
  0
ARC
  8
0
  6
HIDDEN
 10
445.427431
 20
569.001436
 30
0.0
 40
17.540391
 50
211.22158
 51
328.77842
  0
CIRCLE
  8
0
 10
445.427431
 20
453.461045
 30
0.0
 40
11.0
  0
CIRCLE
  8
0
 10
445.427431
 20
453.461045
 30
0.0
 40
24.0
  0
CIRCLE
  8
0
 10
445.427431
 20
453.461045
 30
0.0
 40
125.0
  0
CIRCLE
  8
0
 10
445.427431
 20
453.461045
 30
0.0
 40
112.0
  0
CIRCLE
  8
0
 10
445.427431
 20
453.461045
 30
0.0
 40
108.5
  0
CIRCLE
  8
0
 10
75.837758
 20
23.736018
 30
0.0
 40
27.0
  0
ARC
  8
0
  6
HIDDEN
 10
75.837758
 20
23.736018
 30
0.0
 40
139.0
 50
263.987791
 51
276.012209
  0
ARC
  8
0
  6
HIDDEN
 10
75.837758
 20
169.632617
 30
0.0
 40
16.396599
 50
207.830848
 51
332.169152
  0
CIRCLE
  8
0
 10
75.837758
 20
23.736018
 30
0.0
 40
28.0
  0
CIRCLE
  8
0
 10
75.837758
 20
23.736018
 30
0.0
 40
13.0
  0
CIRCLE
  8
0
 10
75.837758
 20
23.736018
 30
0.0
 40
140.0
  0
CIRCLE
  8
0
 10
75.837758
 20
23.736018
 30
0.0
 40
143.5
  0
CIRCLE
  8
0
 10
75.837758
 20
23.736018
 30
0.0
 40
157.5
  0
ARC
  8
0
  6
HIDDEN
 10
-50.512403
 20
-49.212281
 30
0.0
 40
16.396599
 50
327.830848
 51
92.169152
  0
ARC
  8
0
  6
HIDDEN
 10
75.837758
 20
23.736018
 30
0.0
 40
139.0
 50
215.987791
 51
228.012209
  0
ARC
  8
0
  6
HIDDEN
 10
-9.918111
 20
-94.29681
 30
0.0
 40
16.396599
 50
351.830848
 51
116.169152
  0
ARC
  8
0
  6
HIDDEN
 10
75.837758
 20
23.736018
 30
0.0
 40
139.0
 50
239.987791
 51
252.012209
  0
ARC
  8
0
  6
HIDDEN
 10
45.50415
 20
-118.97239
 30
0.0
 40
16.396599
 50
15.830848
 51
140.169152
  0
ARC
  8
0
  6
HIDDEN
 10
75.837758
 20
23.736018
 30
0.0
 40
139.0
 50
143.987791
 51
156.012209
  0
ARC
  8
0
  6
HIDDEN
 10
-69.259604
 20
8.485671
 30
0.0
 40
16.396599
 50
303.830848
 51
68.169152
  0
ARC
  8
0
  6
HIDDEN
 10
75.837758
 20
23.736018
 30
0.0
 40
139.0
 50
167.987791
 51
180.012209
  0
ARC
  8
0
  6
HIDDEN
 10
75.837758
 20
23.736018
 30
0.0
 40
139.0
 50
191.987791
 51
204.012209
  0
ARC
  8
0
  6
HIDDEN
 10
-62.918153
 20
68.820547
 30
0.0
 40
16.396599
 50
279.830848
 51
44.169152
  0
ARC
  8
0
  6
HIDDEN
 10
-32.584544
 20
121.359898
 30
0.0
 40
16.396599
 50
255.830848
 51
20.169152
  0
ARC
  8
0
  6
HIDDEN
 10
75.837758
 20
23.736018
 30
0.0
 40
139.0
 50
119.987791
 51
132.012209
  0
ARC
  8
0
  6
HIDDEN
 10
16.496265
 20
157.019193
 30
0.0
 40
16.396599
 50
231.830848
 51
356.169152
  0
ARC
  8
0
  6
HIDDEN
 10
75.837758
 20
23.736018
 30
0.0
 40
139.0
 50
95.987791
 51
108.012209
  0
ARC
  8
0
  6
HIDDEN
 10
202.187919
 20
-49.212281
 30
0.0
 40
16.396599
 50
87.830848
 51
212.169152
  0
LINE
  8
0
 10
305.703774
 20
23.736018
 30
0.0
 11
305.703774
 21
-119.763982
 31
0.0
  0
LINE
  8
0
 10
333.703774
 20
167.236018
 30
0.0
 11
333.703774
 21
-119.763982
 31
0.0
  0
LINE
  8
0
 10
297.476231
 20
-7.312955
 30
0.0
 11
305.703774
 21
-39.788011
 31
0.0
  0
ARC
  8
0
  6
HIDDEN
 10
161.593627
 20
-94.29681
 30
0.0
 40
16.396599
 50
63.830848
 51
188.169152
  0
ARC
  8
0
  6
HIDDEN
 10
106.171367
 20
-118.97239
 30
0.0
 40
16.396599
 50
39.830848
 51
164.169152
  0
ARC
  8
0
  6
HIDDEN
 10
75.837758
 20
23.736018
 30
0.0
 40
139.0
 50
287.987791
 51
300.012209
  0
ARC
  8
0
  6
HIDDEN
 10
75.837758
 20
23.736018
 30
0.0
 40
139.0
 50
311.987791
 51
324.012209
  0
ARC
  8
0
 10
319.703774
 20
-119.763982
 30
0.0
 40
14.0
 50
180.0
 51
0.0
  0
ARC
  8
0
  6
HIDDEN
 10
75.837758
 20
23.736018
 30
0.0
 40
139.0
 50
23.987791
 51
36.012209
  0
ARC
  8
0
  6
HIDDEN
 10
75.837758
 20
23.736018
 30
0.0
 40
139.0
 50
359.987791
 51
12.012209
  0
ARC
  8
0
  6
HIDDEN
 10
220.93512
 20
8.485671
 30
0.0
 40
16.396599
 50
111.830848
 51
236.169152
  0
ARC
  8
0
  6
HIDDEN
 10
75.837758
 20
23.736018
 30
0.0
 40
139.0
 50
335.987791
 51
348.012209
  0
ARC
  8
0
  6
HIDDEN
 10
214.593669
 20
68.820547
 30
0.0
 40
16.396599
 50
135.830848
 51
260.169152
  0
ARC
  8
0
  6
HIDDEN
 10
75.837758
 20
23.736018
 30
0.0
 40
139.0
 50
47.987791
 51
60.012209
  0
ARC
  8
0
  6
HIDDEN
 10
184.260061
 20
121.359898
 30
0.0
 40
16.396599
 50
159.830848
 51
284.169152
  0
ARC
  8
0
  6
HIDDEN
 10
135.179251
 20
157.019193
 30
0.0
 40
16.396599
 50
183.830848
 51
308.169152
  0
ARC
  8
0
  6
HIDDEN
 10
75.837758
 20
23.736018
 30
0.0
 40
139.0
 50
71.987791
 51
84.012209
  0
INSERT
  8
0
  2
*X8
 10
40.67151
 20
-47.146931
 30
0.0
  0
LINE
  8
0
 10
331.203774
 20
163.736018
 30
0.0
 11
331.203774
 21
23.736018
 31
0.0
  0
LINE
  8
0
 10
297.476231
 20
54.784992
 30
0.0
 11
321.92441
 21
151.284749
 31
0.0
  0
LINE
  8
0
 10
308.703774
 20
51.736018
 30
0.0
 11
331.203774
 21
163.736018
 31
0.0
  0
LINE
  8
0
 10
310.703774
 20
50.736018
 30
0.0
 11
310.703774
 21
23.736018
 31
0.0
  0
LINE
  8
0
 10
277.703774
 20
50.736018
 30
0.0
 11
277.703774
 21
-3.263982
 31
0.0
  0
LINE
  8
0
  6
CENTER
 10
259.104677
 20
23.736018
 30
0.0
 11
344.819023
 21
23.736018
 31
0.0
  0
LINE
  8
0
 10
297.476231
 20
-7.312955
 30
0.0
 11
293.607756
 21
-4.263982
 31
0.0
  0
LINE
  8
0
 10
278.703774
 20
-4.263982
 30
0.0
 11
293.607756
 21
-4.263982
 31
0.0
  0
LINE
  8
0
 10
278.703774
 20
-4.263982
 30
0.0
 11
277.703774
 21
-3.263982
 31
0.0
  0
LINE
  8
0
 10
277.703774
 20
36.736018
 30
0.0
 11
310.703774
 21
36.736018
 31
0.0
  0
LINE
  8
0
 10
297.476231
 20
54.784992
 30
0.0
 11
293.607756
 21
51.736018
 31
0.0
  0
LINE
  8
0
 10
278.703774
 20
51.736018
 30
0.0
 11
293.607756
 21
51.736018
 31
0.0
  0
LINE
  8
0
 10
278.703774
 20
51.736018
 30
0.0
 11
277.703774
 21
50.736018
 31
0.0
  0
LINE
  8
0
 10
308.703774
 20
51.736018
 30
0.0
 11
309.703774
 21
51.736018
 31
0.0
  0
LINE
  8
0
 10
309.703774
 20
51.736018
 30
0.0
 11
310.703774
 21
50.736018
 31
0.0
  0
ARC
  8
0
  6
HIDDEN
 10
616.97368
 20
23.736018
 30
0.0
 40
179.5
 50
174.633398
 51
185.366602
  0
LINE
  8
0
 10
305.703774
 20
167.236018
 30
0.0
 11
305.703774
 21
87.260047
 31
0.0
  0
LINE
  8
0
 10
308.203774
 20
163.736018
 30
0.0
 11
308.203774
 21
97.127833
 31
0.0
  0
ARC
  8
0
 10
319.703774
 20
167.236018
 30
0.0
 40
14.0
 50
360.0
 51
180.0
  0
LINE
  8
0
 10
320.402223
 20
153.236018
 30
0.0
 11
309.203774
 21
153.236018
 31
0.0
  0
LINE
  8
0
 10
308.203774
 20
154.236018
 30
0.0
 11
309.203774
 21
153.236018
 31
0.0
  0
LINE
  8
0
 10
320.402223
 20
153.236018
 30
0.0
 11
321.92441
 21
151.284749
 31
0.0
  0
LINE
  8
0
 10
305.703774
 20
167.236018
 30
0.0
 11
308.203774
 21
163.736018
 31
0.0
  0
LINE
  8
0
 10
333.703774
 20
167.236018
 30
0.0
 11
331.203774
 21
163.736018
 31
0.0
  0
ARC
  8
0
  6
HIDDEN
 10
66.799241
 20
528.868584
 30
0.0
 40
13.637114
 50
164.855622
 51
309.689833
  0
ARC
  8
0
  6
HIDDEN
 10
86.080969
 20
394.761219
 30
0.0
 40
13.637114
 50
66.673804
 51
211.508015
  0
ARC
  8
0
  6
HIDDEN
 10
18.337758
 20
453.461045
 30
0.0
 40
86.5
 50
295.007312
 51
310.447233
  0
CIRCLE
  8
0
 10
18.337758
 20
453.461045
 30
0.0
 40
100.0
  0
CIRCLE
  8
0
 10
18.337758
 20
453.461045
 30
0.0
 40
89.0
  0
CIRCLE
  8
0
 10
18.337758
 20
453.461045
 30
0.0
 40
87.0
  0
ARC
  8
0
  6
HIDDEN
 10
-70.386979
 20
440.704354
 30
0.0
 40
13.637114
 50
295.764713
 51
80.598924
  0
CIRCLE
  8
0
 10
18.337758
 20
453.461045
 30
0.0
 40
21.0
  0
ARC
  8
0
  6
HIDDEN
 10
18.337758
 20
453.461045
 30
0.0
 40
86.5
 50
229.552767
 51
244.992688
  0
ARC
  8
0
  6
HIDDEN
 10
-49.405452
 20
394.761219
 30
0.0
 40
13.637114
 50
328.491985
 51
113.326196
  0
ARC
  8
0
  6
HIDDEN
 10
18.337758
 20
453.461045
 30
0.0
 40
86.5
 50
196.825494
 51
212.265415
  0
ARC
  8
0
  6
HIDDEN
 10
43.591451
 20
367.454864
 30
0.0
 40
13.637114
 50
33.946531
 51
178.780742
  0
ARC
  8
0
  6
HIDDEN
 10
-6.915935
 20
367.454864
 30
0.0
 40
13.637114
 50
1.219258
 51
146.053469
  0
ARC
  8
0
  6
HIDDEN
 10
18.337758
 20
453.461045
 30
0.0
 40
86.5
 50
262.28004
 51
277.71996
  0
ARC
  8
0
  6
HIDDEN
 10
-30.123724
 20
528.868584
 30
0.0
 40
13.637114
 50
230.310167
 51
15.144378
  0
ARC
  8
0
  6
HIDDEN
 10
-63.199028
 20
490.697648
 30
0.0
 40
13.637114
 50
263.03744
 51
47.871651
  0
ARC
  8
0
  6
HIDDEN
 10
18.337758
 20
453.461045
 30
0.0
 40
86.5
 50
164.098221
 51
179.538142
  0
ARC
  8
0
  6
HIDDEN
 10
18.337758
 20
453.461045
 30
0.0
 40
86.5
 50
131.370949
 51
146.81087
  0
CIRCLE
  8
0
 10
18.337758
 20
453.461045
 30
0.0
 40
9.0
  0
ARC
  8
0
  6
HIDDEN
 10
18.337758
 20
543.098159
 30
0.0
 40
13.637114
 50
197.582895
 51
342.417105
  0
ARC
  8
0
  6
HIDDEN
 10
18.337758
 20
453.461045
 30
0.0
 40
86.5
 50
98.643676
 51
114.083597
  0
ARC
  8
0
  6
HIDDEN
 10
18.337758
 20
453.461045
 30
0.0
 40
86.5
 50
65.916403
 51
81.356324
  0
ARC
  8
0
  6
HIDDEN
 10
445.427431
 20
453.461045
 30
0.0
 40
107.5
 50
181.097856
 51
192.748298
  0
ARC
  8
0
  6
HIDDEN
 10
107.062495
 20
440.704354
 30
0.0
 40
13.637114
 50
99.401076
 51
244.235287
  0
LINE
  8
0
 10
167.842691
 20
453.461045
 30
0.0
 11
167.842691
 21
364.461045
 31
0.0
  0
LINE
  8
0
 10
144.842691
 20
473.461045
 30
0.0
 11
144.842691
 21
433.461045
 31
0.0
  0
LINE
  8
0
 10
189.842691
 20
542.461045
 30
0.0
 11
189.842691
 21
364.461045
 31
0.0
  0
LINE
  8
0
 10
157.441111
 20
431.046338
 30
0.0
 11
167.842691
 21
406.456236
 31
0.0
  0
ARC
  8
0
  6
HIDDEN
 10
18.337758
 20
453.461045
 30
0.0
 40
86.5
 50
327.734585
 51
343.174506
  0
LINE
  8
0
 10
145.842691
 20
432.461045
 30
0.0
 11
153.969737
 21
432.461045
 31
0.0
  0
LINE
  8
0
 10
144.842691
 20
433.461045
 30
0.0
 11
145.842691
 21
432.461045
 31
0.0
  0
LINE
  8
0
 10
153.969737
 20
432.461045
 30
0.0
 11
157.441111
 21
431.046338
 31
0.0
  0
ARC
  8
0
 10
178.842691
 20
364.461045
 30
0.0
 40
11.0
 50
180.0
 51
0.0
  0
ARC
  8
0
  6
HIDDEN
 10
337.395289
 20
412.489858
 30
0.0
 40
17.540391
 50
321.990811
 51
79.547651
  0
ARC
  8
0
  6
HIDDEN
 10
368.80998
 20
366.977821
 30
0.0
 40
17.540391
 50
349.683119
 51
107.239958
  0
ARC
  8
0
  6
HIDDEN
 10
445.427431
 20
453.461045
 30
0.0
 40
107.5
 50
236.482471
 51
248.132913
  0
ARC
  8
0
  6
HIDDEN
 10
417.776805
 20
341.278048
 30
0.0
 40
17.540391
 50
17.375426
 51
134.932266
  0
ARC
  8
0
  6
HIDDEN
 10
445.427431
 20
453.461045
 30
0.0
 40
107.5
 50
208.790164
 51
220.440606
  0
INSERT
  8
0
  2
*X6
 10
-54.072753
 20
0.0
 30
0.0
  0
LINE
  8
0
 10
157.441111
 20
475.875752
 30
0.0
 11
179.451077
 21
527.908931
 31
0.0
  0
LINE
  8
0
 10
144.842691
 20
444.461045
 30
0.0
 11
168.842691
 21
444.461045
 31
0.0
  0
LINE
  8
0
  6
CENTER
 10
136.018139
 20
453.461045
 30
0.0
 11
198.442457
 21
453.461045
 31
0.0
  0
LINE
  8
0
 10
144.842691
 20
462.461045
 30
0.0
 11
168.842691
 21
462.461045
 31
0.0
  0
ARC
  8
0
  6
HIDDEN
 10
99.874545
 20
490.697648
 30
0.0
 40
13.637114
 50
132.128349
 51
276.96256
  0
ARC
  8
0
  6
HIDDEN
 10
18.337758
 20
453.461045
 30
0.0
 40
86.5
 50
0.461858
 51
15.901779
  0
LINE
  8
0
 10
145.842691
 20
474.461045
 30
0.0
 11
153.969737
 21
474.461045
 31
0.0
  0
LINE
  8
0
 10
145.842691
 20
474.461045
 30
0.0
 11
144.842691
 21
473.461045
 31
0.0
  0
LINE
  8
0
 10
153.969737
 20
474.461045
 30
0.0
 11
157.441111
 21
475.875752
 31
0.0
  0
ARC
  8
0
  6
HIDDEN
 10
18.337758
 20
453.461045
 30
0.0
 40
86.5
 50
33.18913
 51
48.629051
  0
LINE
  8
0
 10
189.429369
 20
540.461045
 30
0.0
 11
189.429369
 21
453.461045
 31
0.0
  0
LINE
  8
0
 10
167.998373
 20
476.42037
 30
0.0
 11
189.429369
 21
540.461045
 31
0.0
  0
LINE
  8
0
 10
168.842691
 20
474.461045
 30
0.0
 11
168.842691
 21
453.461045
 31
0.0
  0
LINE
  8
0
 10
167.998373
 20
474.461045
 30
0.0
 11
168.842691
 21
474.461045
 31
0.0
  0
LINE
  8
0
 10
167.998373
 20
474.461045
 30
0.0
 11
167.998373
 21
476.42037
 31
0.0
  0
LINE
  8
0
 10
168.256014
 20
540.461045
 30
0.0
 11
168.256014
 21
501.44298
 31
0.0
  0
LINE
  8
0
 10
169.342691
 20
539.484385
 30
0.0
 11
169.342691
 21
504.011965
 31
0.0
  0
LINE
  8
0
 10
167.842691
 20
542.461045
 30
0.0
 11
167.842691
 21
500.465855
 31
0.0
  0
ARC
  8
0
 10
178.842691
 20
542.461045
 30
0.0
 40
11.0
 50
0.0
 51
180.0
  0
LINE
  8
0
 10
168.256014
 20
540.461045
 30
0.0
 11
169.342691
 21
539.484385
 31
0.0
  0
LINE
  8
0
 10
179.451077
 20
529.461045
 30
0.0
 11
169.842691
 21
529.461045
 31
0.0
  0
LINE
  8
0
 10
169.342691
 20
529.961045
 30
0.0
 11
169.842691
 21
529.461045
 31
0.0
  0
LINE
  8
0
 10
179.451077
 20
527.908931
 30
0.0
 11
179.451077
 21
529.461045
 31
0.0
  0
LINE
  8
0
 10
167.842691
 20
542.461045
 30
0.0
 11
168.256014
 21
540.461045
 31
0.0
  0
LINE
  8
0
 10
189.842691
 20
542.461045
 30
0.0
 11
189.429369
 21
540.461045
 31
0.0
  0
ARC
  8
0
  6
HIDDEN
 10
445.427431
 20
453.461045
 30
0.0
 40
107.5
 50
98.020933
 51
109.671375
  0
ARC
  8
0
  6
HIDDEN
 10
350.339553
 20
519.095468
 30
0.0
 40
17.540391
 50
266.606196
 51
24.163035
  0
ARC
  8
0
  6
HIDDEN
 10
445.427431
 20
453.461045
 30
0.0
 40
107.5
 50
153.405548
 51
165.05599
  0
ARC
  8
0
  6
HIDDEN
 10
330.72946
 20
467.3879
 30
0.0
 40
17.540391
 50
294.298503
 51
51.855343
  0
ARC
  8
0
  6
HIDDEN
 10
391.733134
 20
555.76698
 30
0.0
 40
17.540391
 50
238.913888
 51
356.470727
  0
ARC
  8
0
  6
HIDDEN
 10
445.427431
 20
453.461045
 30
0.0
 40
107.5
 50
125.713241
 51
137.363683
  0
INSERT
  8
0
  2
*X9
 10
-102.690759
 20
-18.310996
 30
0.0
  0
ARC
  8
0
  6
HIDDEN
 10
616.97368
 20
23.736018
 30
0.0
 40
179.5
 50
74.633398
 51
85.366602
  0
ARC
  8
0
  6
HIDDEN
 10
616.97368
 20
23.736018
 30
0.0
 40
179.5
 50
94.633398
 51
105.366602
  0
ARC
  8
0
  6
HIDDEN
 10
616.97368
 20
209.986769
 30
0.0
 40
16.250751
 50
206.840557
 51
333.159443
  0
LINE
  8
0
 10
907.674214
 20
204.736018
 30
0.0
 11
907.674214
 21
123.096296
 31
0.0
  0
LINE
  8
0
 10
907.674214
 20
56.236018
 30
0.0
 11
933.674214
 21
204.736018
 31
0.0
  0
LINE
  8
0
 10
933.674214
 20
204.736018
 30
0.0
 11
933.674214
 21
23.736018
 31
0.0
  0
LINE
  8
0
 10
936.674214
 20
207.736018
 30
0.0
 11
936.674214
 21
-160.263991
 31
0.0
  0
LINE
  8
0
 10
904.674214
 20
207.736018
 30
0.0
 11
904.674214
 21
109.72424
 31
0.0
  0
ARC
  8
0
 10
920.674214
 20
207.736018
 30
0.0
 40
16.0
 50
360.0
 51
180.0
  0
ARC
  8
0
  6
HIDDEN
 10
616.97368
 20
23.736018
 30
0.0
 40
179.5
 50
334.633398
 51
345.366602
  0
ARC
  8
0
  6
HIDDEN
 10
616.97368
 20
23.736018
 30
0.0
 40
179.5
 50
274.633398
 51
285.366602
  0
ARC
  8
0
  6
HIDDEN
 10
616.97368
 20
-162.514733
 30
0.0
 40
16.250751
 50
26.840557
 51
153.159443
  0
ARC
  8
0
  6
HIDDEN
 10
616.97368
 20
23.736018
 30
0.0
 40
179.5
 50
254.633398
 51
265.366602
  0
ARC
  8
0
  6
HIDDEN
 10
616.97368
 20
23.736018
 30
0.0
 40
179.5
 50
234.633398
 51
245.366602
  0
ARC
  8
0
  6
HIDDEN
 10
616.97368
 20
23.736018
 30
0.0
 40
179.5
 50
214.633398
 51
225.366602
  0
ARC
  8
0
  6
HIDDEN
 10
497.254005
 20
-118.940335
 30
0.0
 40
16.250751
 50
346.840557
 51
113.159443
  0
ARC
  8
0
  6
HIDDEN
 10
455.675798
 20
-69.389357
 30
0.0
 40
16.250751
 50
326.840557
 51
93.159443
  0
ARC
  8
0
  6
HIDDEN
 10
553.272171
 20
-151.282438
 30
0.0
 40
16.250751
 50
6.840557
 51
133.159443
  0
ARC
  8
0
  6
HIDDEN
 10
736.693355
 20
-118.940335
 30
0.0
 40
16.250751
 50
66.840557
 51
193.159443
  0
ARC
  8
0
  6
HIDDEN
 10
680.675188
 20
-151.282438
 30
0.0
 40
16.250751
 50
46.840557
 51
173.159443
  0
ARC
  8
0
  6
HIDDEN
 10
616.97368
 20
23.736018
 30
0.0
 40
179.5
 50
294.633398
 51
305.366602
  0
ARC
  8
0
  6
HIDDEN
 10
616.97368
 20
23.736018
 30
0.0
 40
179.5
 50
314.633398
 51
325.366602
  0
ARC
  8
0
  6
HIDDEN
 10
778.271562
 20
-69.389357
 30
0.0
 40
16.250751
 50
86.840557
 51
213.159443
  0
CIRCLE
  8
0
 10
616.97368
 20
23.736018
 30
0.0
 40
31.0
  0
CIRCLE
  8
0
 10
616.97368
 20
23.736018
 30
0.0
 40
32.5
  0
CIRCLE
  8
0
 10
616.97368
 20
23.736018
 30
0.0
 40
15.0
  0
ARC
  8
0
  6
HIDDEN
 10
616.97368
 20
23.736018
 30
0.0
 40
179.5
 50
114.633398
 51
125.366602
  0
ARC
  8
0
  6
HIDDEN
 10
616.97368
 20
23.736018
 30
0.0
 40
179.5
 50
134.633398
 51
145.366602
  0
ARC
  8
0
  6
HIDDEN
 10
455.675798
 20
116.861394
 30
0.0
 40
16.250751
 50
266.840557
 51
33.159443
  0
ARC
  8
0
  6
HIDDEN
 10
497.254005
 20
166.412371
 30
0.0
 40
16.250751
 50
246.840557
 51
13.159443
  0
ARC
  8
0
  6
HIDDEN
 10
553.272171
 20
198.754475
 30
0.0
 40
16.250751
 50
226.840557
 51
353.159443
  0
ARC
  8
0
  6
HIDDEN
 10
616.97368
 20
23.736018
 30
0.0
 40
179.5
 50
14.633398
 51
25.366602
  0
ARC
  8
0
  6
HIDDEN
 10
616.97368
 20
23.736018
 30
0.0
 40
179.5
 50
354.633398
 51
5.366602
  0
ARC
  8
0
  6
HIDDEN
 10
800.394864
 20
-8.606085
 30
0.0
 40
16.250751
 50
106.840557
 51
233.159443
  0
ARC
  8
0
  6
HIDDEN
 10
800.394864
 20
56.078122
 30
0.0
 40
16.250751
 50
126.840557
 51
253.159443
  0
ARC
  8
0
  6
HIDDEN
 10
736.693355
 20
166.412371
 30
0.0
 40
16.250751
 50
166.840557
 51
293.159443
  0
ARC
  8
0
  6
HIDDEN
 10
680.675188
 20
198.754475
 30
0.0
 40
16.250751
 50
186.840557
 51
313.159443
  0
ARC
  8
0
  6
HIDDEN
 10
616.97368
 20
23.736018
 30
0.0
 40
179.5
 50
54.633398
 51
65.366602
  0
ARC
  8
0
  6
HIDDEN
 10
616.97368
 20
23.736018
 30
0.0
 40
179.5
 50
34.633398
 51
45.366602
  0
ARC
  8
0
  6
HIDDEN
 10
778.271562
 20
116.861394
 30
0.0
 40
16.250751
 50
146.840557
 51
273.159443
  0
LINE
  8
0
 10
904.674214
 20
23.736018
 30
0.0
 11
904.674214
 21
-160.263976
 31
0.0
  0
LINE
  8
0
 10
893.052198
 20
-10.44879
 30
0.0
 11
904.674214
 21
-62.252204
 31
0.0
  0
ARC
  8
0
 10
920.674214
 20
-160.263982
 30
0.0
 40
16.0
 50
180.0
 51
0.0
  0
LINE
  8
0
 10
893.052198
 20
57.920826
 30
0.0
 11
923.248389
 21
192.515875
 31
0.0
  0
LINE
  8
0
  6
CENTER
 10
864.831167
 20
23.736018
 30
0.0
 11
945.200227
 21
23.736018
 31
0.0
  0
LINE
  8
0
 10
911.674214
 20
54.736018
 30
0.0
 11
911.674214
 21
23.736018
 31
0.0
  0
LINE
  8
0
 10
873.674214
 20
54.736018
 30
0.0
 11
873.674214
 21
-7.263982
 31
0.0
  0
LINE
  8
0
 10
893.052198
 20
-10.44879
 30
0.0
 11
890.167485
 21
-8.763982
 31
0.0
  0
LINE
  8
0
 10
875.174214
 20
-8.763982
 30
0.0
 11
890.167485
 21
-8.763982
 31
0.0
  0
LINE
  8
0
 10
873.674214
 20
-7.263982
 30
0.0
 11
875.174214
 21
-8.763982
 31
0.0
  0
LINE
  8
0
 10
873.674214
 20
38.736018
 30
0.0
 11
911.674214
 21
38.736018
 31
0.0
  0
LINE
  8
0
 10
893.052198
 20
57.920826
 30
0.0
 11
890.167485
 21
56.236018
 31
0.0
  0
LINE
  8
0
 10
875.174214
 20
56.236018
 30
0.0
 11
890.167485
 21
56.236018
 31
0.0
  0
LINE
  8
0
 10
873.674214
 20
54.736018
 30
0.0
 11
875.174214
 21
56.236018
 31
0.0
  0
LINE
  8
0
 10
907.674214
 20
56.236018
 30
0.0
 11
910.174214
 21
56.236018
 31
0.0
  0
LINE
  8
0
 10
910.174214
 20
56.236018
 30
0.0
 11
911.674214
 21
54.736018
 31
0.0
  0
LINE
  8
0
 10
921.900577
 20
193.736018
 30
0.0
 11
908.674214
 21
193.736018
 31
0.0
  0
LINE
  8
0
 10
907.674214
 20
194.736018
 30
0.0
 11
908.674214
 21
193.736018
 31
0.0
  0
LINE
  8
0
 10
921.900577
 20
193.736018
 30
0.0
 11
923.248389
 21
192.515875
 31
0.0
  0
ARC
  8
0
  6
HIDDEN
 10
445.427431
 20
453.461045
 30
0.0
 40
107.5
 50
347.251702
 51
358.902144
  0
LINE
  8
0
 10
626.78955
 20
453.461045
 30
0.0
 11
626.78955
 21
341.461045
 31
0.0
  0
LINE
  8
0
 10
602.78955
 20
476.461045
 30
0.0
 11
602.78955
 21
430.461045
 31
0.0
  0
LINE
  8
0
 10
652.78955
 20
565.461038
 30
0.0
 11
652.78955
 21
341.461045
 31
0.0
  0
ARC
  8
0
 10
639.78955
 20
341.461045
 30
0.0
 40
13.0
 50
179.99996
 51
0.0
  0
ARC
  8
0
  6
HIDDEN
 10
553.459573
 20
412.489858
 30
0.0
 40
17.540391
 50
100.452349
 51
218.009189
  0
ARC
  8
0
  6
HIDDEN
 10
445.427431
 20
453.461045
 30
0.0
 40
107.5
 50
319.559394
 51
331.209836
  0
ARC
  8
0
  6
HIDDEN
 10
522.044882
 20
366.977821
 30
0.0
 40
17.540391
 50
72.760042
 51
190.316881
  0
ARC
  8
0
  6
HIDDEN
 10
445.427431
 20
453.461045
 30
0.0
 40
107.5
 50
291.867087
 51
303.517529
  0
ARC
  8
0
  6
HIDDEN
 10
473.078056
 20
341.278048
 30
0.0
 40
17.540391
 50
45.067734
 51
162.624574
  0
LINE
  8
0
 10
619.581245
 20
427.082195
 30
0.0
 11
626.78955
 21
405.423014
 31
0.0
  0
LINE
  8
0
 10
603.78955
 20
429.461045
 30
0.0
 11
614.631794
 21
429.461045
 31
0.0
  0
LINE
  8
0
 10
602.78955
 20
430.461045
 30
0.0
 11
603.78955
 21
429.461045
 31
0.0
  0
LINE
  8
0
 10
614.631794
 20
429.461045
 30
0.0
 11
619.581245
 21
427.082195
 31
0.0
  0
INSERT
  8
0
  2
*X7
 10
-89.147572
 20
36.808817
 30
0.0
  0
LINE
  8
0
 10
619.581245
 20
479.839896
 30
0.0
 11
642.41599
 21
548.452685
 31
0.0
  0
LINE
  8
0
 10
642.41599
 20
551.461045
 30
0.0
 11
629.78955
 21
551.461045
 31
0.0
  0
LINE
  8
0
 10
629.743619
 20
480.9099
 30
0.0
 11
652.165087
 21
561.961045
 31
0.0
  0
ARC
  8
0
 10
639.78955
 20
565.461045
 30
0.0
 40
13.0
 50
0.0
 51
180.00004
  0
LINE
  8
0
  6
CENTER
 10
594.023448
 20
453.461045
 30
0.0
 11
661.710527
 21
453.461045
 31
0.0
  0
ARC
  8
0
  6
HIDDEN
 10
445.427431
 20
453.461045
 30
0.0
 40
107.5
 50
70.328625
 51
81.979067
  0
LINE
  8
0
 10
627.414013
 20
561.961045
 30
0.0
 11
627.414013
 21
503.375434
 31
0.0
  0
LINE
  8
0
 10
628.78955
 20
561.231228
 30
0.0
 11
628.78955
 21
507.508585
 31
0.0
  0
LINE
  8
0
 10
626.78955
 20
565.461036
 30
0.0
 11
626.78955
 21
501.499077
 31
0.0
  0
ARC
  8
0
  6
HIDDEN
 10
540.515308
 20
519.095468
 30
0.0
 40
17.540391
 50
155.836965
 51
273.393804
  0
ARC
  8
0
  6
HIDDEN
 10
499.121728
 20
555.76698
 30
0.0
 40
17.540391
 50
183.529273
 51
301.086112
  0
ARC
  8
0
  6
HIDDEN
 10
445.427431
 20
453.461045
 30
0.0
 40
107.5
 50
42.636317
 51
54.286759
  0
ARC
  8
0
  6
HIDDEN
 10
445.427431
 20
453.461045
 30
0.0
 40
107.5
 50
14.94401
 51
26.594452
  0
ARC
  8
0
  6
HIDDEN
 10
560.125402
 20
467.3879
 30
0.0
 40
17.540391
 50
128.144657
 51
245.701497
  0
LINE
  8
0
 10
630.78955
 20
477.461045
 30
0.0
 11
630.78955
 21
453.461045
 31
0.0
  0
LINE
  8
0
 10
602.78955
 20
464.461045
 30
0.0
 11
630.78955
 21
464.461045
 31
0.0
  0
LINE
  8
0
 10
603.78955
 20
477.461045
 30
0.0
 11
614.631794
 21
477.461045
 31
0.0
  0
LINE
  8
0
 10
602.78955
 20
476.461045
 30
0.0
 11
603.78955
 21
477.461045
 31
0.0
  0
LINE
  8
0
 10
614.631794
 20
477.461045
 30
0.0
 11
619.581245
 21
479.839896
 31
0.0
  0
LINE
  8
0
 10
629.743619
 20
477.461045
 30
0.0
 11
630.78955
 21
477.461045
 31
0.0
  0
LINE
  8
0
 10
629.743619
 20
477.461045
 30
0.0
 11
629.743619
 21
480.9099
 31
0.0
  0
LINE
  8
0
 10
628.78955
 20
552.461045
 30
0.0
 11
629.78955
 21
551.461045
 31
0.0
  0
LINE
  8
0
 10
627.414013
 20
561.961045
 30
0.0
 11
628.78955
 21
561.231228
 31
0.0
  0
LINE
  8
0
 10
626.78955
 20
565.461045
 30
0.0
 11
627.414013
 21
561.961045
 31
0.0
  0
LINE
  8
0
 10
652.165087
 20
561.961045
 30
0.0
 11
652.165087
 21
453.461045
 31
0.0
  0
LINE
  8
0
 10
642.41599
 20
551.461045
 30
0.0
 11
642.41599
 21
548.452685
 31
0.0
  0
LINE
  8
0
 10
652.78955
 20
565.461045
 30
0.0
 11
652.165087
 21
561.961045
 31
0.0
  0
LINE
  8
0
 10
904.674214
 20
207.736012
 30
0.0
 11
907.674214
 21
204.736018
 31
0.0
  0
LINE
  8
0
 10
936.674214
 20
207.736018
 30
0.0
 11
933.674214
 21
204.736018
 31
0.0
  0
ENDBLK
  8
0
  0
BLOCK
  8
0
  2
*X6
 70
    65
 10
0.0
 20
0.0
 30
0.0
  3
*X
  0
LINE
  8
0
 62
     0
 10
222.988609
 20
503.002895
 30
0.0
 11
234.979634
 21
514.99392
 31
0.0
  0
LINE
  8
0
 62
     0
 10
226.098882
 20
510.355808
 30
0.0
 11
237.113516
 21
521.370442
 31
0.0
  0
LINE
  8
0
 62
     0
 10
229.209154
 20
517.708721
 30
0.0
 11
239.247398
 21
527.746964
 31
0.0
  0
LINE
  8
0
 62
     0
 10
232.319427
 20
525.061634
 30
0.0
 11
241.381279
 21
534.123487
 31
0.0
  0
LINE
  8
0
 62
     0
 10
232.476197
 20
529.461045
 30
0.0
 11
243.508875
 21
540.493723
 31
0.0
  0
LINE
  8
0
 62
     0
 10
228.233556
 20
529.461045
 30
0.0
 11
243.647343
 21
544.874832
 31
0.0
  0
LINE
  8
0
 62
     0
 10
223.990916
 20
529.461045
 30
0.0
 11
242.459686
 21
547.929816
 31
0.0
  0
LINE
  8
0
 62
     0
 10
223.415445
 20
533.128215
 30
0.0
 11
240.609585
 21
550.322356
 31
0.0
  0
LINE
  8
0
 62
     0
 10
223.415445
 20
537.370856
 30
0.0
 11
238.169654
 21
552.125065
 31
0.0
  0
LINE
  8
0
 62
     0
 10
222.317503
 20
540.515554
 30
0.0
 11
235.053256
 21
553.251308
 31
0.0
  0
LINE
  8
0
 62
     0
 10
222.117134
 20
544.557827
 30
0.0
 11
230.818663
 21
553.259356
 31
0.0
  0
LINE
  8
0
 62
     0
 10
219.878337
 20
495.649981
 30
0.0
 11
232.845753
 21
508.617397
 31
0.0
  0
LINE
  8
0
 62
     0
 10
198.915445
 20
470.444449
 30
0.0
 11
202.932041
 21
474.461045
 31
0.0
  0
LINE
  8
0
 62
     0
 10
216.768064
 20
488.297068
 30
0.0
 11
230.711871
 21
502.240875
 31
0.0
  0
LINE
  8
0
 62
     0
 10
198.915445
 20
466.201808
 30
0.0
 11
207.174682
 21
474.461045
 31
0.0
  0
LINE
  8
0
 62
     0
 10
213.657792
 20
480.944155
 30
0.0
 11
228.577989
 21
495.864353
 31
0.0
  0
LINE
  8
0
 62
     0
 10
199.417323
 20
462.461045
 30
0.0
 11
226.444108
 21
489.48783
 31
0.0
  0
LINE
  8
0
 62
     0
 10
203.659963
 20
462.461045
 30
0.0
 11
224.310226
 21
483.111308
 31
0.0
  0
LINE
  8
0
 62
     0
 10
207.902604
 20
462.461045
 30
0.0
 11
222.176344
 21
476.734785
 31
0.0
  0
LINE
  8
0
 62
     0
 10
212.145245
 20
462.461045
 30
0.0
 11
222.915445
 21
473.231245
 31
0.0
  0
LINE
  8
0
 62
     0
 10
216.387885
 20
462.461045
 30
0.0
 11
222.915445
 21
468.988605
 31
0.0
  0
LINE
  8
0
 62
     0
 10
220.630526
 20
462.461045
 30
0.0
 11
222.915445
 21
464.745964
 31
0.0
  0
ENDBLK
  8
0
  0
BLOCK
  8
0
  2
*X7
 70
    65
 10
0.0
 20
0.0
 30
0.0
  3
*X
  0
LINE
  8
0
 62
     0
 10
722.750419
 20
485.16254
 30
0.0
 11
733.118262
 21
495.530384
 31
0.0
  0
LINE
  8
0
 62
     0
 10
725.572139
 20
493.641114
 30
0.0
 11
735.281586
 21
503.350562
 31
0.0
  0
LINE
  8
0
 62
     0
 10
728.393859
 20
502.119689
 30
0.0
 11
737.44491
 21
511.17074
 31
0.0
  0
LINE
  8
0
 62
     0
 10
731.215579
 20
510.598263
 30
0.0
 11
739.608234
 21
518.990918
 31
0.0
  0
LINE
  8
0
 62
     0
 10
729.61269
 20
514.652228
 30
0.0
 11
741.573249
 21
526.612788
 31
0.0
  0
LINE
  8
0
 62
     0
 10
723.955836
 20
514.652228
 30
0.0
 11
741.456828
 21
532.153221
 31
0.0
  0
LINE
  8
0
 62
     0
 10
718.618052
 20
514.971299
 30
0.0
 11
739.655445
 21
536.008692
 31
0.0
  0
LINE
  8
0
 62
     0
 10
717.937122
 20
519.947223
 30
0.0
 11
736.91011
 21
538.920211
 31
0.0
  0
LINE
  8
0
 62
     0
 10
717.165078
 20
524.832034
 30
0.0
 11
733.249263
 21
540.916218
 31
0.0
  0
LINE
  8
0
 62
     0
 10
715.952091
 20
529.275901
 30
0.0
 11
728.31345
 21
541.637259
 31
0.0
  0
LINE
  8
0
 62
     0
 10
719.928699
 20
476.683966
 30
0.0
 11
730.954939
 21
487.710206
 31
0.0
  0
LINE
  8
0
 62
     0
 10
717.106979
 20
468.205392
 30
0.0
 11
728.791615
 21
479.890028
 31
0.0
  0
LINE
  8
0
 62
     0
 10
691.937122
 20
437.378681
 30
0.0
 11
695.21067
 21
440.652228
 31
0.0
  0
LINE
  8
0
 62
     0
 10
714.285259
 20
459.726818
 30
0.0
 11
726.628291
 21
472.06985
 31
0.0
  0
LINE
  8
0
 62
     0
 10
691.937122
 20
431.721826
 30
0.0
 11
700.867524
 21
440.652228
 31
0.0
  0
LINE
  8
0
 62
     0
 10
711.463539
 20
451.248243
 30
0.0
 11
724.464967
 21
464.249672
 31
0.0
  0
LINE
  8
0
 62
     0
 10
693.524378
 20
427.652228
 30
0.0
 11
722.301643
 21
456.429493
 31
0.0
  0
LINE
  8
0
 62
     0
 10
699.181232
 20
427.652228
 30
0.0
 11
720.138319
 21
448.609315
 31
0.0
  0
LINE
  8
0
 62
     0
 10
704.838087
 20
427.652228
 30
0.0
 11
718.891191
 21
441.705333
 31
0.0
  0
LINE
  8
0
 62
     0
 10
710.494941
 20
427.652228
 30
0.0
 11
719.937122
 21
437.094409
 31
0.0
  0
LINE
  8
0
 62
     0
 10
716.151795
 20
427.652228
 30
0.0
 11
719.937122
 21
431.437555
 31
0.0
  0
ENDBLK
  8
0
  0
BLOCK
  8
0
  2
*X8
 70
    65
 10
0.0
 20
0.0
 30
0.0
  3
*X
  0
LINE
  8
0
 62
     0
 10
270.966272
 20
157.829187
 30
0.0
 11
282.113551
 21
168.976466
 31
0.0
  0
LINE
  8
0
 62
     0
 10
272.885728
 20
165.405497
 30
0.0
 11
283.535665
 21
176.055434
 31
0.0
  0
LINE
  8
0
 62
     0
 10
274.805183
 20
172.981807
 30
0.0
 11
284.957779
 21
183.134403
 31
0.0
  0
LINE
  8
0
 62
     0
 10
276.724638
 20
180.558116
 30
0.0
 11
286.379893
 21
190.213371
 31
0.0
  0
LINE
  8
0
 62
     0
 10
278.644094
 20
188.134426
 30
0.0
 11
287.802008
 21
197.29234
 31
0.0
  0
LINE
  8
0
 62
     0
 10
280.563549
 20
195.710735
 30
0.0
 11
289.224122
 21
204.371308
 31
0.0
  0
LINE
  8
0
 62
     0
 10
279.578909
 20
200.382949
 30
0.0
 11
291.665652
 21
212.469692
 31
0.0
  0
LINE
  8
0
 62
     0
 10
273.922055
 20
200.382949
 30
0.0
 11
292.322661
 21
218.783556
 31
0.0
  0
LINE
  8
0
 62
     0
 10
268.398732
 20
200.516481
 30
0.0
 11
290.415361
 21
222.53311
 31
0.0
  0
LINE
  8
0
 62
     0
 10
267.532264
 20
205.306867
 30
0.0
 11
287.645332
 21
225.419935
 31
0.0
  0
LINE
  8
0
 62
     0
 10
267.498609
 20
210.930067
 30
0.0
 11
284.029316
 21
227.460773
 31
0.0
  0
LINE
  8
0
 62
     0
 10
265.141586
 20
214.229898
 30
0.0
 11
279.292224
 21
228.380536
 31
0.0
  0
LINE
  8
0
 62
     0
 10
267.344162
 20
222.089328
 30
0.0
 11
271.325885
 21
226.071051
 31
0.0
  0
LINE
  8
0
 62
     0
 10
269.046817
 20
150.252878
 30
0.0
 11
280.691437
 21
161.897497
 31
0.0
  0
LINE
  8
0
 62
     0
 10
267.127362
 20
142.676568
 30
0.0
 11
279.269322
 21
154.818529
 31
0.0
  0
LINE
  8
0
 62
     0
 10
265.207906
 20
135.100259
 30
0.0
 11
277.847208
 21
147.739561
 31
0.0
  0
LINE
  8
0
 62
     0
 10
263.288451
 20
127.523949
 30
0.0
 11
276.425094
 21
140.660592
 31
0.0
  0
LINE
  8
0
 62
     0
 10
237.032264
 20
95.610908
 30
0.0
 11
240.304306
 21
98.882949
 31
0.0
  0
LINE
  8
0
 62
     0
 10
261.368996
 20
119.94764
 30
0.0
 11
275.00298
 21
133.581624
 31
0.0
  0
LINE
  8
0
 62
     0
 10
237.032264
 20
89.954054
 30
0.0
 11
245.96116
 21
98.882949
 31
0.0
  0
LINE
  8
0
 62
     0
 10
259.44954
 20
112.37133
 30
0.0
 11
273.580866
 21
126.502655
 31
0.0
  0
LINE
  8
0
 62
     0
 10
237.032264
 20
84.297199
 30
0.0
 11
251.618014
 21
98.882949
 31
0.0
  0
LINE
  8
0
 62
     0
 10
257.530085
 20
104.79502
 30
0.0
 11
272.158751
 21
119.423687
 31
0.0
  0
LINE
  8
0
 62
     0
 10
242.274868
 20
83.882949
 30
0.0
 11
270.736637
 21
112.344718
 31
0.0
  0
LINE
  8
0
 62
     0
 10
247.931723
 20
83.882949
 30
0.0
 11
269.314523
 21
105.26575
 31
0.0
  0
LINE
  8
0
 62
     0
 10
253.588577
 20
83.882949
 30
0.0
 11
268.588577
 21
98.882949
 31
0.0
  0
LINE
  8
0
 62
     0
 10
259.245431
 20
83.882949
 30
0.0
 11
270.032264
 21
94.669782
 31
0.0
  0
LINE
  8
0
 62
     0
 10
264.902285
 20
83.882949
 30
0.0
 11
270.032264
 21
89.012928
 31
0.0
  0
ENDBLK
  8
0
  0
BLOCK
  8
0
  2
*X9
 70
    65
 10
0.0
 20
0.0
 30
0.0
  3
*X
  0
LINE
  8
0
 62
     0
 10
1012.183534
 20
149.513261
 30
0.0
 11
1025.890195
 21
163.219922
 31
0.0
  0
LINE
  8
0
 62
     0
 10
1014.228761
 20
158.629555
 30
0.0
 11
1027.390993
 21
171.791788
 31
0.0
  0
LINE
  8
0
 62
     0
 10
1016.273987
 20
167.74585
 30
0.0
 11
1028.891791
 21
180.363654
 31
0.0
  0
LINE
  8
0
 62
     0
 10
1018.319214
 20
176.862144
 30
0.0
 11
1030.392589
 21
188.93552
 31
0.0
  0
LINE
  8
0
 62
     0
 10
1020.36444
 20
185.978438
 30
0.0
 11
1031.893388
 21
197.507386
 31
0.0
  0
LINE
  8
0
 62
     0
 10
1022.409667
 20
195.094733
 30
0.0
 11
1033.394186
 21
206.079252
 31
0.0
  0
LINE
  8
0
 62
     0
 10
1024.454893
 20
204.211027
 30
0.0
 11
1034.894984
 21
214.651117
 31
0.0
  0
LINE
  8
0
 62
     0
 10
1024.921197
 20
211.748399
 30
0.0
 11
1039.36432
 21
226.191521
 31
0.0
  0
LINE
  8
0
 62
     0
 10
1018.148745
 20
212.047014
 30
0.0
 11
1038.183331
 21
232.081601
 31
0.0
  0
LINE
  8
0
 62
     0
 10
1011.221325
 20
212.190662
 30
0.0
 11
1035.502577
 21
236.471915
 31
0.0
  0
LINE
  8
0
 62
     0
 10
1010.364972
 20
218.405377
 30
0.0
 11
1031.677696
 21
239.718101
 31
0.0
  0
LINE
  8
0
 62
     0
 10
1009.150256
 20
224.261728
 30
0.0
 11
1026.604214
 21
241.715687
 31
0.0
  0
LINE
  8
0
 62
     0
 10
1007.876026
 20
230.058567
 30
0.0
 11
1019.353419
 21
241.53596
 31
0.0
  0
LINE
  8
0
 62
     0
 10
1010.138307
 20
140.396967
 30
0.0
 11
1024.389397
 21
154.648056
 31
0.0
  0
LINE
  8
0
 62
     0
 10
1008.093081
 20
131.280672
 30
0.0
 11
1022.888599
 21
146.07619
 31
0.0
  0
LINE
  8
0
 62
     0
 10
1006.047854
 20
122.164378
 30
0.0
 11
1021.387801
 21
137.504325
 31
0.0
  0
LINE
  8
0
 62
     0
 10
1004.002628
 20
113.048083
 30
0.0
 11
1019.887003
 21
128.932459
 31
0.0
  0
LINE
  8
0
 62
     0
 10
1001.957401
 20
103.931789
 30
0.0
 11
1018.386205
 21
120.360593
 31
0.0
  0
LINE
  8
0
 62
     0
 10
976.364972
 20
71.268292
 30
0.0
 11
979.643694
 21
74.547014
 31
0.0
  0
LINE
  8
0
 62
     0
 10
999.912175
 20
94.815495
 30
0.0
 11
1016.885407
 21
111.788727
 31
0.0
  0
LINE
  8
0
 62
     0
 10
976.364972
 20
64.197225
 30
0.0
 11
986.714762
 21
74.547014
 31
0.0
  0
LINE
  8
0
 62
     0
 10
997.866948
 20
85.6992
 30
0.0
 11
1015.384609
 21
103.216861
 31
0.0
  0
LINE
  8
0
 62
     0
 10
976.364972
 20
57.126157
 30
0.0
 11
995.08827
 21
75.849454
 31
0.0
  0
LINE
  8
0
 62
     0
 10
995.821721
 20
76.582906
 30
0.0
 11
1013.883811
 21
94.644995
 31
0.0
  0
LINE
  8
0
 62
     0
 10
983.356898
 20
57.047014
 30
0.0
 11
1012.383013
 21
86.073129
 31
0.0
  0
LINE
  8
0
 62
     0
 10
990.427965
 20
57.047014
 30
0.0
 11
1010.882215
 21
77.501263
 31
0.0
  0
LINE
  8
0
 62
     0
 10
997.499033
 20
57.047014
 30
0.0
 11
1013.932003
 21
73.479984
 31
0.0
  0
LINE
  8
0
 62
     0
 10
1004.570101
 20
57.047014
 30
0.0
 11
1014.364972
 21
66.841886
 31
0.0
  0
LINE
  8
0
 62
     0
 10
1011.641169
 20
57.047014
 30
0.0
 11
1014.364972
 21
59.770818
 31
0.0
  0
ENDBLK
  8
0
  0
ENDSEC
  0
SECTION
  2
ENTITIES
  0
ARC
  8
0
  6
HIDDEN
 10
716.531628
 20
10.570511
 30
0.0
 40
16.250751
 50
306.840557
 51
73.159443
  0
ARC
  8
0
  6
HIDDEN
 10
899.952812
 20
42.912615
 30
0.0
 40
179.5
 50
194.633398
 51
205.366602
  0
ARC
  8
0
  6
HIDDEN
 10
716.531628
 20
75.254718
 30
0.0
 40
16.250751
 50
286.840557
 51
53.159443
  0
ARC
  8
0
  6
HIDDEN
 10
899.952812
 20
42.912615
 30
0.0
 40
179.5
 50
154.633398
 51
165.366602
  0
CIRCLE
  8
0
 10
899.952812
 20
42.912615
 30
0.0
 40
181.0
  0
CIRCLE
  8
0
 10
899.952812
 20
42.912615
 30
0.0
 40
184.0
  0
CIRCLE
  8
0
 10
899.952812
 20
42.912615
 30
0.0
 40
200.0
  0
ARC
  8
0
  6
HIDDEN
 10
-29.094382
 20
42.912615
 30
0.0
 40
107.5
 50
264.174779
 51
275.825221
  0
ARC
  8
0
  6
HIDDEN
 10
-29.094382
 20
158.453005
 30
0.0
 40
17.540391
 50
211.22158
 51
328.77842
  0
CIRCLE
  8
0
 10
-29.094382
 20
42.912615
 30
0.0
 40
11.0
  0
CIRCLE
  8
0
 10
-29.094382
 20
42.912615
 30
0.0
 40
24.0
  0
CIRCLE
  8
0
 10
-29.094382
 20
42.912615
 30
0.0
 40
125.0
  0
CIRCLE
  8
0
 10
-29.094382
 20
42.912615
 30
0.0
 40
112.0
  0
CIRCLE
  8
0
 10
-29.094382
 20
42.912615
 30
0.0
 40
108.5
  0
CIRCLE
  8
0
 10
386.515689
 20
42.912615
 30
0.0
 40
27.0
  0
ARC
  8
0
  6
HIDDEN
 10
386.515689
 20
42.912615
 30
0.0
 40
139.0
 50
263.987791
 51
276.012209
  0
ARC
  8
0
  6
HIDDEN
 10
386.515689
 20
188.809213
 30
0.0
 40
16.396599
 50
207.830848
 51
332.169152
  0
CIRCLE
  8
0
 10
386.515689
 20
42.912615
 30
0.0
 40
28.0
  0
CIRCLE
  8
0
 10
386.515689
 20
42.912615
 30
0.0
 40
13.0
  0
CIRCLE
  8
0
 10
386.515689
 20
42.912615
 30
0.0
 40
140.0
  0
CIRCLE
  8
0
 10
386.515689
 20
42.912615
 30
0.0
 40
143.5
  0
CIRCLE
  8
0
 10
386.515689
 20
42.912615
 30
0.0
 40
157.5
  0
ARC
  8
0
  6
HIDDEN
 10
260.165528
 20
-30.035685
 30
0.0
 40
16.396599
 50
327.830848
 51
92.169152
  0
ARC
  8
0
  6
HIDDEN
 10
386.515689
 20
42.912615
 30
0.0
 40
139.0
 50
215.987791
 51
228.012209
  0
ARC
  8
0
  6
HIDDEN
 10
300.75982
 20
-75.120213
 30
0.0
 40
16.396599
 50
351.830848
 51
116.169152
  0
ARC
  8
0
  6
HIDDEN
 10
386.515689
 20
42.912615
 30
0.0
 40
139.0
 50
239.987791
 51
252.012209
  0
ARC
  8
0
  6
HIDDEN
 10
356.182081
 20
-99.795793
 30
0.0
 40
16.396599
 50
15.830848
 51
140.169152
  0
ARC
  8
0
  6
HIDDEN
 10
386.515689
 20
42.912615
 30
0.0
 40
139.0
 50
143.987791
 51
156.012209
  0
ARC
  8
0
  6
HIDDEN
 10
241.418327
 20
27.662267
 30
0.0
 40
16.396599
 50
303.830848
 51
68.169152
  0
ARC
  8
0
  6
HIDDEN
 10
386.515689
 20
42.912615
 30
0.0
 40
139.0
 50
167.987791
 51
180.012209
  0
ARC
  8
0
  6
HIDDEN
 10
386.515689
 20
42.912615
 30
0.0
 40
139.0
 50
191.987791
 51
204.012209
  0
ARC
  8
0
  6
HIDDEN
 10
247.759778
 20
87.997143
 30
0.0
 40
16.396599
 50
279.830848
 51
44.169152
  0
ARC
  8
0
  6
HIDDEN
 10
278.093387
 20
140.536494
 30
0.0
 40
16.396599
 50
255.830848
 51
20.169152
  0
ARC
  8
0
  6
HIDDEN
 10
386.515689
 20
42.912615
 30
0.0
 40
139.0
 50
119.987791
 51
132.012209
  0
ARC
  8
0
  6
HIDDEN
 10
327.174196
 20
176.19579
 30
0.0
 40
16.396599
 50
231.830848
 51
356.169152
  0
ARC
  8
0
  6
HIDDEN
 10
386.515689
 20
42.912615
 30
0.0
 40
139.0
 50
95.987791
 51
108.012209
  0
ARC
  8
0
  6
HIDDEN
 10
512.86585
 20
-30.035685
 30
0.0
 40
16.396599
 50
87.830848
 51
212.169152
  0
LINE
  8
0
 10
616.381705
 20
42.912615
 30
0.0
 11
616.381705
 21
-100.587385
 31
0.0
  0
LINE
  8
0
 10
644.381705
 20
186.412615
 30
0.0
 11
644.381705
 21
-100.587385
 31
0.0
  0
LINE
  8
0
 10
608.154162
 20
11.863641
 30
0.0
 11
616.381705
 21
-20.611414
 31
0.0
  0
ARC
  8
0
  6
HIDDEN
 10
472.271558
 20
-75.120213
 30
0.0
 40
16.396599
 50
63.830848
 51
188.169152
  0
ARC
  8
0
  6
HIDDEN
 10
416.849298
 20
-99.795793
 30
0.0
 40
16.396599
 50
39.830848
 51
164.169152
  0
ARC
  8
0
  6
HIDDEN
 10
386.515689
 20
42.912615
 30
0.0
 40
139.0
 50
287.987791
 51
300.012209
  0
ARC
  8
0
  6
HIDDEN
 10
386.515689
 20
42.912615
 30
0.0
 40
139.0
 50
311.987791
 51
324.012209
  0
ARC
  8
0
 10
630.381705
 20
-100.587385
 30
0.0
 40
14.0
 50
180.0
 51
0.0
  0
ARC
  8
0
  6
HIDDEN
 10
386.515689
 20
42.912615
 30
0.0
 40
139.0
 50
23.987791
 51
36.012209
  0
ARC
  8
0
  6
HIDDEN
 10
386.515689
 20
42.912615
 30
0.0
 40
139.0
 50
359.987791
 51
12.012209
  0
ARC
  8
0
  6
HIDDEN
 10
531.613051
 20
27.662267
 30
0.0
 40
16.396599
 50
111.830848
 51
236.169152
  0
ARC
  8
0
  6
HIDDEN
 10
386.515689
 20
42.912615
 30
0.0
 40
139.0
 50
335.987791
 51
348.012209
  0
ARC
  8
0
  6
HIDDEN
 10
525.2716
 20
87.997143
 30
0.0
 40
16.396599
 50
135.830848
 51
260.169152
  0
ARC
  8
0
  6
HIDDEN
 10
386.515689
 20
42.912615
 30
0.0
 40
139.0
 50
47.987791
 51
60.012209
  0
ARC
  8
0
  6
HIDDEN
 10
494.937991
 20
140.536494
 30
0.0
 40
16.396599
 50
159.830848
 51
284.169152
  0
ARC
  8
0
  6
HIDDEN
 10
445.857182
 20
176.19579
 30
0.0
 40
16.396599
 50
183.830848
 51
308.169152
  0
ARC
  8
0
  6
HIDDEN
 10
386.515689
 20
42.912615
 30
0.0
 40
139.0
 50
71.987791
 51
84.012209
  0
INSERT
  8
0
  2
*X8
 10
351.349441
 20
-27.970335
 30
0.0
  0
LINE
  8
0
 10
641.881705
 20
182.912615
 30
0.0
 11
641.881705
 21
42.912615
 31
0.0
  0
LINE
  8
0
 10
608.154162
 20
73.961588
 30
0.0
 11
632.602341
 21
170.461345
 31
0.0
  0
LINE
  8
0
 10
619.381705
 20
70.912615
 30
0.0
 11
641.881705
 21
182.912615
 31
0.0
  0
LINE
  8
0
 10
621.381705
 20
69.912615
 30
0.0
 11
621.381705
 21
42.912615
 31
0.0
  0
LINE
  8
0
 10
588.381705
 20
69.912615
 30
0.0
 11
588.381705
 21
15.912615
 31
0.0
  0
LINE
  8
0
  6
CENTER
 10
569.782608
 20
42.912615
 30
0.0
 11
655.496954
 21
42.912615
 31
0.0
  0
LINE
  8
0
 10
608.154162
 20
11.863641
 30
0.0
 11
604.285687
 21
14.912615
 31
0.0
  0
LINE
  8
0
 10
589.381705
 20
14.912615
 30
0.0
 11
604.285687
 21
14.912615
 31
0.0
  0
LINE
  8
0
 10
589.381705
 20
14.912615
 30
0.0
 11
588.381705
 21
15.912615
 31
0.0
  0
LINE
  8
0
 10
588.381705
 20
55.912615
 30
0.0
 11
621.381705
 21
55.912615
 31
0.0
  0
LINE
  8
0
 10
608.154162
 20
73.961588
 30
0.0
 11
604.285687
 21
70.912615
 31
0.0
  0
LINE
  8
0
 10
589.381705
 20
70.912615
 30
0.0
 11
604.285687
 21
70.912615
 31
0.0
  0
LINE
  8
0
 10
589.381705
 20
70.912615
 30
0.0
 11
588.381705
 21
69.912615
 31
0.0
  0
LINE
  8
0
 10
619.381705
 20
70.912615
 30
0.0
 11
620.381705
 21
70.912615
 31
0.0
  0
LINE
  8
0
 10
620.381705
 20
70.912615
 30
0.0
 11
621.381705
 21
69.912615
 31
0.0
  0
ARC
  8
0
  6
HIDDEN
 10
899.952812
 20
42.912615
 30
0.0
 40
179.5
 50
174.633398
 51
185.366602
  0
LINE
  8
0
 10
616.381705
 20
186.412615
 30
0.0
 11
616.381705
 21
106.436643
 31
0.0
  0
LINE
  8
0
 10
618.881705
 20
182.912615
 30
0.0
 11
618.881705
 21
116.304429
 31
0.0
  0
ARC
  8
0
 10
630.381705
 20
186.412615
 30
0.0
 40
14.0
 50
360.0
 51
180.0
  0
LINE
  8
0
 10
631.080154
 20
172.412615
 30
0.0
 11
619.881705
 21
172.412615
 31
0.0
  0
LINE
  8
0
 10
618.881705
 20
173.412615
 30
0.0
 11
619.881705
 21
172.412615
 31
0.0
  0
LINE
  8
0
 10
631.080154
 20
172.412615
 30
0.0
 11
632.602341
 21
170.461345
 31
0.0
  0
LINE
  8
0
 10
616.381705
 20
186.412615
 30
0.0
 11
618.881705
 21
182.912615
 31
0.0
  0
LINE
  8
0
 10
644.381705
 20
186.412615
 30
0.0
 11
641.881705
 21
182.912615
 31
0.0
  0
ARC
  8
0
  6
HIDDEN
 10
951.054033
 20
479.997521
 30
0.0
 40
13.637114
 50
164.855622
 51
309.689833
  0
ARC
  8
0
  6
HIDDEN
 10
970.335761
 20
345.890156
 30
0.0
 40
13.637114
 50
66.673804
 51
211.508015
  0
ARC
  8
0
  6
HIDDEN
 10
902.592551
 20
404.589982
 30
0.0
 40
86.5
 50
295.007312
 51
310.447233
  0
CIRCLE
  8
0
 10
902.592551
 20
404.589982
 30
0.0
 40
100.0
  0
CIRCLE
  8
0
 10
902.592551
 20
404.589982
 30
0.0
 40
89.0
  0
CIRCLE
  8
0
 10
902.592551
 20
404.589982
 30
0.0
 40
87.0
  0
ARC
  8
0
  6
HIDDEN
 10
813.867814
 20
391.833291
 30
0.0
 40
13.637114
 50
295.764713
 51
80.598924
  0
CIRCLE
  8
0
 10
902.592551
 20
404.589982
 30
0.0
 40
21.0
  0
ARC
  8
0
  6
HIDDEN
 10
902.592551
 20
404.589982
 30
0.0
 40
86.5
 50
229.552767
 51
244.992688
  0
ARC
  8
0
  6
HIDDEN
 10
834.84934
 20
345.890156
 30
0.0
 40
13.637114
 50
328.491985
 51
113.326196
  0
ARC
  8
0
  6
HIDDEN
 10
902.592551
 20
404.589982
 30
0.0
 40
86.5
 50
196.825494
 51
212.265415
  0
ARC
  8
0
  6
HIDDEN
 10
927.846244
 20
318.583802
 30
0.0
 40
13.637114
 50
33.946531
 51
178.780742
  0
ARC
  8
0
  6
HIDDEN
 10
877.338857
 20
318.583802
 30
0.0
 40
13.637114
 50
1.219258
 51
146.053469
  0
ARC
  8
0
  6
HIDDEN
 10
902.592551
 20
404.589982
 30
0.0
 40
86.5
 50
262.28004
 51
277.71996
  0
ARC
  8
0
  6
HIDDEN
 10
854.131068
 20
479.997521
 30
0.0
 40
13.637114
 50
230.310167
 51
15.144378
  0
ARC
  8
0
  6
HIDDEN
 10
821.055764
 20
441.826585
 30
0.0
 40
13.637114
 50
263.03744
 51
47.871651
  0
ARC
  8
0
  6
HIDDEN
 10
902.592551
 20
404.589982
 30
0.0
 40
86.5
 50
164.098221
 51
179.538142
  0
ARC
  8
0
  6
HIDDEN
 10
902.592551
 20
404.589982
 30
0.0
 40
86.5
 50
131.370949
 51
146.81087
  0
CIRCLE
  8
0
 10
902.592551
 20
404.589982
 30
0.0
 40
9.0
  0
ARC
  8
0
  6
HIDDEN
 10
902.592551
 20
494.227096
 30
0.0
 40
13.637114
 50
197.582895
 51
342.417105
  0
ARC
  8
0
  6
HIDDEN
 10
902.592551
 20
404.589982
 30
0.0
 40
86.5
 50
98.643676
 51
114.083597
  0
ARC
  8
0
  6
HIDDEN
 10
902.592551
 20
404.589982
 30
0.0
 40
86.5
 50
65.916403
 51
81.356324
  0
ARC
  8
0
  6
HIDDEN
 10
-29.094382
 20
42.912615
 30
0.0
 40
107.5
 50
181.097856
 51
192.748298
  0
ARC
  8
0
  6
HIDDEN
 10
991.317288
 20
391.833291
 30
0.0
 40
13.637114
 50
99.401076
 51
244.235287
  0
LINE
  8
0
 10
1052.097484
 20
404.589982
 30
0.0
 11
1052.097484
 21
315.589982
 31
0.0
  0
LINE
  8
0
 10
1029.097484
 20
424.589982
 30
0.0
 11
1029.097484
 21
384.589982
 31
0.0
  0
LINE
  8
0
 10
1074.097484
 20
493.589982
 30
0.0
 11
1074.097484
 21
315.589982
 31
0.0
  0
LINE
  8
0
 10
1041.695903
 20
382.175276
 30
0.0
 11
1052.097484
 21
357.585173
 31
0.0
  0
ARC
  8
0
  6
HIDDEN
 10
902.592551
 20
404.589982
 30
0.0
 40
86.5
 50
327.734585
 51
343.174506
  0
LINE
  8
0
 10
1030.097484
 20
383.589982
 30
0.0
 11
1038.224529
 21
383.589982
 31
0.0
  0
LINE
  8
0
 10
1029.097484
 20
384.589982
 30
0.0
 11
1030.097484
 21
383.589982
 31
0.0
  0
LINE
  8
0
 10
1038.224529
 20
383.589982
 30
0.0
 11
1041.695903
 21
382.175276
 31
0.0
  0
ARC
  8
0
 10
1063.097484
 20
315.589982
 30
0.0
 40
11.0
 50
180.0
 51
0.0
  0
ARC
  8
0
  6
HIDDEN
 10
-137.126524
 20
1.941427
 30
0.0
 40
17.540391
 50
321.990811
 51
79.547651
  0
ARC
  8
0
  6
HIDDEN
 10
-105.711833
 20
-43.57061
 30
0.0
 40
17.540391
 50
349.683119
 51
107.239958
  0
ARC
  8
0
  6
HIDDEN
 10
-29.094382
 20
42.912615
 30
0.0
 40
107.5
 50
236.482471
 51
248.132913
  0
ARC
  8
0
  6
HIDDEN
 10
-56.745007
 20
-69.270382
 30
0.0
 40
17.540391
 50
17.375426
 51
134.932266
  0
ARC
  8
0
  6
HIDDEN
 10
-29.094382
 20
42.912615
 30
0.0
 40
107.5
 50
208.790164
 51
220.440606
  0
INSERT
  8
0
  2
*X6
 10
830.182039
 20
-48.871063
 30
0.0
  0
LINE
  8
0
 10
1041.695903
 20
427.004689
 30
0.0
 11
1063.705869
 21
479.037868
 31
0.0
  0
LINE
  8
0
 10
1029.097484
 20
395.589982
 30
0.0
 11
1053.097484
 21
395.589982
 31
0.0
  0
LINE
  8
0
  6
CENTER
 10
1020.272932
 20
404.589982
 30
0.0
 11
1082.697249
 21
404.589982
 31
0.0
  0
LINE
  8
0
 10
1029.097484
 20
413.589982
 30
0.0
 11
1053.097484
 21
413.589982
 31
0.0
  0
ARC
  8
0
  6
HIDDEN
 10
984.129337
 20
441.826585
 30
0.0
 40
13.637114
 50
132.128349
 51
276.96256
  0
ARC
  8
0
  6
HIDDEN
 10
902.592551
 20
404.589982
 30
0.0
 40
86.5
 50
0.461858
 51
15.901779
  0
LINE
  8
0
 10
1030.097484
 20
425.589982
 30
0.0
 11
1038.224529
 21
425.589982
 31
0.0
  0
LINE
  8
0
 10
1030.097484
 20
425.589982
 30
0.0
 11
1029.097484
 21
424.589982
 31
0.0
  0
LINE
  8
0
 10
1038.224529
 20
425.589982
 30
0.0
 11
1041.695903
 21
427.004689
 31
0.0
  0
ARC
  8
0
  6
HIDDEN
 10
902.592551
 20
404.589982
 30
0.0
 40
86.5
 50
33.18913
 51
48.629051
  0
LINE
  8
0
 10
1073.684161
 20
491.589982
 30
0.0
 11
1073.684161
 21
404.589982
 31
0.0
  0
LINE
  8
0
 10
1052.253166
 20
427.549308
 30
0.0
 11
1073.684161
 21
491.589982
 31
0.0
  0
LINE
  8
0
 10
1053.097484
 20
425.589982
 30
0.0
 11
1053.097484
 21
404.589982
 31
0.0
  0
LINE
  8
0
 10
1052.253166
 20
425.589982
 30
0.0
 11
1053.097484
 21
425.589982
 31
0.0
  0
LINE
  8
0
 10
1052.253166
 20
425.589982
 30
0.0
 11
1052.253166
 21
427.549308
 31
0.0
  0
LINE
  8
0
 10
1052.510807
 20
491.589982
 30
0.0
 11
1052.510807
 21
452.571917
 31
0.0
  0
LINE
  8
0
 10
1053.597484
 20
490.613322
 30
0.0
 11
1053.597484
 21
455.140902
 31
0.0
  0
LINE
  8
0
 10
1052.097484
 20
493.589982
 30
0.0
 11
1052.097484
 21
451.594792
 31
0.0
  0
ARC
  8
0
 10
1063.097484
 20
493.589982
 30
0.0
 40
11.0
 50
0.0
 51
180.0
  0
LINE
  8
0
 10
1052.510807
 20
491.589982
 30
0.0
 11
1053.597484
 21
490.613322
 31
0.0
  0
LINE
  8
0
 10
1063.705869
 20
480.589982
 30
0.0
 11
1054.097484
 21
480.589982
 31
0.0
  0
LINE
  8
0
 10
1053.597484
 20
481.089982
 30
0.0
 11
1054.097484
 21
480.589982
 31
0.0
  0
LINE
  8
0
 10
1063.705869
 20
479.037868
 30
0.0
 11
1063.705869
 21
480.589982
 31
0.0
  0
LINE
  8
0
 10
1052.097484
 20
493.589982
 30
0.0
 11
1052.510807
 21
491.589982
 31
0.0
  0
LINE
  8
0
 10
1074.097484
 20
493.589982
 30
0.0
 11
1073.684161
 21
491.589982
 31
0.0
  0
ARC
  8
0
  6
HIDDEN
 10
-29.094382
 20
42.912615
 30
0.0
 40
107.5
 50
98.020933
 51
109.671375
  0
ARC
  8
0
  6
HIDDEN
 10
-124.182259
 20
108.547038
 30
0.0
 40
17.540391
 50
266.606196
 51
24.163035
  0
ARC
  8
0
  6
HIDDEN
 10
-29.094382
 20
42.912615
 30
0.0
 40
107.5
 50
153.405548
 51
165.05599
  0
ARC
  8
0
  6
HIDDEN
 10
-143.792353
 20
56.83947
 30
0.0
 40
17.540391
 50
294.298503
 51
51.855343
  0
ARC
  8
0
  6
HIDDEN
 10
-82.788679
 20
145.21855
 30
0.0
 40
17.540391
 50
238.913888
 51
356.470727
  0
ARC
  8
0
  6
HIDDEN
 10
-29.094382
 20
42.912615
 30
0.0
 40
107.5
 50
125.713241
 51
137.363683
  0
INSERT
  8
0
  2
*X9
 10
162.661869
 20
0.8656
 30
0.0
  0
ARC
  8
0
  6
HIDDEN
 10
899.952812
 20
42.912615
 30
0.0
 40
179.5
 50
74.633398
 51
85.366602
  0
ARC
  8
0
  6
HIDDEN
 10
899.952812
 20
42.912615
 30
0.0
 40
179.5
 50
94.633398
 51
105.366602
  0
ARC
  8
0
  6
HIDDEN
 10
899.952812
 20
229.163366
 30
0.0
 40
16.250751
 50
206.840557
 51
333.159443
  0
LINE
  8
0
 10
1173.026842
 20
223.912615
 30
0.0
 11
1173.026842
 21
142.272892
 31
0.0
  0
LINE
  8
0
 10
1173.026842
 20
75.412615
 30
0.0
 11
1199.026842
 21
223.912615
 31
0.0
  0
LINE
  8
0
 10
1199.026842
 20
223.912615
 30
0.0
 11
1199.026842
 21
42.912615
 31
0.0
  0
LINE
  8
0
 10
1202.026842
 20
226.912615
 30
0.0
 11
1202.026842
 21
-141.087395
 31
0.0
  0
LINE
  8
0
 10
1170.026842
 20
226.912615
 30
0.0
 11
1170.026842
 21
128.900837
 31
0.0
  0
ARC
  8
0
 10
1186.026842
 20
226.912615
 30
0.0
 40
16.0
 50
360.0
 51
180.0
  0
ARC
  8
0
  6
HIDDEN
 10
899.952812
 20
42.912615
 30
0.0
 40
179.5
 50
334.633398
 51
345.366602
  0
ARC
  8
0
  6
HIDDEN
 10
899.952812
 20
42.912615
 30
0.0
 40
179.5
 50
274.633398
 51
285.366602
  0
ARC
  8
0
  6
HIDDEN
 10
899.952812
 20
-143.338137
 30
0.0
 40
16.250751
 50
26.840557
 51
153.159443
  0
ARC
  8
0
  6
HIDDEN
 10
899.952812
 20
42.912615
 30
0.0
 40
179.5
 50
254.633398
 51
265.366602
  0
ARC
  8
0
  6
HIDDEN
 10
899.952812
 20
42.912615
 30
0.0
 40
179.5
 50
234.633398
 51
245.366602
  0
ARC
  8
0
  6
HIDDEN
 10
899.952812
 20
42.912615
 30
0.0
 40
179.5
 50
214.633398
 51
225.366602
  0
ARC
  8
0
  6
HIDDEN
 10
780.233137
 20
-99.763738
 30
0.0
 40
16.250751
 50
346.840557
 51
113.159443
  0
ARC
  8
0
  6
HIDDEN
 10
738.65493
 20
-50.212761
 30
0.0
 40
16.250751
 50
326.840557
 51
93.159443
  0
ARC
  8
0
  6
HIDDEN
 10
836.251303
 20
-132.105842
 30
0.0
 40
16.250751
 50
6.840557
 51
133.159443
  0
ARC
  8
0
  6
HIDDEN
 10
1019.672487
 20
-99.763738
 30
0.0
 40
16.250751
 50
66.840557
 51
193.159443
  0
ARC
  8
0
  6
HIDDEN
 10
963.654321
 20
-132.105842
 30
0.0
 40
16.250751
 50
46.840557
 51
173.159443
  0
ARC
  8
0
  6
HIDDEN
 10
899.952812
 20
42.912615
 30
0.0
 40
179.5
 50
294.633398
 51
305.366602
  0
ARC
  8
0
  6
HIDDEN
 10
899.952812
 20
42.912615
 30
0.0
 40
179.5
 50
314.633398
 51
325.366602
  0
ARC
  8
0
  6
HIDDEN
 10
1061.250694
 20
-50.212761
 30
0.0
 40
16.250751
 50
86.840557
 51
213.159443
  0
CIRCLE
  8
0
 10
899.952812
 20
42.912615
 30
0.0
 40
31.0
  0
CIRCLE
  8
0
 10
899.952812
 20
42.912615
 30
0.0
 40
32.5
  0
CIRCLE
  8
0
 10
899.952812
 20
42.912615
 30
0.0
 40
15.0
  0
ARC
  8
0
  6
HIDDEN
 10
899.952812
 20
42.912615
 30
0.0
 40
179.5
 50
114.633398
 51
125.366602
  0
ARC
  8
0
  6
HIDDEN
 10
899.952812
 20
42.912615
 30
0.0
 40
179.5
 50
134.633398
 51
145.366602
  0
ARC
  8
0
  6
HIDDEN
 10
738.65493
 20
136.03799
 30
0.0
 40
16.250751
 50
266.840557
 51
33.159443
  0
ARC
  8
0
  6
HIDDEN
 10
780.233137
 20
185.588968
 30
0.0
 40
16.250751
 50
246.840557
 51
13.159443
  0
ARC
  8
0
  6
HIDDEN
 10
836.251303
 20
217.931071
 30
0.0
 40
16.250751
 50
226.840557
 51
353.159443
  0
ARC
  8
0
  6
HIDDEN
 10
899.952812
 20
42.912615
 30
0.0
 40
179.5
 50
14.633398
 51
25.366602
  0
ARC
  8
0
  6
HIDDEN
 10
899.952812
 20
42.912615
 30
0.0
 40
179.5
 50
354.633398
 51
5.366602
  0
ARC
  8
0
  6
HIDDEN
 10
1083.373996
 20
10.570511
 30
0.0
 40
16.250751
 50
106.840557
 51
233.159443
  0
ARC
  8
0
  6
HIDDEN
 10
1083.373996
 20
75.254718
 30
0.0
 40
16.250751
 50
126.840557
 51
253.159443
  0
ARC
  8
0
  6
HIDDEN
 10
1019.672487
 20
185.588968
 30
0.0
 40
16.250751
 50
166.840557
 51
293.159443
  0
ARC
  8
0
  6
HIDDEN
 10
963.654321
 20
217.931071
 30
0.0
 40
16.250751
 50
186.840557
 51
313.159443
  0
ARC
  8
0
  6
HIDDEN
 10
899.952812
 20
42.912615
 30
0.0
 40
179.5
 50
54.633398
 51
65.366602
  0
ARC
  8
0
  6
HIDDEN
 10
899.952812
 20
42.912615
 30
0.0
 40
179.5
 50
34.633398
 51
45.366602
  0
ARC
  8
0
  6
HIDDEN
 10
1061.250694
 20
136.03799
 30
0.0
 40
16.250751
 50
146.840557
 51
273.159443
  0
LINE
  8
0
 10
1170.026842
 20
42.912615
 30
0.0
 11
1170.026842
 21
-141.087379
 31
0.0
  0
LINE
  8
0
 10
1158.404826
 20
8.727807
 30
0.0
 11
1170.026842
 21
-43.075607
 31
0.0
  0
ARC
  8
0
 10
1186.026842
 20
-141.087385
 30
0.0
 40
16.0
 50
180.0
 51
0.0
  0
LINE
  8
0
 10
1158.404826
 20
77.097422
 30
0.0
 11
1188.601017
 21
211.692471
 31
0.0
  0
LINE
  8
0
  6
CENTER
 10
1130.183795
 20
42.912615
 30
0.0
 11
1210.552855
 21
42.912615
 31
0.0
  0
LINE
  8
0
 10
1177.026842
 20
73.912615
 30
0.0
 11
1177.026842
 21
42.912615
 31
0.0
  0
LINE
  8
0
 10
1139.026842
 20
73.912615
 30
0.0
 11
1139.026842
 21
11.912615
 31
0.0
  0
LINE
  8
0
 10
1158.404826
 20
8.727807
 30
0.0
 11
1155.520113
 21
10.412615
 31
0.0
  0
LINE
  8
0
 10
1140.526842
 20
10.412615
 30
0.0
 11
1155.520113
 21
10.412615
 31
0.0
  0
LINE
  8
0
 10
1139.026842
 20
11.912615
 30
0.0
 11
1140.526842
 21
10.412615
 31
0.0
  0
LINE
  8
0
 10
1139.026842
 20
57.912615
 30
0.0
 11
1177.026842
 21
57.912615
 31
0.0
  0
LINE
  8
0
 10
1158.404826
 20
77.097422
 30
0.0
 11
1155.520113
 21
75.412615
 31
0.0
  0
LINE
  8
0
 10
1140.526842
 20
75.412615
 30
0.0
 11
1155.520113
 21
75.412615
 31
0.0
  0
LINE
  8
0
 10
1139.026842
 20
73.912615
 30
0.0
 11
1140.526842
 21
75.412615
 31
0.0
  0
LINE
  8
0
 10
1173.026842
 20
75.412615
 30
0.0
 11
1175.526842
 21
75.412615
 31
0.0
  0
LINE
  8
0
 10
1175.526842
 20
75.412615
 30
0.0
 11
1177.026842
 21
73.912615
 31
0.0
  0
LINE
  8
0
 10
1187.253205
 20
212.912615
 30
0.0
 11
1174.026842
 21
212.912615
 31
0.0
  0
LINE
  8
0
 10
1173.026842
 20
213.912615
 30
0.0
 11
1174.026842
 21
212.912615
 31
0.0
  0
LINE
  8
0
 10
1187.253205
 20
212.912615
 30
0.0
 11
1188.601017
 21
211.692471
 31
0.0
  0
ARC
  8
0
  6
HIDDEN
 10
-29.094382
 20
42.912615
 30
0.0
 40
107.5
 50
347.251702
 51
358.902144
  0
LINE
  8
0
 10
152.267737
 20
42.912615
 30
0.0
 11
152.267737
 21
-69.087385
 31
0.0
  0
LINE
  8
0
 10
128.267737
 20
65.912615
 30
0.0
 11
128.267737
 21
19.912615
 31
0.0
  0
LINE
  8
0
 10
178.267737
 20
154.912608
 30
0.0
 11
178.267737
 21
-69.087385
 31
0.0
  0
ARC
  8
0
 10
165.267737
 20
-69.087385
 30
0.0
 40
13.0
 50
179.99996
 51
0.0
  0
ARC
  8
0
  6
HIDDEN
 10
78.93776
 20
1.941427
 30
0.0
 40
17.540391
 50
100.452349
 51
218.009189
  0
ARC
  8
0
  6
HIDDEN
 10
-29.094382
 20
42.912615
 30
0.0
 40
107.5
 50
319.559394
 51
331.209836
  0
ARC
  8
0
  6
HIDDEN
 10
47.523069
 20
-43.57061
 30
0.0
 40
17.540391
 50
72.760042
 51
190.316881
  0
ARC
  8
0
  6
HIDDEN
 10
-29.094382
 20
42.912615
 30
0.0
 40
107.5
 50
291.867087
 51
303.517529
  0
ARC
  8
0
  6
HIDDEN
 10
-1.443757
 20
-69.270382
 30
0.0
 40
17.540391
 50
45.067734
 51
162.624574
  0
LINE
  8
0
 10
145.059433
 20
16.533764
 30
0.0
 11
152.267737
 21
-5.125417
 31
0.0
  0
LINE
  8
0
 10
129.267737
 20
18.912615
 30
0.0
 11
140.109981
 21
18.912615
 31
0.0
  0
LINE
  8
0
 10
128.267737
 20
19.912615
 30
0.0
 11
129.267737
 21
18.912615
 31
0.0
  0
LINE
  8
0
 10
140.109981
 20
18.912615
 30
0.0
 11
145.059433
 21
16.533764
 31
0.0
  0
INSERT
  8
0
  2
*X7
 10
-563.669385
 20
-373.739614
 30
0.0
  0
LINE
  8
0
 10
145.059433
 20
69.291465
 30
0.0
 11
167.894177
 21
137.904254
 31
0.0
  0
LINE
  8
0
 10
167.894177
 20
140.912615
 30
0.0
 11
155.267737
 21
140.912615
 31
0.0
  0
LINE
  8
0
 10
155.221806
 20
70.36147
 30
0.0
 11
177.643274
 21
151.412615
 31
0.0
  0
ARC
  8
0
 10
165.267737
 20
154.912615
 30
0.0
 40
13.0
 50
0.0
 51
180.00004
  0
LINE
  8
0
  6
CENTER
 10
119.501635
 20
42.912615
 30
0.0
 11
187.188714
 21
42.912615
 31
0.0
  0
ARC
  8
0
  6
HIDDEN
 10
-29.094382
 20
42.912615
 30
0.0
 40
107.5
 50
70.328625
 51
81.979067
  0
LINE
  8
0
 10
152.8922
 20
151.412615
 30
0.0
 11
152.8922
 21
92.827003
 31
0.0
  0
LINE
  8
0
 10
154.267737
 20
150.682798
 30
0.0
 11
154.267737
 21
96.960154
 31
0.0
  0
LINE
  8
0
 10
152.267737
 20
154.912606
 30
0.0
 11
152.267737
 21
90.950646
 31
0.0
  0
ARC
  8
0
  6
HIDDEN
 10
65.993496
 20
108.547038
 30
0.0
 40
17.540391
 50
155.836965
 51
273.393804
  0
ARC
  8
0
  6
HIDDEN
 10
24.599915
 20
145.21855
 30
0.0
 40
17.540391
 50
183.529273
 51
301.086112
  0
ARC
  8
0
  6
HIDDEN
 10
-29.094382
 20
42.912615
 30
0.0
 40
107.5
 50
42.636317
 51
54.286759
  0
ARC
  8
0
  6
HIDDEN
 10
-29.094382
 20
42.912615
 30
0.0
 40
107.5
 50
14.94401
 51
26.594452
  0
ARC
  8
0
  6
HIDDEN
 10
85.603589
 20
56.83947
 30
0.0
 40
17.540391
 50
128.144657
 51
245.701497
  0
LINE
  8
0
 10
156.267737
 20
66.912615
 30
0.0
 11
156.267737
 21
42.912615
 31
0.0
  0
LINE
  8
0
 10
128.267737
 20
53.912615
 30
0.0
 11
156.267737
 21
53.912615
 31
0.0
  0
LINE
  8
0
 10
129.267737
 20
66.912615
 30
0.0
 11
140.109981
 21
66.912615
 31
0.0
  0
LINE
  8
0
 10
128.267737
 20
65.912615
 30
0.0
 11
129.267737
 21
66.912615
 31
0.0
  0
LINE
  8
0
 10
140.109981
 20
66.912615
 30
0.0
 11
145.059433
 21
69.291465
 31
0.0
  0
LINE
  8
0
 10
155.221806
 20
66.912615
 30
0.0
 11
156.267737
 21
66.912615
 31
0.0
  0
LINE
  8
0
 10
155.221806
 20
66.912615
 30
0.0
 11
155.221806
 21
70.36147
 31
0.0
  0
LINE
  8
0
 10
154.267737
 20
141.912615
 30
0.0
 11
155.267737
 21
140.912615
 31
0.0
  0
LINE
  8
0
 10
152.8922
 20
151.412615
 30
0.0
 11
154.267737
 21
150.682798
 31
0.0
  0
LINE
  8
0
 10
152.267737
 20
154.912615
 30
0.0
 11
152.8922
 21
151.412615
 31
0.0
  0
LINE
  8
0
 10
177.643274
 20
151.412615
 30
0.0
 11
177.643274
 21
42.912615
 31
0.0
  0
LINE
  8
0
 10
167.894177
 20
140.912615
 30
0.0
 11
167.894177
 21
137.904254
 31
0.0
  0
LINE
  8
0
 10
178.267737
 20
154.912615
 30
0.0
 11
177.643274
 21
151.412615
 31
0.0
  0
LINE
  8
0
 10
1170.026842
 20
226.912608
 30
0.0
 11
1173.026842
 21
223.912615
 31
0.0
  0
LINE
  8
0
 10
1202.026842
 20
226.912615
 30
0.0
 11
1199.026842
 21
223.912615
 31
0.0
  0
ARC
  8
0
  6
HIDDEN
 10
561.40061
 20
367.910061
 30
0.0
 40
13.859843
 50
330.024595
 51
89.975405
  0
ARC
  8
0
  6
HIDDEN
 10
624.932098
 20
404.589982
 30
0.0
 40
67.5
 50
140.240348
 51
159.759652
  0
CIRCLE
  8
0
 10
624.932098
 20
404.589982
 30
0.0
 40
71.0
  0
CIRCLE
  8
0
 10
624.932098
 20
404.589982
 30
0.0
 40
80.0
  0
CIRCLE
  8
0
 10
624.932098
 20
404.589982
 30
0.0
 40
68.0
  0
CIRCLE
  8
0
 10
396.353409
 20
404.589982
 30
0.0
 40
15.5
  0
ARC
  8
0
  6
HIDDEN
 10
396.353409
 20
404.589982
 30
0.0
 40
51.95
 50
257.075033
 51
282.924967
  0
ARC
  8
0
  6
HIDDEN
 10
396.353409
 20
467.106961
 30
0.0
 40
16.516979
 50
225.872831
 51
314.127169
  0
CIRCLE
  8
0
 10
396.353409
 20
404.589982
 30
0.0
 40
54.5
  0
CIRCLE
  8
0
 10
396.353409
 20
404.589982
 30
0.0
 40
16.0
  0
CIRCLE
  8
0
 10
396.353409
 20
404.589982
 30
0.0
 40
62.5
  0
CIRCLE
  8
0
 10
396.353409
 20
404.589982
 30
0.0
 40
52.45
  0
ARC
  8
0
  6
HIDDEN
 10
198.843662
 20
353.367061
 30
0.0
 40
16.222922
 50
49.666742
 51
130.333258
  0
ARC
  8
0
  6
HIDDEN
 10
198.843662
 20
455.812904
 30
0.0
 40
16.222922
 50
229.666742
 51
310.333258
  0
CIRCLE
  8
0
 10
198.843662
 20
404.589982
 30
0.0
 40
14.0
  0
CIRCLE
  8
0
 10
198.843662
 20
404.589982
 30
0.0
 40
50.0
  0
CIRCLE
  8
0
 10
198.843662
 20
404.589982
 30
0.0
 40
42.5
  0
CIRCLE
  8
0
 10
198.843662
 20
404.589982
 30
0.0
 40
40.75
  0
ARC
  8
0
  6
HIDDEN
 10
198.843662
 20
404.589982
 30
0.0
 40
40.25
 50
165.121665
 51
194.878335
  0
ARC
  8
0
  6
HIDDEN
 10
198.843662
 20
404.589982
 30
0.0
 40
40.25
 50
225.121665
 51
254.878335
  0
ARC
  8
0
  6
HIDDEN
 10
154.48331
 20
378.978521
 30
0.0
 40
16.222922
 50
349.666742
 51
70.333258
  0
CIRCLE
  8
0
 10
198.843662
 20
404.589982
 30
0.0
 40
5.0
  0
ARC
  8
0
  6
HIDDEN
 10
154.48331
 20
430.201443
 30
0.0
 40
16.222922
 50
289.666742
 51
10.333258
  0
ARC
  8
0
  6
HIDDEN
 10
198.843662
 20
404.589982
 30
0.0
 40
40.25
 50
105.121665
 51
134.878335
  0
ARC
  8
0
 10
294.710631
 20
362.082162
 30
0.0
 40
7.492184
 50
179.940196
 51
0.059804
  0
INSERT
  8
0
  2
*X3
 10
215.549018
 20
366.356827
 30
0.0
  0
LINE
  8
0
  6
CENTER
 10
265.645933
 20
404.589982
 30
0.0
 11
308.360544
 21
404.589982
 31
0.0
  0
LINE
  8
0
 10
270.218451
 20
399.589982
 30
0.0
 11
287.218451
 21
399.589982
 31
0.0
  0
LINE
  8
0
 10
270.218451
 20
409.589982
 30
0.0
 11
287.218451
 21
409.589982
 31
0.0
  0
LINE
  8
0
 10
276.227652
 20
418.589982
 30
0.0
 11
278.976476
 21
419.568377
 31
0.0
  0
LINE
  8
0
 10
276.227652
 20
390.589982
 30
0.0
 11
278.976476
 21
389.611588
 31
0.0
  0
ARC
  8
0
  6
HIDDEN
 10
198.843662
 20
404.589982
 30
0.0
 40
40.25
 50
345.121665
 51
14.878335
  0
LINE
  8
0
 10
270.218451
 20
417.589982
 30
0.0
 11
270.218451
 21
391.589982
 31
0.0
  0
ARC
  8
0
  6
HIDDEN
 10
243.204013
 20
378.978521
 30
0.0
 40
16.222922
 50
109.666742
 51
190.333258
  0
ARC
  8
0
  6
HIDDEN
 10
198.843662
 20
404.589982
 30
0.0
 40
40.25
 50
285.121665
 51
314.878335
  0
LINE
  8
0
 10
271.218451
 20
390.589982
 30
0.0
 11
276.227652
 21
390.589982
 31
0.0
  0
LINE
  8
0
 10
271.218451
 20
390.589982
 30
0.0
 11
270.218451
 21
391.589982
 31
0.0
  0
ARC
  8
0
  6
HIDDEN
 10
198.843662
 20
404.589982
 30
0.0
 40
40.25
 50
45.121665
 51
74.878335
  0
ARC
  8
0
  6
HIDDEN
 10
243.204013
 20
430.201443
 30
0.0
 40
16.222922
 50
169.666742
 51
250.333258
  0
LINE
  8
0
 10
271.218451
 20
418.589982
 30
0.0
 11
270.218451
 21
417.589982
 31
0.0
  0
LINE
  8
0
 10
271.218451
 20
418.589982
 30
0.0
 11
276.227652
 21
418.589982
 31
0.0
  0
ARC
  8
0
  6
HIDDEN
 10
552.686756
 20
417.328785
 30
0.0
 40
13.859843
 50
290.024595
 51
49.975405
  0
LINE
  8
0
 10
287.218451
 20
418.589982
 30
0.0
 11
287.218451
 21
404.589982
 31
0.0
  0
LINE
  8
0
 10
301.626986
 20
445.339982
 30
0.0
 11
301.626986
 21
404.589982
 31
0.0
  0
LINE
  8
0
 10
302.202811
 20
447.089982
 30
0.0
 11
302.202811
 21
362.089982
 31
0.0
  0
LINE
  8
0
 10
287.218451
 20
404.589982
 30
0.0
 11
287.218451
 21
362.089982
 31
0.0
  0
LINE
  8
0
 10
278.976476
 20
389.611588
 30
0.0
 11
287.218451
 21
378.973536
 31
0.0
  0
ARC
  8
0
  6
HIDDEN
 10
624.932098
 20
404.589982
 30
0.0
 40
67.5
 50
180.240348
 51
199.759652
  0
LINE
  8
0
 10
286.251085
 20
420.273434
 30
0.0
 11
301.626986
 21
445.339982
 31
0.0
  0
LINE
  8
0
 10
287.218451
 20
447.089982
 30
0.0
 11
287.218451
 21
430.206428
 31
0.0
  0
LINE
  8
0
 10
289.218451
 20
444.627782
 30
0.0
 11
289.218451
 21
432.787861
 31
0.0
  0
LINE
  8
0
 10
278.976476
 20
419.568377
 30
0.0
 11
293.718676
 21
438.596374
 31
0.0
  0
LINE
  8
0
 10
287.794276
 20
445.339982
 30
0.0
 11
287.794276
 21
430.949654
 31
0.0
  0
LINE
  8
0
 10
286.251085
 20
418.589982
 30
0.0
 11
287.218451
 21
418.589982
 31
0.0
  0
LINE
  8
0
 10
286.251085
 20
418.589982
 30
0.0
 11
286.251085
 21
420.273434
 31
0.0
  0
ARC
  8
0
 10
294.710631
 20
447.097802
 30
0.0
 40
7.492184
 50
359.940196
 51
180.059804
  0
LINE
  8
0
 10
287.794276
 20
445.339982
 30
0.0
 11
289.218451
 21
444.627782
 31
0.0
  0
LINE
  8
0
 10
293.718676
 20
439.089986
 30
0.0
 11
289.718451
 21
439.089986
 31
0.0
  0
LINE
  8
0
 10
289.218451
 20
439.589986
 30
0.0
 11
289.718451
 21
439.089986
 31
0.0
  0
LINE
  8
0
 10
293.718676
 20
439.089986
 30
0.0
 11
293.718676
 21
438.596374
 31
0.0
  0
LINE
  8
0
 10
287.218451
 20
447.089982
 30
0.0
 11
287.794276
 21
445.339982
 31
0.0
  0
LINE
  8
0
 10
302.202811
 20
447.089982
 30
0.0
 11
301.626986
 21
445.339982
 31
0.0
  0
ARC
  8
0
  6
HIDDEN
 10
37.49907
 20
404.589982
 30
0.0
 40
30.5
 50
49.139474
 51
70.860526
  0
ARC
  8
0
  6
HIDDEN
 10
85.53709
 20
432.324746
 30
0.0
 40
28.469528
 50
189.436042
 51
230.563958
  0
ARC
  8
0
  6
HIDDEN
 10
85.53709
 20
376.855218
 30
0.0
 40
28.469528
 50
129.436042
 51
170.563958
  0
ARC
  8
0
  6
HIDDEN
 10
37.49907
 20
404.589982
 30
0.0
 40
30.5
 50
289.139474
 51
310.860526
  0
CIRCLE
  8
0
 10
37.49907
 20
404.589982
 30
0.0
 40
31.0
  0
CIRCLE
  8
0
 10
37.49907
 20
404.589982
 30
0.0
 40
40.0
  0
CIRCLE
  8
0
 10
37.49907
 20
404.589982
 30
0.0
 40
32.5
  0
ARC
  8
0
  6
HIDDEN
 10
37.49907
 20
404.589982
 30
0.0
 40
30.5
 50
169.139474
 51
190.860526
  0
CIRCLE
  8
0
 10
37.49907
 20
404.589982
 30
0.0
 40
13.0
  0
CIRCLE
  8
0
 10
37.49907
 20
404.589982
 30
0.0
 40
5.0
  0
ARC
  8
0
  6
HIDDEN
 10
37.49907
 20
404.589982
 30
0.0
 40
30.5
 50
229.139474
 51
250.860526
  0
ARC
  8
0
  6
HIDDEN
 10
-10.53895
 20
376.855218
 30
0.0
 40
28.469528
 50
9.436042
 51
50.563958
  0
ARC
  8
0
  6
HIDDEN
 10
37.49907
 20
349.120454
 30
0.0
 40
28.469528
 50
69.436042
 51
110.563958
  0
ARC
  8
0
  6
HIDDEN
 10
37.49907
 20
404.589982
 30
0.0
 40
30.5
 50
109.139474
 51
130.860526
  0
ARC
  8
0
  6
HIDDEN
 10
-10.53895
 20
432.324746
 30
0.0
 40
28.469528
 50
309.436042
 51
350.563958
  0
ARC
  8
0
  6
HIDDEN
 10
37.49907
 20
460.05951
 30
0.0
 40
28.469528
 50
249.436042
 51
290.563958
  0
ARC
  8
0
  6
HIDDEN
 10
335.403861
 20
390.678646
 30
0.0
 40
16.516979
 50
328.729974
 51
56.984312
  0
ARC
  8
0
  6
HIDDEN
 10
37.49907
 20
404.589982
 30
0.0
 40
30.5
 50
349.139474
 51
10.860526
  0
LINE
  8
0
 10
105.550542
 20
404.589982
 30
0.0
 11
105.550542
 21
372.339982
 31
0.0
  0
LINE
  8
0
 10
92.050542
 20
416.589982
 30
0.0
 11
92.050542
 21
392.589982
 31
0.0
  0
LINE
  8
0
 10
121.050542
 20
436.839983
 30
0.0
 11
121.050542
 21
372.339982
 31
0.0
  0
ARC
  8
0
 10
113.300542
 20
372.339982
 30
0.0
 40
7.75
 50
180.0
 51
0.0
  0
LINE
  8
0
 10
99.992414
 20
390.683368
 30
0.0
 11
105.550542
 21
385.3333
 31
0.0
  0
LINE
  8
0
 10
93.050542
 20
391.589982
 30
0.0
 11
97.707745
 21
391.589982
 31
0.0
  0
LINE
  8
0
 10
93.050542
 20
391.589982
 30
0.0
 11
92.050542
 21
392.589982
 31
0.0
  0
LINE
  8
0
 10
99.992414
 20
390.683368
 30
0.0
 11
97.707745
 21
391.589982
 31
0.0
  0
ARC
  8
0
  6
HIDDEN
 10
396.353409
 20
404.589982
 30
0.0
 40
51.95
 50
205.646461
 51
231.496396
  0
ARC
  8
0
  6
HIDDEN
 10
369.228308
 20
348.264131
 30
0.0
 40
16.516979
 50
20.158545
 51
108.412883
  0
LINE
  8
0
  6
CENTER
 10
87.313743
 20
404.589982
 30
0.0
 11
124.033526
 21
404.589982
 31
0.0
  0
INSERT
  8
0
  2
*X1
 10
59.799342
 20
206.171216
 30
0.0
  0
LINE
  8
0
 10
120.609905
 20
435.589982
 30
0.0
 11
120.609905
 21
404.589982
 31
0.0
  0
LINE
  8
0
 10
105.991179
 20
435.589982
 30
0.0
 11
105.991179
 21
424.270807
 31
0.0
  0
LINE
  8
0
 10
105.550542
 20
436.839982
 30
0.0
 11
105.550542
 21
423.846664
 31
0.0
  0
LINE
  8
0
 10
120.609905
 20
435.589982
 30
0.0
 11
106.994738
 21
418.757308
 31
0.0
  0
LINE
  8
0
 10
107.550542
 20
434.771837
 30
0.0
 11
107.550542
 21
425.771797
 31
0.0
  0
LINE
  8
0
 10
99.992414
 20
418.496597
 30
0.0
 11
113.027884
 21
431.044103
 31
0.0
  0
LINE
  8
0
 10
108.050542
 20
417.589982
 30
0.0
 11
108.050542
 21
404.589982
 31
0.0
  0
LINE
  8
0
 10
92.050542
 20
409.589982
 30
0.0
 11
108.050542
 21
409.589982
 31
0.0
  0
LINE
  8
0
 10
93.050542
 20
417.589982
 30
0.0
 11
97.707745
 21
417.589982
 31
0.0
  0
LINE
  8
0
 10
93.050542
 20
417.589982
 30
0.0
 11
92.050542
 21
416.589982
 31
0.0
  0
LINE
  8
0
 10
99.992414
 20
418.496597
 30
0.0
 11
97.707745
 21
417.589982
 31
0.0
  0
LINE
  8
0
 10
106.994738
 20
418.757308
 30
0.0
 11
106.994738
 21
417.589982
 31
0.0
  0
LINE
  8
0
 10
106.994738
 20
417.589982
 30
0.0
 11
108.050542
 21
417.589982
 31
0.0
  0
ARC
  8
0
 10
113.300542
 20
436.839982
 30
0.0
 40
7.75
 50
0.000003
 51
179.999998
  0
LINE
  8
0
 10
113.027884
 20
431.589982
 30
0.0
 11
108.050542
 21
431.589982
 31
0.0
  0
LINE
  8
0
 10
105.550542
 20
436.839983
 30
0.0
 11
105.991179
 21
435.589982
 31
0.0
  0
LINE
  8
0
 10
105.991179
 20
435.589982
 30
0.0
 11
107.550542
 21
434.771837
 31
0.0
  0
LINE
  8
0
 10
107.550542
 20
432.089982
 30
0.0
 11
108.050542
 21
431.589982
 31
0.0
  0
LINE
  8
0
 10
113.027884
 20
431.589982
 30
0.0
 11
113.027884
 21
431.044103
 31
0.0
  0
LINE
  8
0
 10
121.050542
 20
436.839983
 30
0.0
 11
120.609905
 21
435.589982
 31
0.0
  0
ARC
  8
0
  6
HIDDEN
 10
396.353409
 20
404.589982
 30
0.0
 40
51.95
 50
102.789318
 51
128.639253
  0
ARC
  8
0
  6
HIDDEN
 10
347.475666
 20
443.568681
 30
0.0
 40
16.516979
 50
277.301402
 51
5.55574
  0
ARC
  8
0
  6
HIDDEN
 10
396.353409
 20
404.589982
 30
0.0
 40
51.95
 50
154.21789
 51
180.067824
  0
INSERT
  8
0
  2
*X4
 10
364.500201
 20
392.651337
 30
0.0
  0
ARC
  8
0
  6
HIDDEN
 10
624.932098
 20
404.589982
 30
0.0
 40
67.5
 50
60.240348
 51
79.759652
  0
ARC
  8
0
  6
HIDDEN
 10
624.932098
 20
404.589982
 30
0.0
 40
67.5
 50
100.240348
 51
119.759652
  0
ARC
  8
0
  6
HIDDEN
 10
624.932098
 20
477.949825
 30
0.0
 40
13.859843
 50
210.024595
 51
329.975405
  0
LINE
  8
0
 10
751.855292
 20
475.589982
 30
0.0
 11
751.855292
 21
446.507137
 31
0.0
  0
LINE
  8
0
 10
769.855292
 20
475.589982
 30
0.0
 11
769.855292
 21
333.589982
 31
0.0
  0
LINE
  8
0
 10
748.580092
 20
424.281404
 30
0.0
 11
769.281065
 21
472.589982
 31
0.0
  0
LINE
  8
0
 10
753.855292
 20
472.010613
 30
0.0
 11
753.855292
 21
450.49333
 31
0.0
  0
LINE
  8
0
 10
752.429518
 20
472.589982
 30
0.0
 11
752.429518
 21
447.651626
 31
0.0
  0
LINE
  8
0
 10
769.281065
 20
472.589982
 30
0.0
 11
769.281065
 21
404.589982
 31
0.0
  0
ARC
  8
0
  6
HIDDEN
 10
624.932098
 20
404.589982
 30
0.0
 40
67.5
 50
300.240348
 51
319.759652
  0
ARC
  8
0
  6
HIDDEN
 10
624.932098
 20
404.589982
 30
0.0
 40
67.5
 50
220.240348
 51
239.759652
  0
ARC
  8
0
  6
HIDDEN
 10
650.022642
 20
335.654279
 30
0.0
 40
13.859843
 50
50.024595
 51
169.975405
  0
ARC
  8
0
  6
HIDDEN
 10
599.841554
 20
335.654279
 30
0.0
 40
13.859843
 50
10.024595
 51
129.975405
  0
ARC
  8
0
  6
HIDDEN
 10
624.932098
 20
404.589982
 30
0.0
 40
67.5
 50
260.240348
 51
279.759652
  0
CIRCLE
  8
0
 10
624.932098
 20
404.589982
 30
0.0
 40
18.0
  0
CIRCLE
  8
0
 10
624.932098
 20
404.589982
 30
0.0
 40
7.0
  0
ARC
  8
0
  6
HIDDEN
 10
577.7773
 20
460.786882
 30
0.0
 40
13.859843
 50
250.024595
 51
9.975405
  0
ARC
  8
0
  6
HIDDEN
 10
697.17744
 20
417.328785
 30
0.0
 40
13.859843
 50
130.024595
 51
249.975405
  0
ARC
  8
0
  6
HIDDEN
 10
688.463585
 20
367.910061
 30
0.0
 40
13.859843
 50
90.024595
 51
209.975405
  0
ARC
  8
0
  6
HIDDEN
 10
624.932098
 20
404.589982
 30
0.0
 40
67.5
 50
340.240348
 51
359.759652
  0
ARC
  8
0
  6
HIDDEN
 10
672.086896
 20
460.786882
 30
0.0
 40
13.859843
 50
170.024595
 51
289.975405
  0
ARC
  8
0
  6
HIDDEN
 10
624.932098
 20
404.589982
 30
0.0
 40
67.5
 50
20.240348
 51
39.759652
  0
LINE
  8
0
 10
751.855292
 20
404.589982
 30
0.0
 11
751.855292
 21
333.589982
 31
0.0
  0
ARC
  8
0
 10
760.855292
 20
333.589982
 30
0.0
 40
9.0
 50
180.0
 51
360.0
  0
LINE
  8
0
 10
729.855292
 20
421.589982
 30
0.0
 11
729.855292
 21
387.589982
 31
0.0
  0
LINE
  8
0
 10
749.855292
 20
422.089982
 30
0.0
 11
749.855292
 21
404.589982
 31
0.0
  0
LINE
  8
0
  6
CENTER
 10
725.01114
 20
404.589982
 30
0.0
 11
774.182155
 21
404.589982
 31
0.0
  0
LINE
  8
0
 10
740.644207
 20
385.017598
 30
0.0
 11
751.855292
 21
362.672827
 31
0.0
  0
LINE
  8
0
 10
730.855292
 20
386.589982
 30
0.0
 11
737.862081
 21
386.589982
 31
0.0
  0
LINE
  8
0
 10
730.855292
 20
386.589982
 30
0.0
 11
729.855292
 21
387.589982
 31
0.0
  0
LINE
  8
0
 10
740.644207
 20
385.017598
 30
0.0
 11
737.862081
 21
386.589982
 31
0.0
  0
LINE
  8
0
 10
729.855292
 20
411.589982
 30
0.0
 11
749.855292
 21
411.589982
 31
0.0
  0
LINE
  8
0
 10
740.644207
 20
424.162367
 30
0.0
 11
760.055657
 21
462.851254
 31
0.0
  0
LINE
  8
0
 10
730.855292
 20
422.589982
 30
0.0
 11
737.862081
 21
422.589982
 31
0.0
  0
LINE
  8
0
 10
730.855292
 20
422.589982
 30
0.0
 11
729.855292
 21
421.589982
 31
0.0
  0
LINE
  8
0
 10
740.644207
 20
424.162367
 30
0.0
 11
737.862081
 21
422.589982
 31
0.0
  0
LINE
  8
0
 10
749.355292
 20
422.589982
 30
0.0
 11
749.855292
 21
422.089982
 31
0.0
  0
LINE
  8
0
 10
748.580092
 20
424.281404
 30
0.0
 11
748.580092
 21
422.589982
 31
0.0
  0
LINE
  8
0
 10
748.580092
 20
422.589982
 30
0.0
 11
749.355292
 21
422.589982
 31
0.0
  0
LINE
  8
0
 10
753.855292
 20
464.589982
 30
0.0
 11
754.355292
 21
464.089982
 31
0.0
  0
LINE
  8
0
 10
760.055657
 20
464.089982
 30
0.0
 11
754.355292
 21
464.089982
 31
0.0
  0
LINE
  8
0
 10
760.055657
 20
462.851254
 30
0.0
 11
760.055657
 21
464.089982
 31
0.0
  0
ARC
  8
0
  6
HIDDEN
 10
457.302956
 20
390.678646
 30
0.0
 40
16.516979
 50
123.015688
 51
211.270026
  0
LINE
  8
0
 10
495.218817
 20
404.589982
 30
0.0
 11
495.218817
 21
350.089982
 31
0.0
  0
LINE
  8
0
 10
475.218817
 20
419.589982
 30
0.0
 11
475.218817
 21
389.589982
 31
0.0
  0
LINE
  8
0
 10
511.218817
 20
459.089982
 30
0.0
 11
511.218817
 21
350.089982
 31
0.0
  0
CIRCLE
  8
0
 10
396.353409
 20
404.589982
 30
0.0
 40
6.0
  0
ARC
  8
0
  6
HIDDEN
 10
423.478509
 20
348.264131
 30
0.0
 40
16.516979
 50
71.587117
 51
159.841455
  0
ARC
  8
0
  6
HIDDEN
 10
396.353409
 20
404.589982
 30
0.0
 40
51.95
 50
308.503604
 51
334.353539
  0
ARC
  8
0
 10
503.218817
 20
350.089982
 30
0.0
 40
8.0
 50
180.0
 51
0.0
  0
LINE
  8
0
 10
483.839861
 20
387.664065
 30
0.0
 11
495.218817
 21
370.271253
 31
0.0
  0
LINE
  8
0
 10
475.218817
 20
398.589982
 30
0.0
 11
493.218817
 21
398.589982
 31
0.0
  0
LINE
  8
0
 10
476.218817
 20
388.589982
 30
0.0
 11
475.218817
 21
389.589982
 31
0.0
  0
LINE
  8
0
 10
476.218817
 20
388.589982
 30
0.0
 11
482.046841
 21
388.589982
 31
0.0
  0
LINE
  8
0
 10
483.839861
 20
387.664065
 30
0.0
 11
482.046841
 21
388.589982
 31
0.0
  0
ARC
  8
0
  6
HIDDEN
 10
396.353409
 20
404.589982
 30
0.0
 40
51.95
 50
51.360747
 51
77.210682
  0
ARC
  8
0
  6
HIDDEN
 10
445.231151
 20
443.568681
 30
0.0
 40
16.516979
 50
174.44426
 51
262.698598
  0
ARC
  8
0
  6
HIDDEN
 10
396.353409
 20
404.589982
 30
0.0
 40
51.95
 50
359.932176
 51
25.78211
  0
INSERT
  8
0
  2
*X2
 10
247.38919
 20
219.408793
 30
0.0
  0
LINE
  8
0
 10
510.671054
 20
457.039982
 30
0.0
 11
510.671054
 21
404.589982
 31
0.0
  0
LINE
  8
0
 10
495.76658
 20
457.039982
 30
0.0
 11
495.76658
 21
439.745971
 31
0.0
  0
LINE
  8
0
 10
495.218817
 20
459.089982
 30
0.0
 11
495.218817
 21
438.908711
 31
0.0
  0
LINE
  8
0
 10
496.718817
 20
456.536312
 30
0.0
 11
496.718817
 21
441.201471
 31
0.0
  0
LINE
  8
0
 10
491.218817
 20
421.193987
 30
0.0
 11
510.671054
 21
457.039982
 31
0.0
  0
LINE
  8
0
 10
483.839861
 20
421.515899
 30
0.0
 11
502.451789
 21
449.964359
 31
0.0
  0
LINE
  8
0
  6
CENTER
 10
472.635139
 20
404.589982
 30
0.0
 11
516.642034
 21
404.589982
 31
0.0
  0
LINE
  8
0
 10
475.218817
 20
410.589982
 30
0.0
 11
493.218817
 21
410.589982
 31
0.0
  0
LINE
  8
0
 10
492.718817
 20
420.589982
 30
0.0
 11
493.218817
 21
420.089982
 31
0.0
  0
LINE
  8
0
 10
476.218817
 20
420.589982
 30
0.0
 11
475.218817
 21
419.589982
 31
0.0
  0
LINE
  8
0
 10
476.218817
 20
420.589982
 30
0.0
 11
482.046841
 21
420.589982
 31
0.0
  0
LINE
  8
0
 10
483.839861
 20
421.515899
 30
0.0
 11
482.046841
 21
420.589982
 31
0.0
  0
LINE
  8
0
 10
491.218817
 20
420.589982
 30
0.0
 11
492.718817
 21
420.589982
 31
0.0
  0
LINE
  8
0
 10
491.218817
 20
420.589982
 30
0.0
 11
491.218817
 21
421.193987
 31
0.0
  0
LINE
  8
0
 10
493.218817
 20
420.089982
 30
0.0
 11
493.218817
 21
404.589982
 31
0.0
  0
LINE
  8
0
 10
502.451789
 20
450.589982
 30
0.0
 11
497.218817
 21
450.589982
 31
0.0
  0
LINE
  8
0
 10
496.718817
 20
451.089982
 30
0.0
 11
497.218817
 21
450.589982
 31
0.0
  0
LINE
  8
0
 10
502.451789
 20
450.589982
 30
0.0
 11
502.451789
 21
449.964359
 31
0.0
  0
ARC
  8
0
 10
503.218817
 20
459.089982
 30
0.0
 40
8.0
 50
0.0
 51
180.0
  0
LINE
  8
0
 10
511.218817
 20
459.089982
 30
0.0
 11
510.671054
 21
457.039982
 31
0.0
  0
LINE
  8
0
 10
495.218817
 20
459.089982
 30
0.0
 11
495.76658
 21
457.039982
 31
0.0
  0
LINE
  8
0
 10
495.76658
 20
457.039982
 30
0.0
 11
496.718817
 21
456.536312
 31
0.0
  0
ARC
  8
0
 10
760.855292
 20
475.589982
 30
0.0
 40
9.0
 50
0.0
 51
180.0
  0
LINE
  8
0
 10
751.855292
 20
475.589982
 30
0.0
 11
752.429518
 21
472.589982
 31
0.0
  0
LINE
  8
0
 10
752.429518
 20
472.589982
 30
0.0
 11
753.855292
 21
472.010613
 31
0.0
  0
LINE
  8
0
 10
769.855292
 20
475.589982
 30
0.0
 11
769.281065
 21
472.589982
 31
0.0
  0
ENDSEC
  0
EOF
