  0
SECTION
  2
HEADER
  9
$ACADVER
  1
AC1009
  9
$INSBASE
 10
0.0
 20
0.0
 30
0.0
  9
$EXTMIN
 10
-602.78492957305752
 20
631.49283497269744
 30
-0.0000000000000053
  9
$EXTMAX
 10
547.3776939943441
 20
944.10837473618994
 30
0.0000000000000099
  9
$LIMMIN
 10
0.0
 20
0.0
  9
$LIMMAX
 10
420.0
 20
297.0
  9
$ORTHOMODE
 70
     1
  9
$REGENMODE
 70
     1
  9
$FILLMODE
 70
     1
  9
$QTEXTMODE
 70
     0
  9
$MIRRTEXT
 70
     1
  9
$DRAGMODE
 70
     2
  9
$LTSCALE
 40
1.0
  9
$OSMODE
 70
    40
  9
$ATTMODE
 70
     1
  9
$TEXTSIZE
 40
2.5
  9
$TRACEWID
 40
1.0
  9
$TEXTSTYLE
  7
STANDARD
  9
$CLAYER
  8
0
  9
$CELTYPE
  6
BYLAYER
  9
$CECOLOR
 62
   256
  9
$DIMSCALE
 40
1.0
  9
$DIMASZ
 40
2.5
  9
$DIMEXO
 40
0.625
  9
$DIMDLI
 40
3.75
  9
$DIMRND
 40
0.0
  9
$DIMDLE
 40
0.0
  9
$DIMEXE
 40
1.25
  9
$DIMTP
 40
0.0
  9
$DIMTM
 40
0.0
  9
$DIMTXT
 40
2.5
  9
$DIMCEN
 40
2.5
  9
$DIMTSZ
 40
0.0
  9
$DIMTOL
 70
     0
  9
$DIMLIM
 70
     0
  9
$DIMTIH
 70
     1
  9
$DIMTOH
 70
     1
  9
$DIMSE1
 70
     0
  9
$DIMSE2
 70
     0
  9
$DIMTAD
 70
     1
  9
$DIMZIN
 70
     8
  9
$DIMBLK
  1

  9
$DIMASO
 70
     1
  9
$DIMSHO
 70
     1
  9
$DIMPOST
  1

  9
$DIMAPOST
  1

  9
$DIMALT
 70
     0
  9
$DIMALTD
 70
     3
  9
$DIMALTF
 40
0.03937007874016
  9
$DIMLFAC
 40
1.0
  9
$DIMTOFL
 70
     1
  9
$DIMTVP
 40
0.0
  9
$DIMTIX
 70
     0
  9
$DIMSOXD
 70
     0
  9
$DIMSAH
 70
     0
  9
$DIMBLK1
  1

  9
$DIMBLK2
  1

  9
$DIMSTYLE
  2
ISO-25
  9
$DIMCLRD
 70
     0
  9
$DIMCLRE
 70
     0
  9
$DIMCLRT
 70
     0
  9
$DIMTFAC
 40
1.0
  9
$DIMGAP
 40
0.625
  9
$LUNITS
 70
     2
  9
$LUPREC
 70
     4
  9
$SKETCHINC
 40
1.0
  9
$FILLETRAD
 40
0.5
  9
$AUNITS
 70
     0
  9
$AUPREC
 70
     0
  9
$MENU
  1
.
  9
$ELEVATION
 40
0.0
  9
$PELEVATION
 40
0.0
  9
$THICKNESS
 40
0.0
  9
$LIMCHECK
 70
     0
  9
$BLIPMODE
 70
     0
  9
$CHAMFERA
 40
0.75
  9
$CHAMFERB
 40
0.75
  9
$SKPOLY
 70
     0
  9
$TDCREATE
 40
2453109.6594628352
  9
$TDUPDATE
 40
2453311.4263004158
  9
$TDINDWG
 40
0.4014821065
  9
$TDUSRTIMER
 40
0.4014821065
  9
$USRTIMER
 70
     1
  9
$ANGBASE
 50
0.0
  9
$ANGDIR
 70
     0
  9
$PDMODE
 70
     3
  9
$PDSIZE
 40
2.0
  9
$PLINEWID
 40
0.0
  9
$COORDS
 70
     0
  9
$SPLFRAME
 70
     0
  9
$SPLINETYPE
 70
     6
  9
$SPLINESEGS
 70
     8
  9
$ATTDIA
 70
     0
  9
$ATTREQ
 70
     1
  9
$HANDLING
 70
-16383
  9
$HANDSEED
  5
25A5
  9
$SURFTAB1
 70
     6
  9
$SURFTAB2
 70
     6
  9
$SURFTYPE
 70
     6
  9
$SURFU
 70
     6
  9
$SURFV
 70
     6
  9
$UCSNAME
  2

  9
$UCSORG
 10
0.0
 20
0.0
 30
0.0
  9
$UCSXDIR
 10
1.0
 20
0.0
 30
0.0
  9
$UCSYDIR
 10
0.0
 20
1.0
 30
0.0
  9
$PUCSNAME
  2

  9
$PUCSORG
 10
0.0
 20
0.0
 30
0.0
  9
$PUCSXDIR
 10
1.0
 20
0.0
 30
0.0
  9
$PUCSYDIR
 10
0.0
 20
1.0
 30
0.0
  9
$USERI1
 70
     0
  9
$USERI2
 70
     0
  9
$USERI3
 70
     0
  9
$USERI4
 70
     0
  9
$USERI5
 70
     0
  9
$USERR1
 40
0.0
  9
$USERR2
 40
0.0
  9
$USERR3
 40
0.0
  9
$USERR4
 40
0.0
  9
$USERR5
 40
0.0
  9
$WORLDVIEW
 70
     1
  9
$SHADEDGE
 70
     3
  9
$SHADEDIF
 70
    70
  9
$TILEMODE
 70
     1
  9
$MAXACTVP
 70
    48
  9
$PLIMCHECK
 70
     0
  9
$PEXTMIN
 10
28.674485683441159
 20
19.97498331069945
 30
0.0
  9
$PEXTMAX
 10
258.0703711509704
 20
179.77484979629509
 30
0.0
  9
$PLIMMIN
 10
-5.027069091796875
 20
-5.0270833969116211
  9
$PLIMMAX
 10
291.98358154296869
 20
204.98858737945551
  9
$UNITMODE
 70
     0
  9
$VISRETAIN
 70
     1
  9
$PLINEGEN
 70
     0
  9
$PSLTSCALE
 70
     1
  0
ENDSEC
  0
SECTION
  2
TABLES
  0
TABLE
  2
VPORT
 70
    10
  0
VPORT
  2
*ACTIVE
 70
     0
 10
0.0
 20
0.0
 11
1.0
 21
1.0
 12
-27.703617789356709
 22
787.80060485444358
 13
0.0
 23
0.0
 14
10.0
 24
10.0
 15
10.0
 25
10.0
 16
0.0
 26
0.0
 36
1.0
 17
0.0
 27
0.0
 37
0.0
 40
778.90175477028538
 41
1.4839901477832509
 42
50.0
 43
0.0
 44
0.0
 50
0.0
 51
0.0
 71
     0
 72
   100
 73
     1
 74
     2
 75
     0
 76
     0
 77
     0
 78
     0
  0
ENDTAB
  0
TABLE
  2
LTYPE
 70
     2
  0
LTYPE
  2
CONTINUOUS
 70
     0
  3
Solid line
 72
    65
 73
     0
 40
0.0
  0
LTYPE
  2
DASHDOT_CENTER
 70
     0
  3
Center (.5x) ___ _ ___ _ ___ _ ___ _ ___ _ ___
 72
    65
 73
     4
 40
28.574999999999989
 49
19.050000000000001
 49
-3.1749999999999989
 49
3.1749999999999989
 49
-3.1749999999999989
  0
ENDTAB
  0
TABLE
  2
LAYER
 70
     1
  0
LAYER
  2
0
 70
     0
 62
     7
  6
CONTINUOUS
  0
ENDTAB
  0
TABLE
  2
STYLE
 70
     1
  0
STYLE
  2
STANDARD
 70
     0
 40
0.0
 41
1.0
 50
0.0
 71
     0
 42
2.5
  3
txt
  4

  0
ENDTAB
  0
TABLE
  2
VIEW
 70
     0
  0
ENDTAB
  0
TABLE
  2
UCS
 70
     0
  0
ENDTAB
  0
TABLE
  2
APPID
 70
     1
  0
APPID
  2
ACAD
 70
     0
  0
ENDTAB
  0
TABLE
  2
DIMSTYLE
 70
     1
  0
DIMSTYLE
  2
ISO-25
 70
     0
  3

  4

  5

  6

  7

 40
1.0
 41
2.5
 42
0.625
 43
3.75
 44
1.25
 45
0.0
 46
0.0
 47
0.0
 48
0.0
140
2.5
141
2.5
142
0.0
143
0.03937007874016
144
1.0
145
0.0
146
1.0
147
0.625
 71
     0
 72
     0
 73
     1
 74
     1
 75
     0
 76
     0
 77
     1
 78
     8
170
     0
171
     3
172
     1
173
     0
174
     0
175
     0
176
     0
177
     0
178
     0
  0
ENDTAB
  0
ENDSEC
  0
SECTION
  2
BLOCKS
  0
BLOCK
  8
0
  2
$MODEL_SPACE
 70
     0
 10
0.0
 20
0.0
 30
0.0
  3
$MODEL_SPACE
  1

  0
ENDBLK
  5
21
  8
0
  0
BLOCK
 67
     1
  8
0
  2
$PAPER_SPACE
 70
     0
 10
0.0
 20
0.0
 30
0.0
  3
$PAPER_SPACE
  1

  0
ENDBLK
  5
53
 67
     1
  8
0
  0
BLOCK
  8
0
  2
*X0
 70
     1
 10
0.0
 20
0.0
 30
0.0
  3
*X0
  1

  0
LINE
  5
2418
  8
0
 62
     0
 10
198.5960924059261
 20
854.84276136387837
 30
0.0
 11
198.87819004610779
 21
855.12485900406023
 31
0.0
  0
LINE
  5
2419
  8
0
 62
     0
 10
195.06055849999339
 20
854.84276136387837
 30
0.0
 11
198.87818993231869
 21
858.66039279620384
 31
0.0
  0
LINE
  5
241A
  8
0
 62
     0
 10
191.52502459406071
 20
854.84276136387837
 30
0.0
 11
198.87818981852951
 21
862.19592658834722
 31
0.0
  0
LINE
  5
241B
  8
0
 62
     0
 10
187.98949068812789
 20
854.84276136387837
 30
0.0
 11
198.87818970474021
 21
865.73146038049072
 31
0.0
  0
LINE
  5
241C
  8
0
 62
     0
 10
185.91607333822989
 20
856.30487791991322
 30
0.0
 11
198.87818959095111
 21
869.26699417263455
 31
0.0
  0
LINE
  5
241D
  8
0
 62
     0
 10
185.87818989426469
 20
859.80252838188085
 30
0.0
 11
198.8781894771619
 21
872.80252796477794
 31
0.0
  0
LINE
  5
241E
  8
0
 62
     0
 10
185.87818989426481
 20
863.3380622878135
 30
0.0
 11
201.87819084355451
 21
879.33806323710337
 31
0.0
  0
LINE
  5
241F
  8
0
 62
     0
 10
185.87818989426481
 20
866.87359619374638
 30
0.0
 11
201.87819095734369
 21
882.87359725682506
 31
0.0
  0
LINE
  5
2420
  8
0
 62
     0
 10
185.87818989426469
 20
870.40913009967903
 30
0.0
 11
201.87819107113279
 21
886.40913127654721
 31
0.0
  0
LINE
  5
2421
  8
0
 62
     0
 10
183.87818989426469
 20
868.40913009967903
 30
0.0
 11
184.31182115846411
 21
868.84276136387848
 31
0.0
  0
LINE
  5
2422
  8
0
 62
     0
 10
185.87818989426469
 20
873.94466400561168
 30
0.0
 11
201.878191184922
 21
889.94466529626914
 31
0.0
  0
LINE
  5
2423
  8
0
 62
     0
 10
185.87818989426481
 20
877.48019791154456
 30
0.0
 11
201.8781912987113
 21
893.48019931599094
 31
0.0
  0
LINE
  5
2424
  8
0
 62
     0
 10
185.87818989426481
 20
881.01573181747722
 30
0.0
 11
199.2052194406661
 21
894.34276136387871
 31
0.0
  0
LINE
  5
2425
  8
0
 62
     0
 10
185.87818989426481
 20
884.5512657234101
 30
0.0
 11
195.66968553473339
 21
894.34276136387848
 31
0.0
  0
LINE
  5
2426
  8
0
 62
     0
 10
185.87818989426481
 20
888.08679962934275
 30
0.0
 11
192.13415162880071
 21
894.34276136387871
 31
0.0
  0
LINE
  5
2427
  8
0
 62
     0
 10
185.87818989426481
 20
891.6223335352754
 30
0.0
 11
188.5986177228682
 21
894.34276136387871
 31
0.0
  0
ENDBLK
  5
2429
  8
0
  0
BLOCK
  8
0
  2
*X1
 70
     1
 10
0.0
 20
0.0
 30
0.0
  3
*X1
  1

  0
LINE
  5
242B
  8
0
 62
     0
 10
435.60334696675909
 20
881.08061911428388
 30
0.0
 11
439.34184412660301
 21
884.81911627412785
 31
0.0
  0
LINE
  5
242C
  8
0
 62
     0
 10
431.36070627964
 20
881.0806191142841
 30
0.0
 11
439.34184412660301
 21
889.06175696124706
 31
0.0
  0
LINE
  5
242D
  8
0
 62
     0
 10
427.11806559252068
 20
881.08061911428433
 30
0.0
 11
439.34184412660301
 21
893.30439764836649
 31
0.0
  0
LINE
  5
242E
  8
0
 62
     0
 10
423.35863451600233
 20
881.56382872488496
 30
0.0
 11
439.34184412660312
 21
897.54703833548581
 31
0.0
  0
LINE
  5
242F
  8
0
 62
     0
 10
422.34184412660278
 20
884.78967902260479
 30
0.0
 11
442.34184412660278
 21
904.7896790226049
 31
0.0
  0
LINE
  5
2430
  8
0
 62
     0
 10
422.34184412660289
 20
889.03231970972422
 30
0.0
 11
442.34184412660312
 21
909.03231970972445
 31
0.0
  0
LINE
  5
2431
  8
0
 62
     0
 10
422.34184412660301
 20
893.27496039684365
 30
0.0
 11
442.34184412660312
 21
913.27496039684365
 31
0.0
  0
LINE
  5
2432
  8
0
 62
     0
 10
422.34184412660301
 20
897.51760108396297
 30
0.0
 11
442.34184412660301
 21
917.51760108396297
 31
0.0
  0
LINE
  5
2433
  8
0
 62
     0
 10
422.34184412660301
 20
901.76024177108218
 30
0.0
 11
442.34184412660312
 21
921.76024177108229
 31
0.0
  0
LINE
  5
2434
  8
0
 62
     0
 10
422.34184412660301
 20
906.0028824582015
 30
0.0
 11
439.91958078268561
 21
923.58061911428399
 31
0.0
  0
LINE
  5
2435
  8
0
 62
     0
 10
422.34184412660312
 20
910.2455231453207
 30
0.0
 11
435.67694009556641
 21
923.58061911428399
 31
0.0
  0
LINE
  5
2436
  8
0
 62
     0
 10
422.34184412660318
 20
914.48816383244014
 30
0.0
 11
431.43429940844709
 21
923.58061911428399
 31
0.0
  0
LINE
  5
2437
  8
0
 62
     0
 10
422.34184412660318
 20
918.73080451955946
 30
0.0
 11
427.19165872132788
 21
923.58061911428422
 31
0.0
  0
LINE
  5
2438
  8
0
 62
     0
 10
422.34184412660301
 20
922.97344520667855
 30
0.0
 11
422.94901803420862
 21
923.58061911428422
 31
0.0
  0
ENDBLK
  5
243A
  8
0
  0
BLOCK
  8
0
  2
*X2
 70
     1
 10
0.0
 20
0.0
 30
0.0
  3
*X2
  1

  0
LINE
  5
243C
  8
0
 62
     0
 10
-11.518627710545671
 20
837.00950971331133
 30
0.0
 11
-10.10582081159901
 21
838.42231661225787
 31
0.0
  0
LINE
  5
243D
  8
0
 62
     0
 10
-15.05416161647832
 20
837.00950971331145
 30
0.0
 11
-10.10582081159896
 21
841.95785051819075
 31
0.0
  0
LINE
  5
243E
  8
0
 62
     0
 10
-18.589695522411091
 20
837.00950971331145
 30
0.0
 11
-10.10582081159901
 21
845.49338442412329
 31
0.0
  0
LINE
  5
243F
  8
0
 62
     0
 10
-22.11552511997138
 20
837.01921402168375
 30
0.0
 11
-10.10582081159896
 21
849.02891833005606
 31
0.0
  0
LINE
  5
2440
  8
0
 62
     0
 10
-23.1058208115989
 20
839.56445223598894
 30
0.0
 11
-10.10582081159896
 21
852.56445223598905
 31
0.0
  0
LINE
  5
2441
  8
0
 62
     0
 10
-7.953864936350441
 20
858.25194201717034
 30
0.0
 11
-7.1058208115989601
 21
859.09998614192159
 31
0.0
  0
LINE
  5
2442
  8
0
 62
     0
 10
-23.1058208115989
 20
843.09998614192182
 30
0.0
 11
-10.10582081159896
 21
856.0999861419217
 31
0.0
  0
LINE
  5
2443
  8
0
 62
     0
 10
-23.10582081159896
 20
846.63552004785436
 30
0.0
 11
-7.1058208115989601
 21
862.63552004785436
 31
0.0
  0
LINE
  5
2444
  8
0
 62
     0
 10
-23.1058208115989
 20
850.17105395378712
 30
0.0
 11
-7.1058208115989032
 21
866.17105395378712
 31
0.0
  0
LINE
  5
2445
  8
0
 62
     0
 10
-23.1058208115989
 20
853.70658785972
 30
0.0
 11
-7.1058208115989601
 21
869.70658785971978
 31
0.0
  0
LINE
  5
2446
  8
0
 62
     0
 10
-23.1058208115989
 20
857.24212176565254
 30
0.0
 11
-8.3384328639403975
 21
872.00950971331122
 31
0.0
  0
LINE
  5
2447
  8
0
 62
     0
 10
-23.10582081159896
 20
860.77765567158553
 30
0.0
 11
-11.87396676987316
 21
872.00950971331122
 31
0.0
  0
LINE
  5
2448
  8
0
 62
     0
 10
-23.1058208115989
 20
864.31318957751819
 30
0.0
 11
-15.409500675805811
 21
872.00950971331122
 31
0.0
  0
LINE
  5
2449
  8
0
 62
     0
 10
-23.1058208115989
 20
867.84872348345073
 30
0.0
 11
-18.945034581738518
 21
872.00950971331122
 31
0.0
  0
LINE
  5
244A
  8
0
 62
     0
 10
-23.1058208115989
 20
871.38425738938361
 30
0.0
 11
-22.480568487671292
 21
872.00950971331122
 31
0.0
  0
ENDBLK
  5
244C
  8
0
  0
BLOCK
  8
0
  2
*X3
 70
     1
 10
0.0
 20
0.0
 30
0.0
  3
*X3
  1

  0
LINE
  5
244E
  8
0
 62
     0
 10
-189.76175611342151
 20
821.40094098334146
 30
0.0
 11
-188.73514627148541
 21
822.42755082527731
 31
0.0
  0
LINE
  5
244F
  8
0
 62
     0
 10
-193.29729001935419
 20
821.40094098334146
 30
0.0
 11
-188.73514627148541
 21
825.96308473120996
 31
0.0
  0
LINE
  5
2450
  8
0
 62
     0
 10
-196.8328239252867
 20
821.40094098334146
 30
0.0
 11
-188.73514627148541
 21
829.49861863714295
 31
0.0
  0
LINE
  5
2451
  8
0
 62
     0
 10
-198.73514627148549
 20
823.03415254307549
 30
0.0
 11
-188.73514627148549
 21
833.03415254307549
 31
0.0
  0
LINE
  5
2452
  8
0
 62
     0
 10
-198.73514627148541
 20
826.56968644900826
 30
0.0
 11
-188.73514627148541
 21
836.56968644900837
 31
0.0
  0
LINE
  5
2453
  8
0
 62
     0
 10
-198.73514627148549
 20
830.10522035494125
 30
0.0
 11
-188.73514627148549
 21
840.10522035494103
 31
0.0
  0
LINE
  5
2454
  8
0
 62
     0
 10
-198.97495954901791
 20
833.40094098334134
 30
0.0
 11
-186.73514627148549
 21
845.64075426087379
 31
0.0
  0
LINE
  5
2455
  8
0
 62
     0
 10
-198.73514627148541
 20
837.17628816680656
 30
0.0
 11
-186.73514627148549
 21
849.17628816680644
 31
0.0
  0
LINE
  5
2456
  8
0
 62
     0
 10
-198.73514627148549
 20
840.71182207273944
 30
0.0
 11
-189.0460273608835
 21
850.40094098334112
 31
0.0
  0
LINE
  5
2457
  8
0
 62
     0
 10
-198.73514627148541
 20
844.24735597867209
 30
0.0
 11
-192.5815612668161
 21
850.40094098334134
 31
0.0
  0
LINE
  5
2458
  8
0
 62
     0
 10
-198.73514627148541
 20
847.78288988460486
 30
0.0
 11
-196.1170951727488
 21
850.40094098334134
 31
0.0
  0
ENDBLK
  5
245A
  8
0
  0
BLOCK
  8
0
  2
*X4
 70
     1
 10
0.0
 20
0.0
 30
0.0
  3
*X4
  1

  0
LINE
  5
245C
  8
0
 62
     0
 10
-336.47831952815022
 20
804.23742773716049
 30
0.0
 11
-333.78572879917931
 21
806.93001846613129
 31
0.0
  0
LINE
  5
245D
  8
0
 62
     0
 10
-339.30674665289638
 20
804.23742773716049
 30
0.0
 11
-333.78572879917942
 21
809.75844559087761
 31
0.0
  0
LINE
  5
245E
  8
0
 62
     0
 10
-341.58545128841098
 20
804.7871502263921
 30
0.0
 11
-333.78572879917942
 21
812.58687271562371
 31
0.0
  0
LINE
  5
245F
  8
0
 62
     0
 10
-341.78572879917948
 20
807.41529984036993
 30
0.0
 11
-333.78572879917942
 21
815.41529984037004
 31
0.0
  0
LINE
  5
2460
  8
0
 62
     0
 10
-341.78572879917948
 20
810.24372696511614
 30
0.0
 11
-333.78572879917942
 21
818.24372696511625
 31
0.0
  0
LINE
  5
2461
  8
0
 62
     0
 10
-341.78572879917948
 20
813.07215408986235
 30
0.0
 11
-333.78572879917942
 21
821.07215408986235
 31
0.0
  0
LINE
  5
2462
  8
0
 62
     0
 10
-332.98874136964429
 20
824.69756864414364
 30
0.0
 11
-331.78572879917931
 21
825.90058121460868
 31
0.0
  0
LINE
  5
2463
  8
0
 62
     0
 10
-342.44888227662722
 20
815.2374277371606
 30
0.0
 11
-333.78572879917942
 21
823.90058121460856
 31
0.0
  0
LINE
  5
2464
  8
0
 62
     0
 10
-341.78572879917948
 20
818.72900833935466
 30
0.0
 11
-331.78572879917942
 21
828.72900833935478
 31
0.0
  0
LINE
  5
2465
  8
0
 62
     0
 10
-341.78572879917948
 20
821.55743546410076
 30
0.0
 11
-332.10573652611959
 21
831.2374277371606
 31
0.0
  0
LINE
  5
2466
  8
0
 62
     0
 10
-341.78572879917948
 20
824.38586258884686
 30
0.0
 11
-334.93416365086591
 21
831.2374277371606
 31
0.0
  0
LINE
  5
2467
  8
0
 62
     0
 10
-341.78572879917948
 20
827.21428971359319
 30
0.0
 11
-337.76259077561201
 21
831.2374277371606
 31
0.0
  0
LINE
  5
2468
  8
0
 62
     0
 10
-341.78572879917948
 20
830.04271683833929
 30
0.0
 11
-340.59101790035822
 21
831.2374277371606
 31
0.0
  0
ENDBLK
  5
246A
  8
0
  0
BLOCK
  8
0
  2
*X5
 70
     1
 10
0.0
 20
0.0
 30
0.0
  3
*X5
  1

  0
LINE
  5
246C
  8
0
 62
     0
 10
-460.9291130169828
 20
797.72095749507162
 30
0.0
 11
-460.10035864991511
 21
798.54971186213925
 31
0.0
  0
LINE
  5
246D
  8
0
 62
     0
 10
-463.7575401417289
 20
797.72095749507162
 30
0.0
 11
-460.10035864991499
 21
801.37813898688546
 31
0.0
  0
LINE
  5
246E
  8
0
 62
     0
 10
-466.58596726647511
 20
797.72095749507162
 30
0.0
 11
-460.10035864991499
 21
804.20656611163156
 31
0.0
  0
LINE
  5
246F
  8
0
 62
     0
 10
-468.10035864991511
 20
799.03499323637755
 30
0.0
 11
-460.10035864991511
 21
807.03499323637766
 31
0.0
  0
LINE
  5
2470
  8
0
 62
     0
 10
-468.10035864991522
 20
801.86342036112376
 30
0.0
 11
-460.10035864991522
 21
809.86342036112376
 31
0.0
  0
LINE
  5
2471
  8
0
 62
     0
 10
-468.10035864991511
 20
804.69184748587008
 30
0.0
 11
-460.10035864991499
 21
812.69184748587008
 31
0.0
  0
LINE
  5
2472
  8
0
 62
     0
 10
-468.10035864991511
 20
807.52027461061618
 30
0.0
 11
-460.10035864991499
 21
815.52027461061641
 31
0.0
  0
LINE
  5
2473
  8
0
 62
     0
 10
-468.10035864991488
 20
810.34870173536274
 30
0.0
 11
-458.10035864991499
 21
820.34870173536262
 31
0.0
  0
LINE
  5
2474
  8
0
 62
     0
 10
-469.10035864991511
 20
809.34870173536251
 30
0.0
 11
-468.72810289020572
 21
809.72095749507184
 31
0.0
  0
LINE
  5
2475
  8
0
 62
     0
 10
-468.10035864991511
 20
813.17712886010884
 30
0.0
 11
-459.55653001495199
 21
821.72095749507162
 31
0.0
  0
LINE
  5
2476
  8
0
 62
     0
 10
-468.10035864991511
 20
816.00555598485494
 30
0.0
 11
-462.3849571396982
 21
821.72095749507162
 31
0.0
  0
LINE
  5
2477
  8
0
 62
     0
 10
-468.10035864991511
 20
818.83398310960115
 30
0.0
 11
-465.21338426444441
 21
821.72095749507184
 31
0.0
  0
LINE
  5
2478
  8
0
 62
     0
 10
-468.10035864991511
 20
821.66241023434725
 30
0.0
 11
-468.04181138919063
 21
821.72095749507184
 31
0.0
  0
ENDBLK
  5
247A
  8
0
  0
BLOCK
  8
0
  2
*X6
 70
     1
 10
0.0
 20
0.0
 30
0.0
  3
*X6
  1

  0
LINE
  5
247C
  8
0
 62
     0
 10
-571.59030859651455
 20
807.05686673163507
 30
0.0
 11
-572.14859060133642
 21
807.61514873645672
 31
0.0
  0
LINE
  5
247D
  8
0
 62
     0
 10
-571.59030859651455
 20
804.93554638807541
 30
0.0
 11
-574.26991094489608
 21
807.61514873645694
 31
0.0
  0
LINE
  5
247E
  8
0
 62
     0
 10
-572.83012404430679
 20
804.05404149230787
 30
0.0
 11
-576.39123128845574
 21
807.61514873645672
 31
0.0
  0
LINE
  5
247F
  8
0
 62
     0
 10
-573.59030859651455
 20
802.6929057009562
 30
0.0
 11
-578.51255163201517
 21
807.61514873645672
 31
0.0
  0
LINE
  5
2480
  8
0
 62
     0
 10
-573.59030859651489
 20
800.57158535739666
 30
0.0
 11
-579.59030859651466
 21
806.57158535739654
 31
0.0
  0
LINE
  5
2481
  8
0
 62
     0
 10
-573.59030859651466
 20
798.45026501383688
 30
0.0
 11
-579.59030859651477
 21
804.45026501383711
 31
0.0
  0
LINE
  5
2482
  8
0
 62
     0
 10
-573.59030859651455
 20
796.32894467027722
 30
0.0
 11
-579.59030859651466
 21
802.32894467027745
 31
0.0
  0
LINE
  5
2483
  8
0
 62
     0
 10
-573.59030859651455
 20
794.20762432671745
 30
0.0
 11
-579.59030859651477
 21
800.20762432671768
 31
0.0
  0
LINE
  5
2484
  8
0
 62
     0
 10
-573.59030859651455
 20
792.0863039831579
 30
0.0
 11
-579.59030859651466
 21
798.08630398315813
 31
0.0
  0
LINE
  5
2485
  8
0
 62
     0
 10
-573.59030859651455
 20
789.96498363959824
 30
0.0
 11
-579.59030859651477
 21
795.96498363959847
 31
0.0
  0
LINE
  5
2486
  8
0
 62
     0
 10
-573.59030859651455
 20
787.84366329603859
 30
0.0
 11
-579.59030859651466
 21
793.84366329603881
 31
0.0
  0
LINE
  5
2487
  8
0
 62
     0
 10
-575.48311438049234
 20
787.61514873645672
 30
0.0
 11
-579.59030859651466
 21
791.72234295247915
 31
0.0
  0
LINE
  5
2488
  8
0
 62
     0
 10
-577.604434724052
 20
787.61514873645672
 30
0.0
 11
-579.59030859651477
 21
789.60102260891961
 31
0.0
  0
LINE
  5
2489
  8
0
 62
     0
 10
-574.27251182883356
 20
787.61514873645683
 30
0.0
 11
-573.59030859651455
 21
788.29735196877584
 31
0.0
  0
LINE
  5
248A
  8
0
 62
     0
 10
-576.39383217239345
 20
787.61514873645683
 30
0.0
 11
-573.59030859651455
 21
790.41867231233562
 31
0.0
  0
LINE
  5
248B
  8
0
 62
     0
 10
-578.51515251595299
 20
787.61514873645683
 30
0.0
 11
-573.59030859651455
 21
792.53999265589505
 31
0.0
  0
LINE
  5
248C
  8
0
 62
     0
 10
-579.59030859651466
 20
788.66131299945471
 30
0.0
 11
-573.59030859651455
 21
794.66131299945494
 31
0.0
  0
LINE
  5
248D
  8
0
 62
     0
 10
-579.59030859651466
 20
790.78263334301425
 30
0.0
 11
-573.59030859651455
 21
796.78263334301425
 31
0.0
  0
LINE
  5
248E
  8
0
 62
     0
 10
-579.59030859651466
 20
792.9039536865738
 30
0.0
 11
-573.59030859651455
 21
798.90395368657403
 31
0.0
  0
LINE
  5
248F
  8
0
 62
     0
 10
-579.59030859651477
 20
795.02527403013346
 30
0.0
 11
-573.59030859651466
 21
801.02527403013357
 31
0.0
  0
LINE
  5
2490
  8
0
 62
     0
 10
-572.48169707116188
 20
804.25520589904613
 30
0.0
 11
-571.59030859651455
 21
805.14659437369335
 31
0.0
  0
LINE
  5
2491
  8
0
 62
     0
 10
-579.59030859651466
 20
797.14659437369323
 30
0.0
 11
-573.59030859651455
 21
803.14659437369323
 31
0.0
  0
LINE
  5
2492
  8
0
 62
     0
 10
-579.59030859651466
 20
799.26791471725289
 30
0.0
 11
-571.59030859651455
 21
807.26791471725301
 31
0.0
  0
LINE
  5
2493
  8
0
 62
     0
 10
-579.59030859651466
 20
801.38923506081255
 30
0.0
 11
-573.36439492087038
 21
807.61514873645694
 31
0.0
  0
LINE
  5
2494
  8
0
 62
     0
 10
-579.59030859651466
 20
803.51055540437221
 30
0.0
 11
-575.48571526443004
 21
807.61514873645694
 31
0.0
  0
LINE
  5
2495
  8
0
 62
     0
 10
-579.59030859651466
 20
805.63187574793187
 30
0.0
 11
-577.6070356079897
 21
807.61514873645672
 31
0.0
  0
ENDBLK
  5
2497
  8
0
  0
BLOCK
  8
0
  2
*X7
 70
     1
 10
0.0
 20
0.0
 30
0.0
  3
*X7
  1

  0
LINE
  5
2499
  8
0
 62
     0
 10
-578.59030859651477
 20
807.69290570095632
 30
0.0
 11
-579.51255163201552
 21
808.61514873645706
 31
0.0
  0
LINE
  5
249A
  8
0
 62
     0
 10
-579.59030859651466
 20
805.8644785762101
 30
0.0
 11
-581.86067348308632
 21
808.13484346278142
 31
0.0
  0
LINE
  5
249B
  8
0
 62
     0
 10
-579.59030859651466
 20
803.03605145146378
 30
0.0
 11
-587.16940588150794
 21
810.61514873645694
 31
0.0
  0
LINE
  5
249C
  8
0
 62
     0
 10
-579.59030859651466
 20
800.20762432671768
 30
0.0
 11
-589.99783300625415
 21
810.61514873645694
 31
0.0
  0
LINE
  5
249D
  8
0
 62
     0
 10
-585.53506317776305
 20
803.32395178321985
 30
0.0
 11
-592.82626013100025
 21
810.61514873645694
 31
0.0
  0
LINE
  5
249E
  8
0
 62
     0
 10
-579.59030859651466
 20
797.37919720197135
 30
0.0
 11
-584.59030859651466
 21
802.37919720197146
 31
0.0
  0
LINE
  5
249F
  8
0
 62
     0
 10
-586.09030859651489
 20
801.05077007722525
 30
0.0
 11
-595.65468725574658
 21
810.61514873645717
 31
0.0
  0
LINE
  5
24A0
  8
0
 62
     0
 10
-581.65468725574647
 20
796.61514873645694
 30
0.0
 11
-584.59030859651466
 21
799.55077007722525
 31
0.0
  0
LINE
  5
24A1
  8
0
 62
     0
 10
-587.48311438049291
 20
799.61514873645717
 30
0.0
 11
-596.59030859651455
 21
808.72234295247881
 31
0.0
  0
LINE
  5
24A2
  8
0
 62
     0
 10
-590.31154150523901
 20
799.61514873645717
 30
0.0
 11
-596.59030859651455
 21
805.89391582773271
 31
0.0
  0
LINE
  5
24A3
  8
0
 62
     0
 10
-593.13996862998522
 20
799.61514873645717
 30
0.0
 11
-596.59030859651443
 21
803.06548870298639
 31
0.0
  0
LINE
  5
24A4
  8
0
 62
     0
 10
-580.82886101493739
 20
796.61514873645694
 30
0.0
 11
-579.59030859651466
 21
797.85370115487956
 31
0.0
  0
LINE
  5
24A5
  8
0
 62
     0
 10
-583.65728813968371
 20
796.61514873645672
 30
0.0
 11
-579.59030859651466
 21
800.68212827962554
 31
0.0
  0
LINE
  5
24A6
  8
0
 62
     0
 10
-584.59030859651455
 20
798.51055540437198
 30
0.0
 11
-579.59030859651466
 21
803.51055540437187
 31
0.0
  0
LINE
  5
24A7
  8
0
 62
     0
 10
-584.59030859651466
 20
801.33898252911808
 30
0.0
 11
-579.59030859651466
 21
806.33898252911797
 31
0.0
  0
LINE
  5
24A8
  8
0
 62
     0
 10
-585.41141756674051
 20
803.34630068363845
 30
0.0
 11
-580.98223569919105
 21
807.77548255118791
 31
0.0
  0
LINE
  5
24A9
  8
0
 62
     0
 10
-580.58723753749609
 20
808.17048071288286
 30
0.0
 11
-580.14564057294047
 21
808.61207767743838
 31
0.0
  0
LINE
  5
24AA
  8
0
 62
     0
 10
-589.14256951392179
 20
799.61514873645717
 30
0.0
 11
-586.0869299961231
 21
802.67078825425585
 31
0.0
  0
LINE
  5
24AB
  8
0
 62
     0
 10
-591.97099663866811
 20
799.61514873645717
 30
0.0
 11
-582.98950656191391
 21
808.59663881321114
 31
0.0
  0
LINE
  5
24AC
  8
0
 62
     0
 10
-594.79942376341432
 20
799.61514873645717
 30
0.0
 11
-584.99677742463712
 21
809.41779507523438
 31
0.0
  0
LINE
  5
24AD
  8
0
 62
     0
 10
-596.59030859651455
 20
800.65269102810305
 30
0.0
 11
-586.73407974233783
 21
810.50891988227988
 31
0.0
  0
LINE
  5
24AE
  8
0
 62
     0
 10
-596.59030859651455
 20
803.48111815284926
 30
0.0
 11
-589.45627801290675
 21
810.61514873645717
 31
0.0
  0
LINE
  5
24AF
  8
0
 62
     0
 10
-596.59030859651455
 20
806.30954527759536
 30
0.0
 11
-592.28470513765285
 21
810.61514873645717
 31
0.0
  0
LINE
  5
24B0
  8
0
 62
     0
 10
-596.59030859651466
 20
809.13797240234146
 30
0.0
 11
-595.11313226239895
 21
810.61514873645717
 31
0.0
  0
ENDBLK
  5
24B2
  8
0
  0
BLOCK
  8
0
  2
*X8
 70
     1
 10
0.0
 20
0.0
 30
0.0
  3
*X8
  1

  0
LINE
  5
24B4
  8
0
 62
     0
 10
-468.10035864991511
 20
821.65374924318894
 30
0.0
 11
-468.98591556064412
 21
822.53930615391789
 31
0.0
  0
LINE
  5
24B5
  8
0
 62
     0
 10
-468.10035864991511
 20
818.11821533725617
 30
0.0
 11
-471.70310080773089
 21
821.72095749507196
 31
0.0
  0
LINE
  5
24B6
  8
0
 62
     0
 10
-478.10035864991511
 20
824.58268143132364
 30
0.0
 11
-479.23863471366309
 21
825.7209574950715
 31
0.0
  0
LINE
  5
24B7
  8
0
 62
     0
 10
-468.10035864991511
 20
814.58268143132352
 30
0.0
 11
-477.28647979334892
 21
823.76880257475727
 31
0.0
  0
LINE
  5
24B8
  8
0
 62
     0
 10
-472.47694691755743
 20
815.42373579303296
 30
0.0
 11
-482.77416861959603
 21
825.7209574950715
 31
0.0
  0
LINE
  5
24B9
  8
0
 62
     0
 10
-468.10035864991511
 20
811.04714752539076
 30
0.0
 11
-472.10035864991499
 21
815.04714752539064
 31
0.0
  0
LINE
  5
24BA
  8
0
 62
     0
 10
-478.10035864991499
 20
817.51161361945799
 30
0.0
 11
-486.30970252552862
 21
825.7209574950715
 31
0.0
  0
LINE
  5
24BB
  8
0
 62
     0
 10
-468.30970252552862
 20
807.72095749507162
 30
0.0
 11
-472.10035864991499
 21
811.51161361945788
 31
0.0
  0
LINE
  5
24BC
  8
0
 62
     0
 10
-478.10035864991488
 20
813.97607971352522
 30
0.0
 11
-489.7227975406883
 21
825.59851860429865
 31
0.0
  0
LINE
  5
24BD
  8
0
 62
     0
 10
-480.38077033739449
 20
812.72095749507184
 30
0.0
 11
-490.60035864991522
 21
822.94054580759268
 31
0.0
  0
LINE
  5
24BE
  8
0
 62
     0
 10
-483.91630424332709
 20
812.72095749507184
 30
0.0
 11
-490.60035864991511
 21
819.40501190165992
 31
0.0
  0
LINE
  5
24BF
  8
0
 62
     0
 10
-487.45183814925957
 20
812.72095749507162
 30
0.0
 11
-490.60035864991511
 21
815.86947799572704
 31
0.0
  0
LINE
  5
24C0
  8
0
 62
     0
 10
-468.60678254664663
 20
807.72095749507162
 30
0.0
 11
-468.10035864991511
 21
808.22738139180296
 31
0.0
  0
LINE
  5
24C1
  8
0
 62
     0
 10
-471.97426797739212
 20
807.88900597025884
 30
0.0
 11
-468.10035864991511
 21
811.76291529773584
 31
0.0
  0
LINE
  5
24C2
  8
0
 62
     0
 10
-472.10035864991499
 20
811.29844920366838
 30
0.0
 11
-468.10035864991488
 21
815.29844920366861
 31
0.0
  0
LINE
  5
24C3
  8
0
 62
     0
 10
-472.10035864991499
 20
814.83398310960126
 30
0.0
 11
-468.10035864991511
 21
818.83398310960115
 31
0.0
  0
LINE
  5
24C4
  8
0
 62
     0
 10
-474.14692233821557
 20
816.32295332723345
 30
0.0
 11
-467.74891817037729
 21
822.72095749507184
 31
0.0
  0
LINE
  5
24C5
  8
0
 62
     0
 10
-476.4450193770719
 20
817.56039019431
 30
0.0
 11
-472.28445207631
 21
821.72095749507196
 31
0.0
  0
LINE
  5
24C6
  8
0
 62
     0
 10
-481.28445207631017
 20
812.72095749507162
 30
0.0
 11
-478.10035864991499
 21
815.90505092146691
 31
0.0
  0
LINE
  5
24C7
  8
0
 62
     0
 10
-484.819985982243
 20
812.72095749507162
 30
0.0
 11
-475.0272619349825
 21
822.51368154233217
 31
0.0
  0
LINE
  5
24C8
  8
0
 62
     0
 10
-488.35551988817582
 20
812.7209574950715
 30
0.0
 11
-477.30010516022531
 21
823.77637222302189
 31
0.0
  0
LINE
  5
24C9
  8
0
 62
     0
 10
-490.60035864991522
 20
814.01165263926487
 30
0.0
 11
-478.9957062220119
 21
825.61630506716801
 31
0.0
  0
LINE
  5
24CA
  8
0
 62
     0
 10
-490.60035864991511
 20
817.54718654519775
 30
0.0
 11
-482.4265877000413
 21
825.7209574950715
 31
0.0
  0
LINE
  5
24CB
  8
0
 62
     0
 10
-490.60035864991511
 20
821.08272045113029
 30
0.0
 11
-485.96212160597389
 21
825.7209574950715
 31
0.0
  0
LINE
  5
24CC
  8
0
 62
     0
 10
-490.60035864991539
 20
824.61825435706305
 30
0.0
 11
-489.4976555119066
 21
825.72095749507173
 31
0.0
  0
ENDBLK
  5
24CE
  8
0
  0
BLOCK
  8
0
  2
*X9
 70
     1
 10
0.0
 20
0.0
 30
0.0
  3
*X9
  1

  0
LINE
  5
24D0
  8
0
 62
     0
 10
-339.7982148125102
 20
831.23742773716083
 30
0.0
 11
-340.79821481251003
 21
832.2374277371606
 31
0.0
  0
LINE
  5
24D1
  8
0
 62
     0
 10
-341.78572879917942
 20
829.68940781789718
 30
0.0
 11
-343.78572879917942
 21
831.68940781789718
 31
0.0
  0
LINE
  5
24D2
  8
0
 62
     0
 10
-341.78572879917931
 20
826.15387391196452
 30
0.0
 11
-345.36928262437499
 21
829.73742773716015
 31
0.0
  0
LINE
  5
24D3
  8
0
 62
     0
 10
-341.78572879917942
 20
822.61834000603176
 30
0.0
 11
-348.90481653030793
 21
829.73742773716037
 31
0.0
  0
LINE
  5
24D4
  8
0
 62
     0
 10
-349.3858485145621
 20
826.68292581548167
 30
0.0
 11
-355.53740901281299
 21
832.83448631373255
 31
0.0
  0
LINE
  5
24D5
  8
0
 62
     0
 10
-356.28572879917948
 20
833.58280610009922
 30
0.0
 11
-357.94035043624092
 21
835.23742773716049
 31
0.0
  0
LINE
  5
24D6
  8
0
 62
     0
 10
-341.78572879917948
 20
819.08280610009899
 30
0.0
 11
-346.78572879917931
 21
824.08280610009888
 31
0.0
  0
LINE
  5
24D7
  8
0
 62
     0
 10
-354.94168750959921
 20
828.70323090458601
 30
0.0
 11
-361.47588434217369
 21
835.23742773716049
 31
0.0
  0
LINE
  5
24D8
  8
0
 62
     0
 10
-342.47588434217391
 20
816.23742773716083
 30
0.0
 11
-346.78572879917931
 21
820.54727219416623
 31
0.0
  0
LINE
  5
24D9
  8
0
 62
     0
 10
-356.28572879917948
 20
826.51173828823369
 30
0.0
 11
-365.01141824810628
 21
835.23742773716049
 31
0.0
  0
LINE
  5
24DA
  8
0
 62
     0
 10
-344.01141824810668
 20
814.23742773716106
 30
0.0
 11
-346.78572879917931
 21
817.01173828823346
 31
0.0
  0
LINE
  5
24DB
  8
0
 62
     0
 10
-356.28572879917948
 20
822.97620438230103
 30
0.0
 11
-368.5469521540391
 21
835.23742773716049
 31
0.0
  0
LINE
  5
24DC
  8
0
 62
     0
 10
-358.08248605997221
 20
821.23742773716083
 30
0.0
 11
-371.43410742957559
 21
834.58904910676438
 31
0.0
  0
LINE
  5
24DD
  8
0
 62
     0
 10
-361.61801996590469
 20
821.23742773716071
 30
0.0
 11
-371.78572879917948
 21
831.40513657043562
 31
0.0
  0
LINE
  5
24DE
  8
0
 62
     0
 10
-365.15355387183729
 20
821.23742773716049
 30
0.0
 11
-371.78572879917942
 21
827.86960266450274
 31
0.0
  0
LINE
  5
24DF
  8
0
 62
     0
 10
-368.68908777777011
 20
821.23742773716071
 30
0.0
 11
-371.78572879917948
 21
824.33406875856997
 31
0.0
  0
LINE
  5
24E0
  8
0
 62
     0
 10
-341.88215950284422
 20
814.23742773716106
 30
0.0
 11
-341.78572879917948
 21
814.33385844082557
 31
0.0
  0
LINE
  5
24E1
  8
0
 62
     0
 10
-345.4176934087771
 20
814.2374277371606
 30
0.0
 11
-341.78572879917942
 21
817.86939234675845
 31
0.0
  0
LINE
  5
24E2
  8
0
 62
     0
 10
-346.78572879917931
 20
816.40492625269121
 30
0.0
 11
-341.78572879917948
 21
821.4049262526911
 31
0.0
  0
LINE
  5
24E3
  8
0
 62
     0
 10
-346.78572879917931
 20
819.94046015862409
 30
0.0
 11
-341.78572879917948
 21
824.94046015862375
 31
0.0
  0
LINE
  5
24E4
  8
0
 62
     0
 10
-346.7857287991792
 20
823.47599406455674
 30
0.0
 11
-341.78572879917942
 21
828.47599406455663
 31
0.0
  0
LINE
  5
24E5
  8
0
 62
     0
 10
-343.78572879917942
 20
830.01152797048928
 30
0.0
 11
-341.55982903250799
 21
832.2374277371606
 31
0.0
  0
LINE
  5
24E6
  8
0
 62
     0
 10
-347.74984933785038
 20
826.04740743181833
 30
0.0
 11
-344.05982903250862
 21
829.73742773716003
 31
0.0
  0
LINE
  5
24E7
  8
0
 62
     0
 10
-350.31279383463772
 20
827.01999684096381
 30
0.0
 11
-347.59536293844121
 21
829.73742773716015
 31
0.0
  0
LINE
  5
24E8
  8
0
 62
     0
 10
-352.90551869898849
 20
827.96280588254581
 30
0.0
 11
-350.66008802855578
 21
830.20823655297841
 31
0.0
  0
LINE
  5
24E9
  8
0
 62
     0
 10
-359.63089684437358
 20
821.23742773716049
 30
0.0
 11
-356.28572879917959
 21
824.58259578235459
 31
0.0
  0
LINE
  5
24EA
  8
0
 62
     0
 10
-355.49824356333909
 20
828.90561492412792
 30
0.0
 11
-352.95818506741199
 21
831.44567342005496
 31
0.0
  0
LINE
  5
24EB
  8
0
 62
     0
 10
-363.1664307503064
 20
821.23742773716071
 30
0.0
 11
-356.28572879917948
 21
828.11812968828747
 31
0.0
  0
LINE
  5
24EC
  8
0
 62
     0
 10
-366.70196465623923
 20
821.23742773716049
 30
0.0
 11
-355.2562821062682
 21
832.68311028713151
 31
0.0
  0
LINE
  5
24ED
  8
0
 62
     0
 10
-370.23749856217199
 20
821.23742773716049
 30
0.0
 11
-356.76161368067579
 21
834.71331261865657
 31
0.0
  0
LINE
  5
24EE
  8
0
 62
     0
 10
-371.78572879917942
 20
823.22473140608577
 30
0.0
 11
-359.77303246810482
 21
835.23742773716049
 31
0.0
  0
LINE
  5
24EF
  8
0
 62
     0
 10
-371.78572879917942
 20
826.7602653120183
 30
0.0
 11
-363.30856637403741
 21
835.23742773716049
 31
0.0
  0
LINE
  5
24F0
  8
0
 62
     0
 10
-371.78572879917959
 20
830.29579921795107
 30
0.0
 11
-366.84410027997012
 21
835.23742773716049
 31
0.0
  0
LINE
  5
24F1
  8
0
 62
     0
 10
-371.78572879917959
 20
833.83133312388384
 30
0.0
 11
-370.37963418590277
 21
835.23742773716049
 31
0.0
  0
ENDBLK
  5
24F3
  8
0
  0
BLOCK
  8
0
  2
*X10
 70
     1
 10
0.0
 20
0.0
 30
0.0
  3
*X10
  1

  0
LINE
  5
24F5
  8
0
 62
     0
 10
-197.0342751669713
 20
850.40094098334134
 30
0.0
 11
-198.0342751669709
 21
851.40094098334089
 31
0.0
  0
LINE
  5
24F6
  8
0
 62
     0
 10
-198.73514627148541
 20
847.85917140073605
 30
0.0
 11
-200.73514627148541
 21
849.85917140073605
 31
0.0
  0
LINE
  5
24F7
  8
0
 62
     0
 10
-198.73514627148549
 20
843.61653071361707
 30
0.0
 11
-204.51955654120979
 21
849.40094098334134
 31
0.0
  0
LINE
  5
24F8
  8
0
 62
     0
 10
-198.73514627148549
 20
839.37389002649763
 30
0.0
 11
-209.4468978662249
 21
850.08564162123696
 31
0.0
  0
LINE
  5
24F9
  8
0
 62
     0
 10
-198.7351462714856
 20
835.13124933937843
 30
0.0
 11
-216.51796567809049
 21
852.91406874598329
 31
0.0
  0
LINE
  5
24FA
  8
0
 62
     0
 10
-213.7598109336499
 20
845.91327331442346
 30
0.0
 11
-224.2474786025675
 21
856.40094098334123
 31
0.0
  0
LINE
  5
24FB
  8
0
 62
     0
 10
-200.2474786025677
 20
832.40094098334134
 30
0.0
 11
-204.73514627148549
 21
836.88860865225911
 31
0.0
  0
LINE
  5
24FC
  8
0
 62
     0
 10
-220.23514627148569
 20
848.14596796514013
 30
0.0
 11
-228.49011928968679
 21
856.40094098334123
 31
0.0
  0
LINE
  5
24FD
  8
0
 62
     0
 10
-220.2351462714856
 20
843.9033272780207
 30
0.0
 11
-232.73275997680619
 21
856.40094098334123
 31
0.0
  0
LINE
  5
24FE
  8
0
 62
     0
 10
-222.9754006639254
 20
842.40094098334134
 30
0.0
 11
-236.3552734677055
 21
855.78081378712125
 31
0.0
  0
LINE
  5
24FF
  8
0
 62
     0
 10
-227.21804135104469
 20
842.40094098334134
 30
0.0
 11
-236.73514627148549
 21
851.91804590378206
 31
0.0
  0
LINE
  5
2500
  8
0
 62
     0
 10
-231.46068203816401
 20
842.40094098334134
 30
0.0
 11
-236.73514627148549
 21
847.67540521666263
 31
0.0
  0
LINE
  5
2501
  8
0
 62
     0
 10
-235.7033227252833
 20
842.40094098334112
 30
0.0
 11
-236.73514627148549
 21
843.43276452954342
 31
0.0
  0
LINE
  5
2502
  8
0
 62
     0
 10
-202.80338667376409
 20
832.40094098334134
 30
0.0
 11
-198.73514627148549
 21
836.46918138562
 31
0.0
  0
LINE
  5
2503
  8
0
 62
     0
 10
-204.73514627148549
 20
834.71182207273932
 30
0.0
 11
-198.73514627148549
 21
840.71182207273944
 31
0.0
  0
LINE
  5
2504
  8
0
 62
     0
 10
-204.7351462714856
 20
838.9544627598583
 30
0.0
 11
-198.73514627148549
 21
844.95446275985853
 31
0.0
  0
LINE
  5
2505
  8
0
 62
     0
 10
-197.53130873512191
 20
850.40094098334134
 30
0.0
 11
-196.79468272828541
 21
851.1375669901779
 31
0.0
  0
LINE
  5
2506
  8
0
 62
     0
 10
-205.93877386575639
 20
841.99347585270675
 30
0.0
 11
-198.73514627148541
 21
849.19710344697785
 31
0.0
  0
LINE
  5
2507
  8
0
 62
     0
 10
-208.76101503865601
 20
843.41387536692662
 30
0.0
 11
-202.7739494222412
 21
849.40094098334134
 31
0.0
  0
LINE
  5
2508
  8
0
 62
     0
 10
-211.5894421634022
 20
844.82808892929972
 30
0.0
 11
-207.01659010936049
 21
849.40094098334146
 31
0.0
  0
LINE
  5
2509
  8
0
 62
     0
 10
-214.41786928814841
 20
846.24230249167272
 30
0.0
 11
-210.25234950362429
 21
850.40782227619684
 31
0.0
  0
LINE
  5
250A
  8
0
 62
     0
 10
-217.24629641289459
 20
847.65651605404594
 30
0.0
 11
-213.28280713728091
 21
851.62000532965953
 31
0.0
  0
LINE
  5
250B
  8
0
 62
     0
 10
-222.5018714835993
 20
842.40094098334134
 30
0.0
 11
-220.23514627148569
 21
844.66766619545479
 31
0.0
  0
LINE
  5
250C
  8
0
 62
     0
 10
-220.07472353764069
 20
849.07072961641916
 30
0.0
 11
-216.31326477093759
 21
852.83218838312212
 31
0.0
  0
LINE
  5
250D
  8
0
 62
     0
 10
-226.74451217071859
 20
842.40094098334134
 30
0.0
 11
-220.23514627148569
 21
848.9103068825741
 31
0.0
  0
LINE
  5
250E
  8
0
 62
     0
 10
-230.98715285783771
 20
842.40094098334134
 30
0.0
 11
-219.3437224045941
 21
854.04437143658492
 31
0.0
  0
LINE
  5
250F
  8
0
 62
     0
 10
-235.22979354495709
 20
842.40094098334112
 30
0.0
 11
-221.2324699082213
 21
856.39826462007704
 31
0.0
  0
LINE
  5
2510
  8
0
 62
     0
 10
-236.73514627148549
 20
845.13822894393206
 30
0.0
 11
-225.47243423207641
 21
856.40094098334123
 31
0.0
  0
LINE
  5
2511
  8
0
 62
     0
 10
-236.73514627148549
 20
849.38086963105138
 30
0.0
 11
-229.71507491919559
 21
856.40094098334134
 31
0.0
  0
LINE
  5
2512
  8
0
 62
     0
 10
-236.7351462714856
 20
853.62351031817082
 30
0.0
 11
-233.95771560631491
 21
856.40094098334134
 31
0.0
  0
ENDBLK
  5
2514
  8
0
  0
BLOCK
  8
0
  2
*X11
 70
     1
 10
0.0
 20
0.0
 30
0.0
  3
*X11
  1

  0
LINE
  5
2516
  8
0
 62
     0
 10
-19.238731602334951
 20
872.00950971331122
 30
0.0
 11
-20.488731602335012
 21
873.25950971331133
 31
0.0
  0
LINE
  5
2517
  8
0
 62
     0
 10
-23.10582081159896
 20
871.63395823545602
 30
0.0
 11
-23.60582081159896
 21
872.13395823545591
 31
0.0
  0
LINE
  5
2518
  8
0
 62
     0
 10
-23.10582081159901
 20
867.39131754833681
 30
0.0
 11
-26.724012976573469
 21
871.00950971331133
 31
0.0
  0
LINE
  5
2519
  8
0
 62
     0
 10
-23.10582081159896
 20
863.1486768612175
 30
0.0
 11
-30.966653663692959
 21
871.00950971331145
 31
0.0
  0
LINE
  5
251A
  8
0
 62
     0
 10
-23.10582081159896
 20
858.90603617409829
 30
0.0
 11
-36.600506627011043
 21
872.40072198951032
 31
0.0
  0
LINE
  5
251B
  8
0
 62
     0
 10
-23.10582081159901
 20
854.66339548697897
 30
0.0
 11
-42.745020725597499
 21
874.30259540097745
 31
0.0
  0
LINE
  5
251C
  8
0
 62
     0
 10
-36.59539628315008
 20
863.91033027141077
 30
0.0
 11
-48.889534824183897
 21
876.2044688124447
 31
0.0
  0
LINE
  5
251D
  8
0
 62
     0
 10
-24.10582081159896
 20
851.42075479985965
 30
0.0
 11
-29.10582081159901
 21
856.42075479985965
 31
0.0
  0
LINE
  5
251E
  8
0
 62
     0
 10
-51.60582081159901
 20
878.92075479985976
 30
0.0
 11
-53.694575725050747
 21
881.00950971331145
 31
0.0
  0
LINE
  5
251F
  8
0
 62
     0
 10
-23.10582081159907
 20
850.42075479985976
 30
0.0
 11
-23.69457572505063
 21
851.00950971331133
 31
0.0
  0
LINE
  5
2520
  8
0
 62
     0
 10
-45.449602934529473
 20
868.52189623567085
 30
0.0
 11
-57.93721641217001
 21
881.00950971331145
 31
0.0
  0
LINE
  5
2521
  8
0
 62
     0
 10
-26.937216412169839
 20
850.00950971331122
 30
0.0
 11
-29.10582081159896
 21
852.17811411274033
 31
0.0
  0
LINE
  5
2522
  8
0
 62
     0
 10
-51.60582081159896
 20
870.4354734256209
 30
0.0
 11
-62.179857099289279
 21
881.00950971331145
 31
0.0
  0
LINE
  5
2523
  8
0
 62
     0
 10
-51.60582081159896
 20
866.19283273850181
 30
0.0
 11
-66.422497786408584
 21
881.00950971331145
 31
0.0
  0
LINE
  5
2524
  8
0
 62
     0
 10
-54.66513847352747
 20
865.00950971331099
 30
0.0
 11
-69.60582081159896
 21
879.95019205138237
 31
0.0
  0
LINE
  5
2525
  8
0
 62
     0
 10
-58.907779160646669
 20
865.00950971331099
 30
0.0
 11
-69.605820811598903
 21
875.70755136426317
 31
0.0
  0
LINE
  5
2526
  8
0
 62
     0
 10
-63.150419847765981
 20
865.00950971331099
 30
0.0
 11
-69.60582081159896
 21
871.46491067714385
 31
0.0
  0
LINE
  5
2527
  8
0
 62
     0
 10
-67.393060534885194
 20
865.00950971331076
 30
0.0
 11
-69.605820811599017
 21
867.22226999002476
 31
0.0
  0
LINE
  5
2528
  8
0
 62
     0
 10
-23.974471833261301
 20
850.00950971331133
 30
0.0
 11
-23.10582081159896
 21
850.87816073497368
 31
0.0
  0
LINE
  5
2529
  8
0
 62
     0
 10
-28.211511567138761
 20
850.01511066655326
 30
0.0
 11
-23.10582081159901
 21
855.12080142209311
 31
0.0
  0
LINE
  5
252A
  8
0
 62
     0
 10
-29.10582081159896
 20
853.36344210921243
 30
0.0
 11
-23.10582081159901
 21
859.3634421092122
 31
0.0
  0
LINE
  5
252B
  8
0
 62
     0
 10
-29.1742425086079
 20
857.53766109932258
 30
0.0
 11
-23.10582081159896
 21
863.60608279633163
 31
0.0
  0
LINE
  5
252C
  8
0
 62
     0
 10
-30.558064732620721
 20
860.39647956242914
 30
0.0
 11
-23.10582081159896
 21
867.84872348345073
 31
0.0
  0
LINE
  5
252D
  8
0
 62
     0
 10
-23.60582081159901
 20
871.59136417057016
 30
0.0
 11
-21.937675268857731
 21
873.25950971331133
 31
0.0
  0
LINE
  5
252E
  8
0
 62
     0
 10
-33.104848399933587
 20
862.09233658223536
 30
0.0
 11
-24.187675268857781
 21
871.00950971331133
 31
0.0
  0
LINE
  5
252F
  8
0
 62
     0
 10
-35.894529947628307
 20
863.54529572165995
 30
0.0
 11
-28.43031595597693
 21
871.00950971331145
 31
0.0
  0
LINE
  5
2530
  8
0
 62
     0
 10
-38.684211495323268
 20
864.99825486108455
 30
0.0
 11
-32.538906355651527
 21
871.14356000075611
 31
0.0
  0
LINE
  5
2531
  8
0
 62
     0
 10
-41.473893043018172
 20
866.4512140005088
 30
0.0
 11
-35.778741062178987
 21
872.14636598134803
 31
0.0
  0
LINE
  5
2532
  8
0
 62
     0
 10
-44.263574590712999
 20
867.90417313993305
 30
0.0
 11
-39.018575768706341
 21
873.14917196193983
 31
0.0
  0
LINE
  5
2533
  8
0
 62
     0
 10
-47.053256138407903
 20
869.35713227935776
 30
0.0
 11
-42.258410475233909
 21
874.15197794253152
 31
0.0
  0
LINE
  5
2534
  8
0
 62
     0
 10
-49.84293768610285
 20
870.81009141878178
 30
0.0
 11
-45.49824518176132
 21
875.15478392312355
 31
0.0
  0
LINE
  5
2535
  8
0
 62
     0
 10
-55.643519391573818
 20
865.00950971331099
 30
0.0
 11
-51.60582081159896
 21
869.04720829328585
 31
0.0
  0
LINE
  5
2536
  8
0
 62
     0
 10
-59.886160078693138
 20
865.00950971331099
 30
0.0
 11
-48.73807988828883
 21
876.15758990371523
 31
0.0
  0
LINE
  5
2537
  8
0
 62
     0
 10
-64.1288007658124
 20
865.00950971331099
 30
0.0
 11
-51.60582081159896
 21
877.53248966752449
 31
0.0
  0
LINE
  5
2538
  8
0
 62
     0
 10
-68.371441452931606
 20
865.00950971331099
 30
0.0
 11
-52.488631132265141
 21
880.89232003397751
 31
0.0
  0
LINE
  5
2539
  8
0
 62
     0
 10
-69.60582081159896
 20
868.01777104176301
 30
0.0
 11
-56.614082140050527
 21
881.00950971331145
 31
0.0
  0
LINE
  5
253A
  8
0
 62
     0
 10
-69.60582081159896
 20
872.26041172888222
 30
0.0
 11
-60.85672282716979
 21
881.00950971331145
 31
0.0
  0
LINE
  5
253B
  8
0
 62
     0
 10
-69.60582081159896
 20
876.50305241600165
 30
0.0
 11
-65.099363514289109
 21
881.00950971331145
 31
0.0
  0
ENDBLK
  5
253D
  8
0
  0
BLOCK
  8
0
  2
*X12
 70
     1
 10
0.0
 20
0.0
 30
0.0
  3
*X12
  1

  0
LINE
  5
253F
  8
0
 62
     0
 10
187.5306138515389
 20
894.34276136387871
 30
0.0
 11
186.0306138515397
 21
895.84276136387814
 31
0.0
  0
LINE
  5
2540
  8
0
 62
     0
 10
185.87818989426481
 20
891.7525446340336
 30
0.0
 11
181.78797316442049
 21
895.84276136387768
 31
0.0
  0
LINE
  5
2541
  8
0
 62
     0
 10
185.87818989426469
 20
887.50990394691439
 30
0.0
 11
179.87819137474889
 21
893.50990246643005
 31
0.0
  0
LINE
  5
2542
  8
0
 62
     0
 10
185.87818989426481
 20
883.26726325979507
 30
0.0
 11
177.3026917901814
 21
891.84276136387848
 31
0.0
  0
LINE
  5
2543
  8
0
 62
     0
 10
185.87818989426481
 20
879.02462257267587
 30
0.0
 11
173.06005110306211
 21
891.84276136387848
 31
0.0
  0
LINE
  5
2544
  8
0
 62
     0
 10
185.87818989426481
 20
874.78198188555655
 30
0.0
 11
168.2516606270851
 21
892.40851115273631
 31
0.0
  0
LINE
  5
2545
  8
0
 62
     0
 10
185.87818989426469
 20
870.53934119843723
 30
0.0
 11
161.74627846349901
 21
894.67125262920297
 31
0.0
  0
LINE
  5
2546
  8
0
 62
     0
 10
183.87818989426469
 20
868.29670051131779
 30
0.0
 11
179.37817767625799
 21
872.79671272932467
 31
0.0
  0
LINE
  5
2547
  8
0
 62
     0
 10
176.4018028322221
 20
875.7730875733605
 30
0.0
 11
155.24089629991309
 21
896.93399410566974
 31
0.0
  0
LINE
  5
2548
  8
0
 62
     0
 10
185.33212904170409
 20
866.84276136387848
 30
0.0
 11
184.83212904170409
 21
867.34276136387859
 31
0.0
  0
LINE
  5
2549
  8
0
 62
     0
 10
164.8424420297228
 20
883.08980768874062
 30
0.0
 11
148.735514136327
 21
899.1967355821364
 31
0.0
  0
LINE
  5
254A
  8
0
 62
     0
 10
146.87818989426481
 20
901.05405982419859
 30
0.0
 11
143.0894883545848
 21
904.84276136387859
 31
0.0
  0
LINE
  5
254B
  8
0
 62
     0
 10
181.0647791436601
 20
866.86747057480329
 30
0.0
 11
179.4028991051895
 21
868.52935061327378
 31
0.0
  0
LINE
  5
254C
  8
0
 62
     0
 10
153.28308122722351
 20
890.40652780412074
 30
0.0
 11
138.84684766746551
 21
904.84276136387882
 31
0.0
  0
LINE
  5
254D
  8
0
 62
     0
 10
146.87818989426481
 20
892.56877844996006
 30
0.0
 11
134.60420698034631
 21
904.84276136387882
 31
0.0
  0
LINE
  5
254E
  8
0
 62
     0
 10
146.87818989426469
 20
888.32613776284086
 30
0.0
 11
130.36156629322701
 21
904.84276136387882
 31
0.0
  0
LINE
  5
254F
  8
0
 62
     0
 10
144.61892560610761
 20
886.34276136387871
 30
0.0
 11
127.24855775018619
 21
903.71312921980007
 31
0.0
  0
LINE
  5
2550
  8
0
 62
     0
 10
140.37628491898829
 20
886.34276136387871
 30
0.0
 11
126.87818989426481
 21
899.84085638860211
 31
0.0
  0
LINE
  5
2551
  8
0
 62
     0
 10
136.13364423186891
 20
886.34276136387894
 30
0.0
 11
126.87818989426469
 21
895.59821570148301
 31
0.0
  0
LINE
  5
2552
  8
0
 62
     0
 10
131.89100354474971
 20
886.34276136387894
 30
0.0
 11
126.87818989426469
 21
891.35557501436358
 31
0.0
  0
LINE
  5
2553
  8
0
 62
     0
 10
185.7776107376738
 20
868.84276136387859
 30
0.0
 11
185.87818989426481
 21
868.94334052046952
 31
0.0
  0
LINE
  5
2554
  8
0
 62
     0
 10
183.7776107376738
 20
866.84276136387848
 30
0.0
 11
184.27761073767391
 21
867.34276136387882
 31
0.0
  0
LINE
  5
2555
  8
0
 62
     0
 10
180.04454066854851
 20
867.35233198187268
 30
0.0
 11
185.87818989426481
 21
873.18598120758895
 31
0.0
  0
LINE
  5
2556
  8
0
 62
     0
 10
179.37818989426469
 20
870.92862189470804
 30
0.0
 11
185.87818989426469
 21
877.42862189470816
 31
0.0
  0
LINE
  5
2557
  8
0
 62
     0
 10
178.58870705283331
 20
874.38177974039615
 30
0.0
 11
185.87818989426469
 21
881.67126258182736
 31
0.0
  0
LINE
  5
2558
  8
0
 62
     0
 10
175.99491909740169
 20
876.03063247208365
 30
0.0
 11
185.87818989426469
 21
885.91390326894668
 31
0.0
  0
LINE
  5
2559
  8
0
 62
     0
 10
173.39680486642681
 20
877.67515892822803
 30
0.0
 11
185.87818989426481
 21
890.15654395606612
 31
0.0
  0
LINE
  5
255A
  8
0
 62
     0
 10
170.798690635452
 20
879.31968538437241
 30
0.0
 11
187.26975718956649
 21
895.79075193848689
 31
0.0
  0
LINE
  5
255B
  8
0
 62
     0
 10
179.87819137474881
 20
892.64182681078864
 30
0.0
 11
183.07912592783811
 21
895.84276136387791
 31
0.0
  0
LINE
  5
255C
  8
0
 62
     0
 10
168.20057640447689
 20
880.96421184051678
 30
0.0
 11
179.07912592783859
 21
891.84276136387848
 31
0.0
  0
LINE
  5
255D
  8
0
 62
     0
 10
165.60246217350209
 20
882.60873829666116
 30
0.0
 11
174.83648524071941
 21
891.84276136387848
 31
0.0
  0
LINE
  5
255E
  8
0
 62
     0
 10
163.0043479425272
 20
884.25326475280576
 30
0.0
 11
170.59384455360021
 21
891.84276136387848
 31
0.0
  0
LINE
  5
255F
  8
0
 62
     0
 10
160.4062337115524
 20
885.89779120895025
 30
0.0
 11
167.2613941477268
 21
892.75295164512465
 31
0.0
  0
LINE
  5
2560
  8
0
 62
     0
 10
157.8081194805776
 20
887.54231766509452
 30
0.0
 11
164.1136284243498
 21
893.84782660886685
 31
0.0
  0
LINE
  5
2561
  8
0
 62
     0
 10
155.21000524960269
 20
889.18684412123912
 30
0.0
 11
160.96586270097271
 21
894.94270157260883
 31
0.0
  0
LINE
  5
2562
  8
0
 62
     0
 10
152.6118910186278
 20
890.83137057738327
 30
0.0
 11
157.81809697759559
 21
896.03757653635125
 31
0.0
  0
LINE
  5
2563
  8
0
 62
     0
 10
150.01377678765289
 20
892.47589703352787
 30
0.0
 11
154.67033125421861
 21
897.13245150009345
 31
0.0
  0
LINE
  5
2564
  8
0
 62
     0
 10
143.88064111800401
 20
886.34276136387894
 30
0.0
 11
146.87818989426469
 21
889.34031014013954
 31
0.0
  0
LINE
  5
2565
  8
0
 62
     0
 10
147.41566255667809
 20
894.12042348967225
 30
0.0
 11
151.52256553084149
 21
898.22732646383565
 31
0.0
  0
LINE
  5
2566
  8
0
 62
     0
 10
139.63800043088469
 20
886.34276136387894
 30
0.0
 11
146.87818989426469
 21
893.58295082725886
 31
0.0
  0
LINE
  5
2567
  8
0
 62
     0
 10
135.3953597437654
 20
886.34276136387894
 30
0.0
 11
148.3747998074644
 21
899.32220142757785
 31
0.0
  0
LINE
  5
2568
  8
0
 62
     0
 10
131.15271905664611
 20
886.34276136387894
 30
0.0
 11
146.87818989426469
 21
902.06823220149749
 31
0.0
  0
LINE
  5
2569
  8
0
 62
     0
 10
127.6441341318958
 20
887.07681712624765
 30
0.0
 11
145.39413413189561
 21
904.82681712624776
 31
0.0
  0
LINE
  5
256A
  8
0
 62
     0
 10
126.87818989426481
 20
890.55351357573613
 30
0.0
 11
141.1674376824073
 21
904.84276136387882
 31
0.0
  0
LINE
  5
256B
  8
0
 62
     0
 10
126.87818989426469
 20
894.79615426285534
 30
0.0
 11
136.92479699528809
 21
904.84276136387859
 31
0.0
  0
LINE
  5
256C
  8
0
 62
     0
 10
126.87818989426469
 20
899.03879494997454
 30
0.0
 11
132.68215630816869
 21
904.84276136387859
 31
0.0
  0
LINE
  5
256D
  8
0
 62
     0
 10
126.87818989426469
 20
903.28143563709375
 30
0.0
 11
128.43951562104951
 21
904.84276136387882
 31
0.0
  0
ENDBLK
  5
256F
  8
0
  0
BLOCK
  8
0
  2
*X13
 70
     1
 10
0.0
 20
0.0
 30
0.0
  3
*X13
  1

  0
LINE
  5
2571
  8
0
 62
     0
 10
422.75069226490251
 20
923.58061911428376
 30
0.0
 11
421.2506922649024
 21
925.08061911428399
 31
0.0
  0
LINE
  5
2572
  8
0
 62
     0
 10
422.34184412660301
 20
919.03971978427751
 30
0.0
 11
416.30094479659618
 21
925.08061911428422
 31
0.0
  0
LINE
  5
2573
  8
0
 62
     0
 10
422.34184412660312
 20
914.08997231597164
 30
0.0
 11
414.84184412660318
 21
921.58997231597152
 31
0.0
  0
LINE
  5
2574
  8
0
 62
     0
 10
422.34184412660301
 20
909.14022484766576
 30
0.0
 11
410.4014498599845
 21
921.08061911428433
 31
0.0
  0
LINE
  5
2575
  8
0
 62
     0
 10
422.34184412660312
 20
904.19047737936
 30
0.0
 11
405.45170239167868
 21
921.08061911428445
 31
0.0
  0
LINE
  5
2576
  8
0
 62
     0
 10
411.07267692758489
 20
910.50989711007253
 30
0.0
 11
400.50195492337292
 21
921.08061911428445
 31
0.0
  0
LINE
  5
2577
  8
0
 62
     0
 10
422.34184412660318
 20
899.24072991105402
 30
0.0
 11
413.34184412660301
 21
908.24072991105436
 31
0.0
  0
LINE
  5
2578
  8
0
 62
     0
 10
402.69004008609897
 20
913.94278648325235
 30
0.0
 11
395.36980456564532
 21
921.26302200370606
 31
0.0
  0
LINE
  5
2579
  8
0
 62
     0
 10
419.5522074550675
 20
897.08061911428376
 30
0.0
 11
413.34184412660289
 21
903.29098244274837
 31
0.0
  0
LINE
  5
257A
  8
0
 62
     0
 10
394.30740324461328
 20
917.37567585643228
 30
0.0
 11
386.98716772415958
 21
924.69591137688587
 31
0.0
  0
LINE
  5
257B
  8
0
 62
     0
 10
414.6024599867618
 20
897.08061911428376
 30
0.0
 11
413.34184412660312
 21
898.34123497444239
 31
0.0
  0
LINE
  5
257C
  8
0
 62
     0
 10
385.92476640312759
 20
920.8085652296121
 30
0.0
 11
378.60453088267388
 21
928.12880075006569
 31
0.0
  0
LINE
  5
257D
  8
0
 62
     0
 10
366.34184412660312
 20
935.44174003783064
 30
0.0
 11
362.70296505015011
 21
939.08061911428365
 31
0.0
  0
LINE
  5
257E
  8
0
 62
     0
 10
377.54212956164179
 20
924.24145460279215
 30
0.0
 11
370.22189404118831
 21
931.56169012324563
 31
0.0
  0
LINE
  5
257F
  8
0
 62
     0
 10
369.15949272015609
 20
927.67434397597208
 30
0.0
 11
357.7532175818443
 21
939.08061911428365
 31
0.0
  0
LINE
  5
2580
  8
0
 62
     0
 10
366.34184412660312
 20
925.54224510121924
 30
0.0
 11
352.80347011353831
 21
939.08061911428388
 31
0.0
  0
LINE
  5
2581
  8
0
 62
     0
 10
366.34184412660312
 20
920.59249763291325
 30
0.0
 11
347.85372264523238
 21
939.08061911428388
 31
0.0
  0
LINE
  5
2582
  8
0
 62
     0
 10
363.90397517692639
 20
918.08061911428422
 30
0.0
 11
343.37290965176481
 21
938.61168463944568
 31
0.0
  0
LINE
  5
2583
  8
0
 62
     0
 10
358.95422770862069
 20
918.08061911428422
 30
0.0
 11
342.34184412660318
 21
934.69300269630173
 31
0.0
  0
LINE
  5
2584
  8
0
 62
     0
 10
354.00448024031471
 20
918.08061911428399
 30
0.0
 11
342.34184412660301
 21
929.74325522799586
 31
0.0
  0
LINE
  5
2585
  8
0
 62
     0
 10
349.05473277200912
 20
918.08061911428399
 30
0.0
 11
342.34184412660301
 21
924.7935077596901
 31
0.0
  0
LINE
  5
2586
  8
0
 62
     0
 10
344.1049853037033
 20
918.08061911428399
 30
0.0
 11
342.34184412660312
 21
919.84376029138411
 31
0.0
  0
LINE
  5
2587
  8
0
 62
     0
 10
421.9048621569242
 20
897.08061911428388
 30
0.0
 11
422.34184412660318
 21
897.51760108396297
 31
0.0
  0
LINE
  5
2588
  8
0
 62
     0
 10
416.95511468861821
 20
897.08061911428376
 30
0.0
 11
422.34184412660318
 21
902.46734855226862
 31
0.0
  0
LINE
  5
2589
  8
0
 62
     0
 10
413.34184412660289
 20
898.41709602057438
 30
0.0
 11
422.34184412660312
 21
907.4170960205746
 31
0.0
  0
LINE
  5
258A
  8
0
 62
     0
 10
413.34184412660301
 20
903.36684348888036
 30
0.0
 11
422.34184412660301
 21
912.36684348888036
 31
0.0
  0
LINE
  5
258B
  8
0
 62
     0
 10
413.34184412660301
 20
908.31659095718624
 30
0.0
 11
422.34184412660318
 21
917.31659095718624
 31
0.0
  0
LINE
  5
258C
  8
0
 62
     0
 10
423.656124815395
 20
923.58061911428399
 30
0.0
 11
425.09012532806702
 21
925.01461962695589
 31
0.0
  0
LINE
  5
258D
  8
0
 62
     0
 10
410.7269756963542
 20
910.65146999524302
 30
0.0
 11
422.34184412660318
 21
922.26633842549211
 31
0.0
  0
LINE
  5
258E
  8
0
 62
     0
 10
407.21533053302898
 20
912.08957230022384
 30
0.0
 11
420.2063773470893
 21
925.08061911428399
 31
0.0
  0
LINE
  5
258F
  8
0
 62
     0
 10
403.70368536970398
 20
913.52767460520465
 30
0.0
 11
411.25662987878388
 21
921.08061911428445
 31
0.0
  0
LINE
  5
2590
  8
0
 62
     0
 10
400.19204020637892
 20
914.96577691018547
 30
0.0
 11
406.30688241047801
 21
921.08061911428445
 31
0.0
  0
LINE
  5
2591
  8
0
 62
     0
 10
396.68039504305392
 20
916.40387921516606
 30
0.0
 11
401.35713494217219
 21
921.08061911428445
 31
0.0
  0
LINE
  5
2592
  8
0
 62
     0
 10
393.16874987972881
 20
917.84198152014676
 30
0.0
 11
396.40738747386632
 21
921.08061911428445
 31
0.0
  0
LINE
  5
2593
  8
0
 62
     0
 10
389.65710471640358
 20
919.28008382512758
 30
0.0
 11
392.72368986686399
 21
922.34666897558805
 31
0.0
  0
LINE
  5
2594
  8
0
 62
     0
 10
386.14545955307858
 20
920.71818613010851
 30
0.0
 11
389.21204470353888
 21
923.78477128056863
 31
0.0
  0
LINE
  5
2595
  8
0
 62
     0
 10
382.63381438975352
 20
922.1562884350891
 30
0.0
 11
385.70039954021382
 21
925.22287358554945
 31
0.0
  0
LINE
  5
2596
  8
0
 62
     0
 10
379.12216922642858
 20
923.59439074006991
 30
0.0
 11
382.18875437688888
 21
926.66097589053027
 31
0.0
  0
LINE
  5
2597
  8
0
 62
     0
 10
375.61052406310341
 20
925.03249304505061
 30
0.0
 11
378.67710921356371
 21
928.09907819551086
 31
0.0
  0
LINE
  5
2598
  8
0
 62
     0
 10
372.0988788997783
 20
926.47059535003154
 30
0.0
 11
375.1654640502386
 21
929.53718050049167
 31
0.0
  0
LINE
  5
2599
  8
0
 62
     0
 10
363.70890266403097
 20
918.08061911428422
 30
0.0
 11
366.34184412660312
 21
920.71356057685648
 31
0.0
  0
LINE
  5
259A
  8
0
 62
     0
 10
368.5872337364533
 20
927.90869765501225
 30
0.0
 11
371.65381888691348
 21
930.97528280547238
 31
0.0
  0
LINE
  5
259B
  8
0
 62
     0
 10
358.7591551957251
 20
918.08061911428399
 30
0.0
 11
366.34184412660329
 21
925.66330804516235
 31
0.0
  0
LINE
  5
259C
  8
0
 62
     0
 10
353.80940772741928
 20
918.08061911428399
 30
0.0
 11
368.14217372358843
 21
932.41338511045319
 31
0.0
  0
LINE
  5
259D
  8
0
 62
     0
 10
348.8596602591133
 20
918.08061911428399
 30
0.0
 11
366.34184412660312
 21
935.56280298177364
 31
0.0
  0
LINE
  5
259E
  8
0
 62
     0
 10
343.90991279080743
 20
918.08061911428399
 30
0.0
 11
364.87587845870519
 21
939.04658478218153
 31
0.0
  0
LINE
  5
259F
  8
0
 62
     0
 10
342.34184412660301
 20
921.46229791838539
 30
0.0
 11
359.96016532250161
 21
939.08061911428388
 31
0.0
  0
LINE
  5
25A0
  8
0
 62
     0
 10
342.34184412660301
 20
926.41204538669115
 30
0.0
 11
355.01041785419562
 21
939.08061911428365
 31
0.0
  0
LINE
  5
25A1
  8
0
 62
     0
 10
342.34184412660318
 20
931.36179285499713
 30
0.0
 11
350.06067038588998
 21
939.08061911428388
 31
0.0
  0
LINE
  5
25A2
  8
0
 62
     0
 10
342.34184412660312
 20
936.31154032330289
 30
0.0
 11
345.11092291758428
 21
939.0806191142841
 31
0.0
  0
ENDBLK
  5
25A4
  8
0
  0
ENDSEC
  0
SECTION
  2
ENTITIES
  0
LINE
  5
1BC
  8
0
 10
126.87818989426469
 20
887.84276136387882
 30
0.0
 11
126.87818989426469
 21
903.34276136387848
 31
0.0
1001
ACAD
1000
ASC_BOUNDS
1002
{
1070
    19
1005
2375
1002
}
  0
LINE
  5
1BD
  8
0
 10
146.87818989426469
 20
899.84276136387848
 30
0.0
 11
146.87818989426469
 21
903.34276136387848
 31
0.0
1001
ACAD
1000
ASC_BOUNDS
1002
{
1070
    19
1005
2375
1002
}
  0
LINE
  5
1BE
  8
0
 10
185.87818989426469
 20
856.34276136387859
 30
0.0
 11
185.87818989426469
 21
867.34276136387882
 31
0.0
1001
ACAD
1000
ASC_BOUNDS
1002
{
1070
    19
1005
2375
1005
59C
1002
}
  0
LINE
  5
1BF
  8
0
 10
187.37818989426469
 20
854.84276136387859
 30
0.0
 11
216.37818989426481
 21
854.84276136387859
 31
0.0
1001
ACAD
1000
ASC_BOUNDS
1002
{
1070
    19
1005
59C
1002
}
  0
LINE
  5
1C0
  8
0
 10
181.37818989426469
 20
866.84276136387848
 30
0.0
 11
185.87818989426469
 21
866.84276136387848
 31
0.0
1001
ACAD
1000
ASC_BOUNDS
1002
{
1070
    19
1005
2375
1002
}
  0
LINE
  5
1C1
  8
0
 10
179.37818989426469
 20
868.84276136387848
 30
0.0
 11
179.37818989426469
 21
872.78972188692126
 31
0.0
1001
ACAD
1000
ASC_BOUNDS
1002
{
1070
    19
1005
2375
1002
}
  0
LINE
  5
1C2
  8
0
 10
128.37818989426469
 20
886.34276136387871
 30
0.0
 11
159.70324514754361
 21
886.34276136387894
 31
0.0
1001
ACAD
1000
ASC_BOUNDS
1002
{
1070
    19
1005
2375
1002
}
  0
LINE
  5
1C3
  8
0
 10
128.37818989426469
 20
904.84276136387859
 30
0.0
 11
275.37818989426478
 21
904.84276136387837
 31
0.0
1001
ACAD
1000
ASC_BOUNDS
1002
{
1070
    19
1005
2375
1002
}
  0
LINE
  5
1C7
  8
0
 10
146.87818989426469
 20
899.84276136387848
 30
0.0
 11
201.8781915034867
 21
899.84276136387814
 31
0.0
  0
LINE
  5
1CA
  8
0
 10
185.87818989426469
 20
868.84276136387859
 30
0.0
 11
185.87818989426469
 21
894.34276136387848
 31
0.0
1001
ACAD
1000
ASC_BOUNDS
1002
{
1070
    19
1005
2375
1005
59C
1002
}
  0
LINE
  5
1CD
  8
0
 10
275.37818989426472
 20
886.34276136387848
 30
0.0
 11
201.87819106899681
 21
886.34276136387825
 31
0.0
  0
LINE
  5
1CE
  8
0
 10
222.378193434553
 20
866.84276136387871
 30
0.0
 11
201.87819044140019
 21
866.84276136387814
 31
0.0
  0
LINE
  5
1CF
  8
0
 10
217.87818989426469
 20
856.34276136387859
 30
0.0
 11
217.87818989426469
 21
866.84276136387848
 31
0.0
  0
LINE
  5
1D0
  8
0
 10
276.87818989426478
 20
887.84276136387859
 30
0.0
 11
276.87818989426478
 21
903.34276136387848
 31
0.0
  0
LINE
  5
1D1
  8
0
 10
216.37818989426481
 20
854.84276136387859
 30
0.0
 11
217.87818989426469
 21
856.34276136387859
 31
0.0
  0
LINE
  5
1D2
  8
0
 10
187.37818989426469
 20
854.84276136387859
 30
0.0
 11
185.87818989426469
 21
856.34276136387859
 31
0.0
1001
ACAD
1000
ASC_BOUNDS
1002
{
1070
    19
1005
59C
1002
}
  0
LINE
  5
1D4
  8
0
 10
146.87818989426469
 20
887.84276136387882
 30
0.0
 11
146.87818989426469
 21
894.46062716595986
 31
0.0
1001
ACAD
1000
ASC_BOUNDS
1002
{
1070
    19
1005
2375
1002
}
  0
LINE
  5
1DC
  8
0
  6
DASHDOT_CENTER
 10
201.87819182533099
 20
909.84276136387859
 30
0.0
 11
201.87818989426481
 21
849.84276136387848
 31
0.0
1001
ACAD
1000
ASC_BOUNDS
1002
{
1070
    19
1005
59C
1002
}
  0
LINE
  5
1F7
  8
0
 10
181.37819137474881
 20
895.84276136387791
 30
0.0
 11
201.87819137474889
 21
895.84276136387825
 31
0.0
1001
ACAD
1000
ASC_BOUNDS
1002
{
1070
    19
1005
2375
1002
}
  0
LINE
  5
1F8
  8
0
 10
169.87819137474889
 20
891.84276136387848
 30
0.0
 11
179.87819137474889
 21
891.84276136387871
 31
0.0
1001
ACAD
1000
ASC_BOUNDS
1002
{
1070
    19
1005
2375
1002
}
  0
LINE
  5
1F9
  8
0
 10
179.87819137474889
 20
894.34276136387848
 30
0.0
 11
179.87819137474889
 21
891.84276136387871
 31
0.0
1001
ACAD
1000
ASC_BOUNDS
1002
{
1070
    19
1005
2375
1002
}
  0
ARC
  5
1FA
  8
0
 10
181.37819137474889
 20
894.34276136387848
 30
0.0
 40
1.5
 50
90.0
 51
180.0
1001
ACAD
1000
ASC_BOUNDS
1002
{
1070
    19
1005
2375
1002
}
  0
LINE
  5
1FD
  8
0
 10
201.87819132647229
 20
894.34276136387871
 30
0.0
 11
185.87818989426469
 21
894.34276136387894
 31
0.0
1001
ACAD
1000
ASC_BOUNDS
1002
{
1070
    19
1005
2375
1005
59C
1002
}
  0
LINE
  5
1FF
  8
0
 10
169.87819137474881
 20
891.84276136387848
 30
0.0
 11
146.87818989426469
 21
899.84276136387848
 31
0.0
1001
ACAD
1000
ASC_BOUNDS
1002
{
1070
    19
1005
2375
1002
}
  0
LINE
  5
203
  8
0
 10
188.3781920023454
 20
894.34276141215526
 30
0.0
 11
188.3781920023454
 21
894.34276136387848
 31
0.0
  0
ARC
  5
204
  8
0
 10
186.87819200234549
 20
894.34276136387848
 30
0.0
 40
1.5
 50
0.0000018440320692
 51
89.999999999998366
1001
ACAD
1000
ASC_BOUNDS
1002
{
1070
    19
1005
2375
1002
}
  0
LINE
  5
206
  8
0
 10
224.378193434553
 20
868.84276136387859
 30
0.0
 11
224.378193434553
 21
872.78972188692126
 31
0.0
  0
ARC
  5
207
  8
0
 10
181.37818989426469
 20
868.84276136387848
 30
0.0
 40
2.0
 50
180.0
 51
270.0
1001
ACAD
1000
ASC_BOUNDS
1002
{
1070
    19
1005
2375
1002
}
  0
ARC
  5
208
  8
0
 10
222.378193434553
 20
868.84276136387859
 30
0.0
 40
2.0
 50
270.0
 51
0.0
  0
ARC
  5
209
  8
0
 10
177.37818989426469
 20
872.78972188692126
 30
0.0
 40
2.0
 50
0.0
 51
55.535380902858797
1001
ACAD
1000
ASC_BOUNDS
1002
{
1070
    19
1005
2375
1002
}
  0
ARC
  5
20A
  8
0
 10
226.378193434553
 20
872.78972188692126
 30
0.0
 40
2.0
 50
124.4646190971411
 51
180.0
  0
LINE
  5
210
  8
0
 10
244.0531381812736
 20
886.34276136387825
 30
0.0
 11
225.24639899429991
 21
874.43867347657215
 31
0.0
  0
LINE
  5
212
  8
0
 10
159.7032451475435
 20
886.34276136387894
 30
0.0
 11
178.5099843345179
 21
874.43867347657215
 31
0.0
1001
ACAD
1000
ASC_BOUNDS
1002
{
1070
    19
1005
2375
1002
}
  0
LINE
  5
213
  8
0
 10
159.70324514754381
 20
886.34276136387871
 30
0.0
 11
146.87818989426469
 21
894.46062716595975
 31
0.0
1001
ACAD
1000
ASC_BOUNDS
1002
{
1070
    19
1005
2375
1002
}
  0
LINE
  5
214
  8
0
 10
198.87818941149811
 20
874.84276136387848
 30
0.0
 11
201.8781906988757
 21
874.84276136387848
 31
0.0
  0
LINE
  5
216
  8
0
 10
198.87818941149811
 20
874.84276136387848
 30
0.0
 11
198.87819005518691
 21
854.84276136387859
 31
0.0
1001
ACAD
1000
ASC_BOUNDS
1002
{
1070
    19
1005
59C
1002
}
  0
LINE
  5
217
  8
0
 10
198.87818941149811
 20
874.84276136387848
 30
0.0
 11
201.87819075462079
 21
876.57481294689967
 31
0.0
1001
ACAD
1000
ASC_BOUNDS
1002
{
1070
    19
1005
59C
1002
}
  0
LINE
  5
2AE
  8
0
  6
DASHDOT_CENTER
 10
201.87818989426481
 20
816.49472088690402
 30
0.0
 11
201.87818989426481
 21
656.49472088690413
 31
0.0
  0
LINE
  5
2B0
  8
0
  6
DASHDOT_CENTER
 10
121.87818989426469
 20
736.49472088690413
 30
0.0
 11
281.87818989426472
 21
736.49472088690413
 31
0.0
  0
CIRCLE
  5
2B1
  8
0
 10
201.87818989426481
 20
736.49472088690413
 30
0.0
 40
13.499997891919289
  0
CIRCLE
  5
2B2
  8
0
 10
201.87818989426481
 20
736.49472088690413
 30
0.0
 40
21.999998519515881
  0
CIRCLE
  5
2B3
  8
0
 10
201.87818989426481
 20
736.49472088690413
 30
0.0
 40
31.999998519515881
  0
LINE
  5
359
  8
0
  6
DASHDOT_CENTER
 10
337.34184412660301
 20
736.49472088690413
 30
0.0
 11
547.34184412660295
 21
736.49472088690413
 31
0.0
  0
LINE
  5
35C
  8
0
  6
DASHDOT_CENTER
 10
442.34184412660301
 20
841.49472088690402
 30
0.0
 11
442.34184412660301
 21
631.49472088690413
 31
0.0
  0
CIRCLE
  5
35E
  8
0
 10
442.34184412660301
 20
736.49472088690413
 30
0.0
 40
42.0
  0
CIRCLE
  5
35F
  8
0
 10
442.34184412660301
 20
736.49472088690413
 30
0.0
 40
27.5
  0
CIRCLE
  5
360
  8
0
 10
442.34184412660301
 20
736.49472088690413
 30
0.0
 40
17.0
  0
LINE
  5
3EF
  8
0
 10
275.37818989426472
 20
904.84276136387859
 30
0.0
 11
276.87818989426478
 21
903.34276136387848
 31
0.0
  0
LINE
  5
3F0
  8
0
 10
276.87818989426478
 20
887.84276136387859
 30
0.0
 11
275.37818989426472
 21
886.34276136387848
 31
0.0
  0
LINE
  5
3F1
  8
0
 10
276.87818989426478
 20
903.34276136387848
 30
0.0
 11
201.87819161613231
 21
903.34276377771164
 31
0.0
  0
LINE
  5
3F2
  8
0
 10
276.87818989426478
 20
887.84276136387859
 30
0.0
 11
201.8781911172735
 21
887.84276377771141
 31
0.0
  0
LINE
  5
3F3
  8
0
 10
128.37818989426469
 20
904.84276136387859
 30
0.0
 11
126.87818989426469
 21
903.34276136387848
 31
0.0
1001
ACAD
1000
ASC_BOUNDS
1002
{
1070
    19
1005
2375
1002
}
  0
LINE
  5
3F4
  8
0
 10
128.37818989426469
 20
886.34276136387871
 30
0.0
 11
126.87818989426469
 21
887.84276136387882
 31
0.0
1001
ACAD
1000
ASC_BOUNDS
1002
{
1070
    19
1005
2375
1002
}
  0
LINE
  5
3F6
  8
0
 10
146.87818989426469
 20
903.34276136387848
 30
0.0
 11
145.37818989426469
 21
904.84276136387859
 31
0.0
1001
ACAD
1000
ASC_BOUNDS
1002
{
1070
    19
1005
2375
1002
}
  0
LINE
  5
3F7
  8
0
 10
146.87818989426469
 20
887.84276136387882
 30
0.0
 11
145.37818989426469
 21
886.34276136387894
 31
0.0
1001
ACAD
1000
ASC_BOUNDS
1002
{
1070
    19
1005
2375
1002
}
  0
LINE
  5
4D0
  8
0
 10
342.34184412660312
 20
937.58061911428399
 30
0.0
 11
342.34184412660312
 21
919.58061911428388
 31
0.0
1001
ACAD
1000
ASC_BOUNDS
1002
{
1070
    19
1005
2394
1002
}
  0
LINE
  5
4D1
  8
0
 10
343.84184412660312
 20
939.0806191142841
 30
0.0
 11
540.84184412660557
 21
939.08061911428126
 31
0.0
1001
ACAD
1000
ASC_BOUNDS
1002
{
1070
    19
1005
2394
1002
}
  0
LINE
  5
4D2
  8
0
 10
343.84184412660312
 20
918.08061911428376
 30
0.0
 11
392.58603017311361
 21
918.08061911428456
 31
0.0
1001
ACAD
1000
ASC_BOUNDS
1002
{
1070
    19
1005
2394
1002
}
  0
LINE
  5
4D8
  8
0
 10
423.84184412660312
 20
881.0806191142841
 30
0.0
 11
460.84184412660272
 21
881.08061911428365
 31
0.0
1001
ACAD
1000
ASC_BOUNDS
1002
{
1070
    19
1005
789
1002
}
  0
LINE
  5
4D9
  8
0
 10
413.84184412660301
 20
897.08061911428376
 30
0.0
 11
422.34184412660312
 21
897.08061911428388
 31
0.0
1001
ACAD
1000
ASC_BOUNDS
1002
{
1070
    19
1005
2394
1002
}
  0
LINE
  5
4DA
  8
0
  6
DASHDOT_CENTER
 10
442.34184412660312
 20
876.08061911428399
 30
0.0
 11
442.34184412660301
 21
944.08061911428399
 31
0.0
1001
ACAD
1000
ASC_BOUNDS
1002
{
1070
    19
1005
789
1002
}
  0
LINE
  5
4DE
  8
0
 10
413.34184412660301
 20
909.58061911428388
 30
0.0
 11
413.34184412660301
 21
897.58061911428365
 31
0.0
1001
ACAD
1000
ASC_BOUNDS
1002
{
1070
    19
1005
2394
1002
}
  0
LINE
  5
4E0
  8
0
 10
413.34184412660301
 20
909.58061911428388
 30
0.0
 11
366.34184412660312
 21
928.82823816190319
 31
0.0
1001
ACAD
1000
ASC_BOUNDS
1002
{
1070
    19
1005
2394
1002
}
  0
LINE
  5
520
  8
0
 10
422.34184412660301
 20
882.58061911428422
 30
0.0
 11
422.34184412660318
 21
897.58061911428399
 31
0.0
1001
ACAD
1000
ASC_BOUNDS
1002
{
1070
    19
1005
2394
1005
789
1002
}
  0
LINE
  5
521
  8
0
 10
422.34184412660301
 20
882.58061911428422
 30
0.0
 11
423.84184412660312
 21
881.0806191142841
 31
0.0
1001
ACAD
1000
ASC_BOUNDS
1002
{
1070
    19
1005
789
1002
}
  0
LINE
  5
522
  8
0
 10
442.34184412660312
 20
882.58061911428422
 30
0.0
 11
462.34184412660312
 21
882.58061911428422
 31
0.0
  0
LINE
  5
523
  8
0
 10
462.34184412660301
 20
882.58061911428422
 30
0.0
 11
460.84184412660312
 21
881.0806191142841
 31
0.0
  0
LINE
  5
524
  8
0
 10
462.34184412660301
 20
882.58061911428422
 30
0.0
 11
462.34184412660289
 21
897.08061911428388
 31
0.0
  0
LINE
  5
525
  8
0
 10
471.34184412660301
 20
908.2384543415784
 30
0.0
 11
471.34184412660301
 21
897.58061911428365
 31
0.0
  0
LINE
  5
527
  8
0
 10
395.81520697004709
 20
921.08061911428445
 30
0.0
 11
414.84184412660301
 21
921.08061911428433
 31
0.0
1001
ACAD
1000
ASC_BOUNDS
1002
{
1070
    19
1005
2394
1002
}
  0
LINE
  5
528
  8
0
 10
395.8152069700476
 20
921.08061911428433
 30
0.0
 11
366.34184412660312
 21
933.15066294540907
 31
0.0
1001
ACAD
1000
ASC_BOUNDS
1002
{
1070
    19
1005
2394
1002
}
  0
LINE
  5
52E
  8
0
 10
415.84184412660312
 20
925.08061911428422
 30
0.0
 11
442.34184412660301
 21
925.08061911428331
 31
0.0
1001
ACAD
1000
ASC_BOUNDS
1002
{
1070
    19
1005
2394
1002
}
  0
LINE
  5
52F
  8
0
 10
414.84184412660312
 20
921.08061911428433
 30
0.0
 11
414.84184412660318
 21
924.08061911428422
 31
0.0
1001
ACAD
1000
ASC_BOUNDS
1002
{
1070
    19
1005
2394
1002
}
  0
ARC
  5
530
  8
0
 10
415.84184412660312
 20
924.08061911428422
 30
0.0
 40
1.0
 50
89.999999999999446
 51
179.99999999999909
1001
ACAD
1000
ASC_BOUNDS
1002
{
1070
    19
1005
2394
1002
}
  0
LINE
  5
56D
  8
0
 10
422.34184412660312
 20
923.58061911428399
 30
0.0
 11
442.34184412660301
 21
923.58061911428399
 31
0.0
1001
ACAD
1000
ASC_BOUNDS
1002
{
1070
    19
1005
2394
1005
789
1002
}
  0
LINE
  5
570
  8
0
 10
425.34184412660312
 20
923.58061911428422
 30
0.0
 11
425.34184412660301
 21
924.58061911428399
 31
0.0
1001
ACAD
1000
ASC_BOUNDS
1002
{
1070
    19
1005
2394
1002
}
  0
LINE
  5
572
  8
0
 10
542.34184412660295
 20
937.0806191142841
 30
0.0
 11
542.34184412660295
 21
920.08061911428376
 31
0.0
  0
LINE
  5
575
  8
0
 10
540.84184412660284
 20
918.08061911428365
 30
0.0
 11
442.34184412660301
 21
918.08061911428456
 31
0.0
  0
LINE
  5
576
  8
0
 10
472.58389213431121
 20
910.08926734601209
 30
0.0
 11
492.09765808009251
 21
918.08061911428422
 31
0.0
  0
LINE
  5
57C
  8
0
 10
364.84184412660312
 20
939.08061911428365
 30
0.0
 11
366.34184412660312
 21
937.58061911428365
 31
0.0
1001
ACAD
1000
ASC_BOUNDS
1002
{
1070
    19
1005
2394
1002
}
  0
LINE
  5
57D
  8
0
 10
343.84184412660312
 20
939.0806191142841
 30
0.0
 11
342.34184412660312
 21
937.58061911428399
 31
0.0
1001
ACAD
1000
ASC_BOUNDS
1002
{
1070
    19
1005
2394
1002
}
  0
LINE
  5
57E
  8
0
 10
343.84184412660312
 20
918.08061911428376
 30
0.0
 11
342.34184412660312
 21
919.58061911428388
 31
0.0
1001
ACAD
1000
ASC_BOUNDS
1002
{
1070
    19
1005
2394
1002
}
  0
LINE
  5
57F
  8
0
 10
542.34184412660295
 20
937.58061911428399
 30
0.0
 11
542.34184412660295
 21
919.58061911428388
 31
0.0
  0
LINE
  5
580
  8
0
 10
540.84184412660295
 20
918.08061911428376
 30
0.0
 11
542.34184412660295
 21
919.58061911428388
 31
0.0
  0
LINE
  5
581
  8
0
 10
540.84184412660295
 20
939.0806191142841
 30
0.0
 11
542.34184412660295
 21
937.58061911428399
 31
0.0
  0
LINE
  5
582
  8
0
 10
366.34184412660312
 20
937.58061911428365
 30
0.0
 11
442.34184412660312
 21
937.58061911428388
 31
0.0
  0
ARC
  5
583
  8
0
 10
424.84184412660301
 20
924.58061911428399
 30
0.0
 40
0.5
 50
0.0000000000043256
 51
89.999999999998764
1001
ACAD
1000
ASC_BOUNDS
1002
{
1070
    19
1005
2394
1002
}
  0
LINE
  5
584
  8
0
 10
442.34184412660301
 20
897.08061911428365
 30
0.0
 11
470.84184412660301
 21
897.08061911428365
 31
0.0
  0
ARC
  5
586
  8
0
 10
413.84184412660301
 20
897.58061911428365
 30
0.0
 40
0.5
 50
180.0
 51
270.00000000000068
1001
ACAD
1000
ASC_BOUNDS
1002
{
1070
    19
1005
2394
1002
}
  0
ARC
  5
587
  8
0
 10
470.84184412660301
 20
897.58061911428365
 30
0.0
 40
0.5
 50
270.0
 51
0.0
  0
LINE
  5
588
  8
0
 10
471.34184412660301
 20
897.58061911428365
 30
0.0
 11
442.34184412660312
 21
897.58061911428365
 31
0.0
  0
ARC
  5
589
  8
0
 10
473.34184412660312
 20
908.2384543415784
 30
0.0
 40
2.0
 50
112.27026792005501
 51
180.0
  0
LINE
  5
58E
  8
0
 10
183.87818989426469
 20
868.84276136387825
 30
0.0
 11
185.87818989426461
 21
868.84276136387859
 31
0.0
1001
ACAD
1000
ASC_BOUNDS
1002
{
1070
    19
1005
2375
1005
59C
1002
}
  0
LINE
  5
58F
  8
0
 10
183.87818989426469
 20
867.34276136387837
 30
0.0
 11
183.87818989426469
 21
868.84276136387825
 31
0.0
1001
ACAD
1000
ASC_BOUNDS
1002
{
1070
    19
1005
2375
1005
59C
1002
}
  0
LINE
  5
590
  8
0
 10
183.87818989426469
 20
867.34276136387859
 30
0.0
 11
185.87818989426469
 21
867.34276136387859
 31
0.0
1001
ACAD
1000
ASC_BOUNDS
1002
{
1070
    19
1005
2375
1005
59C
1002
}
  0
INSERT
  5
59C
  8
0
  6
CONTINUOUS
  2
*X0
 10
0.0
 20
0.0
 30
0.0
1001
ACAD
1000
HATCH
1002
{
1070
    19
1000
_USER
1040
2.5
1040
0.7853981633974483
1000
ASC_BOUNDS
1070
     1
1070
     1
1070
    11
1005
1DC
1005
217
1005
216
1005
1BF
1005
1D2
1005
1BE
1005
590
1005
58F
1005
58E
1005
1CA
1005
1FD
1000
ASC_SEEDPOINT
1011
193.9213048284391
1021
0.0
1031
0.0
1021
879.56877945918859
1031
0.0
1000
R14_HATCH_DATA
1000
59C
1011
1.0
1021
0.0
1031
0.0
1021
0.0
1031
0.0
1011
0.0
1021
0.0
1031
0.0
1021
1.0
1031
0.0
1011
0.0
1021
0.0
1031
0.0
1021
0.0
1031
1.0
1040
0.0
1010
0.0
1020
0.0
1030
1.0
1000
_USER
1070
     0
1070
     1
1071
        1
1071
        7
1070
     0
1070
     1
1071
       11
1040
198.87818941149811
1040
874.84276136387848
1040
201.87819075462079
1040
876.57481294689967
1040
201.87819132647229
1040
894.34276136387848
1040
185.87818989426481
1040
894.34276136387894
1040
185.87818989426469
1040
868.84276136387859
1040
183.87818989426469
1040
868.84276136387825
1040
183.87818989426469
1040
867.34276136387882
1040
185.87818989426469
1040
867.34276136387859
1040
185.87818989426469
1040
856.34276136387859
1040
187.37818989426461
1040
854.84276136387859
1040
198.87819005518691
1040
854.84276136387859
1071
       11
1005
1FD
1005
1CA
1005
58E
1005
58F
1005
590
1005
1BE
1005
1D2
1005
1BF
1005
216
1005
217
1005
1DC
1070
     0
1070
     0
1040
0.7853981633974483
1040
2.5
1070
     0
1070
     1
1040
0.7853981633974483
1040
54.395646134527851
1040
0.0
1040
-1.767766952966368
1040
1.767766952966368
1070
     0
1040
0.1043374646414699
1071
        1
1040
193.9213048284391
1040
879.56877945918859
1040
0.0
1002
}
  0
LINE
  5
5FA
  8
0
 10
420.34184412660318
 20
899.08061911428388
 30
0.0
 11
422.34184412660301
 21
899.08061911428388
 31
0.0
1001
ACAD
1000
ASC_BOUNDS
1002
{
1070
    19
1005
2394
1005
789
1002
}
  0
LINE
  5
5FB
  8
0
 10
420.34184412660318
 20
897.58061911428399
 30
0.0
 11
422.34184412660312
 21
897.58061911428399
 31
0.0
1001
ACAD
1000
ASC_BOUNDS
1002
{
1070
    19
1005
2394
1005
789
1002
}
  0
LINE
  5
5FC
  8
0
 10
420.34184412660318
 20
897.58061911428399
 30
0.0
 11
420.34184412660318
 21
899.0806191142841
 31
0.0
1001
ACAD
1000
ASC_BOUNDS
1002
{
1070
    19
1005
2394
1005
789
1002
}
  0
LINE
  5
5FD
  8
0
 10
422.34184412660318
 20
899.08061911428388
 30
0.0
 11
422.34184412660312
 21
923.58061911428399
 31
0.0
1001
ACAD
1000
ASC_BOUNDS
1002
{
1070
    19
1005
2394
1005
789
1002
}
  0
LINE
  5
644
  8
0
 10
366.34184412660312
 20
937.58061911428399
 30
0.0
 11
366.34184412660312
 21
933.15066294540895
 31
0.0
1001
ACAD
1000
ASC_BOUNDS
1002
{
1070
    19
1005
2394
1002
}
  0
ARC
  5
645
  8
0
 10
365.34184412660312
 20
919.08061911428399
 30
0.0
 40
1.0
 50
270.00000000000023
 51
0.0
1001
ACAD
1000
ASC_BOUNDS
1002
{
1070
    19
1005
2394
1002
}
  0
LINE
  5
646
  8
0
 10
366.34184412660312
 20
928.82823816190296
 30
0.0
 11
366.34184412660312
 21
919.08061911428399
 31
0.0
1001
ACAD
1000
ASC_BOUNDS
1002
{
1070
    19
1005
2394
1002
}
  0
LINE
  5
647
  8
0
 10
366.34184412660312
 20
933.15066294540907
 30
0.0
 11
442.34184412660312
 21
933.15066294540907
 31
0.0
  0
LINE
  5
6DC
  8
0
 10
146.87818989426469
 20
903.12380415092207
 30
0.0
 11
201.87819160908521
 21
903.12380238077776
 31
0.0
  0
LINE
  5
6DD
  8
0
  6
DASHDOT_CENTER
 10
63.89417918840104
 20
736.49472088690413
 30
0.0
 11
-78.10582081159896
 21
736.49472088690413
 31
0.0
  0
LINE
  5
6E0
  8
0
  6
DASHDOT_CENTER
 10
-7.1058208115989601
 20
807.49472088690413
 30
0.0
 11
-7.1058208115989601
 21
665.49472088690413
 31
0.0
  0
CIRCLE
  5
720
  8
0
 10
-7.1058208115989601
 20
736.49472088690413
 30
0.0
 40
25.0
  0
CIRCLE
  5
722
  8
0
 10
-7.1058208115989601
 20
736.49472088690413
 30
0.0
 40
16.0
  0
CIRCLE
  5
723
  8
0
 10
-7.1058208115989601
 20
736.49472088690413
 30
0.0
 40
12.0
  0
LINE
  5
767
  8
0
  6
DASHDOT_CENTER
 10
-7.1058208115989601
 20
832.00950971331145
 30
0.0
 11
-7.1058208115989601
 21
886.0095097133111
 31
0.0
1001
ACAD
1000
ASC_BOUNDS
1002
{
1070
    19
1005
109C
1002
}
  0
LINE
  5
768
  8
0
 10
8.8941791884010382
 20
838.00950971331145
 30
0.0
 11
8.8941791884010382
 21
850.00950971331133
 31
0.0
  0
LINE
  5
76A
  8
0
 10
-22.10582081159896
 20
837.00950971331145
 30
0.0
 11
7.894179188401039
 21
837.00950971331145
 31
0.0
1001
ACAD
1000
ASC_BOUNDS
1002
{
1070
    19
1005
109C
1002
}
  0
LINE
  5
76C
  8
0
 10
8.8941791884010382
 20
838.00950971331145
 30
0.0
 11
7.894179188401039
 21
837.00950971331145
 31
0.0
  0
LINE
  5
76D
  8
0
 10
-22.10582081159896
 20
837.00950971331145
 30
0.0
 11
-23.10582081159896
 21
838.00950971331145
 31
0.0
1001
ACAD
1000
ASC_BOUNDS
1002
{
1070
    19
1005
109C
1002
}
  0
LINE
  5
76E
  8
0
 10
8.8941791884010382
 20
838.00950971331145
 30
0.0
 11
-7.1058208115989601
 21
838.00950971331145
 31
0.0
  0
LINE
  5
76F
  8
0
 10
-28.10582081159896
 20
850.00950971331133
 30
0.0
 11
-23.10582081159896
 21
850.00950971331133
 31
0.0
1001
ACAD
1000
ASC_BOUNDS
1002
{
1070
    19
1005
2318
1002
}
  0
LINE
  5
770
  8
0
 10
-29.10582081159896
 20
851.00950971331145
 30
0.0
 11
-29.10582081159896
 21
856.67281594643293
 31
0.0
1001
ACAD
1000
ASC_BOUNDS
1002
{
1070
    19
1005
2318
1002
}
  0
LINE
  5
771
  8
0
 10
439.34184412660301
 20
881.0806191142841
 30
0.0
 11
439.34184412660301
 21
901.08061911428399
 31
0.0
1001
ACAD
1000
ASC_BOUNDS
1002
{
1070
    19
1005
789
1002
}
  0
LINE
  5
772
  8
0
 10
439.34184412660278
 20
901.08061911428376
 30
0.0
 11
442.34184412660312
 21
901.08061911428376
 31
0.0
  0
LINE
  5
773
  8
0
 10
439.34184412660312
 20
901.08061911428399
 30
0.0
 11
442.34184412660312
 21
902.81266992185294
 31
0.0
1001
ACAD
1000
ASC_BOUNDS
1002
{
1070
    19
1005
789
1002
}
  0
INSERT
  5
789
  8
0
  6
CONTINUOUS
  2
*X1
 10
0.0
 20
0.0
 30
0.0
1001
ACAD
1000
HATCH
1002
{
1070
    19
1000
_USER
1040
3.0
1040
0.7853981633974483
1000
ASC_BOUNDS
1070
     1
1070
     1
1070
    11
1005
4DA
1005
773
1005
771
1005
4D8
1005
521
1005
520
1005
5FB
1005
5FC
1005
5FA
1005
5FD
1005
56D
1000
ASC_SEEDPOINT
1011
431.71706799881622
1021
0.0
1031
0.0
1021
912.05779338859384
1031
0.0
1000
R14_HATCH_DATA
1000
789
1011
1.0
1021
0.0
1031
0.0
1021
0.0
1031
0.0
1011
0.0
1021
0.0
1031
0.0
1021
1.0
1031
0.0
1011
0.0
1021
0.0
1031
0.0
1021
0.0
1031
1.0
1040
0.0
1010
0.0
1020
0.0
1030
1.0
1000
_USER
1070
     0
1070
     1
1071
        1
1071
        7
1070
     0
1070
     1
1071
       11
1040
442.34184412660312
1040
923.58061911428399
1040
422.34184412660312
1040
923.58061911428399
1040
422.34184412660318
1040
899.0806191142841
1040
420.34184412660312
1040
899.0806191142841
1040
420.34184412660318
1040
897.58061911428399
1040
422.34184412660318
1040
897.58061911428399
1040
422.34184412660301
1040
882.58061911428422
1040
423.84184412660289
1040
881.0806191142841
1040
439.34184412660312
1040
881.08061911428388
1040
439.34184412660312
1040
901.08061911428399
1040
442.34184412660301
1040
902.81266992185317
1071
       11
1005
56D
1005
5FD
1005
5FA
1005
5FC
1005
5FB
1005
520
1005
521
1005
4D8
1005
771
1005
773
1005
4DA
1070
     0
1070
     0
1040
0.7853981633974483
1040
3.0
1070
     0
1070
     1
1040
0.7853981633974483
1040
0.0
1040
0.0
1040
-2.1213203435596419
1040
2.1213203435596419
1070
     0
1040
0.3169223485539868
1071
        1
1040
431.71706799881622
1040
912.05779338859384
1040
0.0
1002
}
  0
LINE
  5
7BD
  8
0
 10
-10.105820811598839
 20
857.00950971331145
 30
0.0
 11
-7.1058208115989601
 21
857.00950971331145
 31
0.0
  0
LINE
  5
7BE
  8
0
 10
-10.10582081159896
 20
837.00950971331145
 30
0.0
 11
-10.10582081159896
 21
857.00950971331145
 31
0.0
1001
ACAD
1000
ASC_BOUNDS
1002
{
1070
    19
1005
109C
1002
}
  0
LINE
  5
7BF
  8
0
 10
-10.10582081159896
 20
857.00950971331145
 30
0.0
 11
-7.1058208115989601
 21
858.74156052088028
 31
0.0
1001
ACAD
1000
ASC_BOUNDS
1002
{
1070
    19
1005
109C
1002
}
  0
ARC
  5
7FC
  8
0
 10
-28.10582081159896
 20
851.00950971331145
 30
0.0
 40
1.0
 50
180.00000000000011
 51
269.99999999999972
1001
ACAD
1000
ASC_BOUNDS
1002
{
1070
    19
1005
2318
1002
}
  0
LINE
  5
81F
  8
0
 10
-68.60582081159896
 20
881.00950971331156
 30
0.0
 11
54.39417918840104
 21
881.00950971331031
 31
0.0
1001
ACAD
1000
ASC_BOUNDS
1002
{
1070
    19
1005
2318
1002
}
  0
LINE
  5
820
  8
0
 10
55.39417918840104
 20
866.00950971331145
 30
0.0
 11
55.39417918840104
 21
880.00950971331042
 31
0.0
  0
LINE
  5
821
  8
0
 10
-68.60582081159896
 20
865.00950971331099
 30
0.0
 11
-38.705820811598009
 21
865.00950971331099
 31
0.0
1001
ACAD
1000
ASC_BOUNDS
1002
{
1070
    19
1005
2318
1002
}
  0
LINE
  5
822
  8
0
 10
-69.60582081159896
 20
866.00950971331099
 30
0.0
 11
-69.60582081159896
 21
880.00950971331156
 31
0.0
1001
ACAD
1000
ASC_BOUNDS
1002
{
1070
    19
1005
2318
1002
}
  0
LINE
  5
825
  8
0
 10
-32.065181507995639
 20
861.55084340935127
 30
0.0
 11
-51.605820811598953
 21
871.7282597133111
 31
0.0
1001
ACAD
1000
ASC_BOUNDS
1002
{
1070
    19
1005
2318
1002
}
  0
LINE
  5
826
  8
0
 10
17.85353988479778
 20
861.5508434093515
 30
0.0
 11
24.494179188400999
 21
865.00950971331145
 31
0.0
  0
LINE
  5
827
  8
0
 10
14.894179188401029
 20
851.00950971331145
 30
0.0
 11
14.894179188401029
 21
856.67281594643305
 31
0.0
  0
ARC
  5
828
  8
0
 10
13.89417918840104
 20
851.00950971331145
 30
0.0
 40
1.0
 50
270.00000000000023
 51
359.99999999999977
  0
ARC
  5
829
  8
0
 10
20.39417918840104
 20
856.67281594643305
 30
0.0
 40
5.5
 50
117.51200262385041
 51
180.0
  0
ARC
  5
82A
  8
0
 10
-34.60582081159896
 20
856.67281594643293
 30
0.0
 40
5.5
 50
0.0
 51
62.487997376148748
1001
ACAD
1000
ASC_BOUNDS
1002
{
1070
    19
1005
2318
1002
}
  0
LINE
  5
82B
  8
0
 10
-7.1058208115989601
 20
865.00950971331122
 30
0.0
 11
54.39417918840104
 21
865.00950971331145
 31
0.0
  0
LINE
  5
833
  8
0
 10
-23.10582081159896
 20
872.00950971331122
 30
0.0
 11
-7.1058208115989601
 21
872.00950971331122
 31
0.0
1001
ACAD
1000
ASC_BOUNDS
1002
{
1070
    19
1005
2318
1005
109C
1002
}
  0
LINE
  5
834
  8
0
 10
-32.10582081159896
 20
871.00950971331145
 30
0.0
 11
-23.60582081159896
 21
871.00950971331145
 31
0.0
1001
ACAD
1000
ASC_BOUNDS
1002
{
1070
    19
1005
2318
1002
}
  0
LINE
  5
837
  8
0
 10
-51.60582081159896
 20
877.04522399902567
 30
0.0
 11
-32.10582081159896
 21
871.00950971331145
 31
0.0
1001
ACAD
1000
ASC_BOUNDS
1002
{
1070
    19
1005
2318
1002
}
  0
LINE
  5
838
  8
0
 10
-22.60582081159907
 20
873.25950971331133
 30
0.0
 11
-7.1058208115989601
 21
873.25950971331201
 31
0.0
1001
ACAD
1000
ASC_BOUNDS
1002
{
1070
    19
1005
2318
1002
}
  0
LINE
  5
839
  8
0
 10
-23.60582081159896
 20
871.00950971331145
 30
0.0
 11
-23.60582081159896
 21
872.25950971331145
 31
0.0
1001
ACAD
1000
ASC_BOUNDS
1002
{
1070
    19
1005
2318
1002
}
  0
LINE
  5
83A
  8
0
 10
-19.10582081159896
 20
872.00950971331122
 30
0.0
 11
-19.10582081159896
 21
872.25950971331145
 31
0.0
1001
ACAD
1000
ASC_BOUNDS
1002
{
1070
    19
1005
2318
1002
}
  0
ARC
  5
83B
  8
0
 10
-20.10582081159896
 20
872.25950971331145
 30
0.0
 40
1.0
 50
0.0
 51
90.000000000003254
1001
ACAD
1000
ASC_BOUNDS
1002
{
1070
    19
1005
2318
1002
}
  0
ARC
  5
83C
  8
0
 10
-22.60582081159896
 20
872.25950971331145
 30
0.0
 40
1.0
 50
90.000000000004334
 51
180.0
1001
ACAD
1000
ASC_BOUNDS
1002
{
1070
    19
1005
2318
1002
}
  0
LINE
  5
87A
  8
0
 10
-23.10582081159896
 20
838.00950971331145
 30
0.0
 11
-23.10582081159896
 21
851.00950971331133
 31
0.0
1001
ACAD
1000
ASC_BOUNDS
1002
{
1070
    19
1005
2318
1005
109C
1002
}
  0
LINE
  5
87B
  8
0
 10
-7.1058208115989601
 20
850.00950971331145
 30
0.0
 11
13.89417918840104
 21
850.00950971331145
 31
0.0
  0
LINE
  5
87D
  8
0
 10
-51.60582081159896
 20
866.00950971331099
 30
0.0
 11
-51.605820811598953
 21
871.72825971331099
 31
0.0
1001
ACAD
1000
ASC_BOUNDS
1002
{
1070
    19
1005
2318
1002
}
  0
LINE
  5
87E
  8
0
 10
-51.60582081159896
 20
877.04522399902567
 30
0.0
 11
-51.60582081159896
 21
880.00950971331145
 31
0.0
1001
ACAD
1000
ASC_BOUNDS
1002
{
1070
    19
1005
2318
1002
}
  0
LINE
  5
8D6
  8
0
 10
-68.60582081159896
 20
881.00950971331156
 30
0.0
 11
-69.60582081159896
 21
880.00950971331156
 31
0.0
1001
ACAD
1000
ASC_BOUNDS
1002
{
1070
    19
1005
2318
1002
}
  0
LINE
  5
8D7
  8
0
 10
-68.60582081159896
 20
865.00950971331099
 30
0.0
 11
-69.60582081159896
 21
866.00950971331099
 31
0.0
1001
ACAD
1000
ASC_BOUNDS
1002
{
1070
    19
1005
2318
1002
}
  0
LINE
  5
8D8
  8
0
 10
-52.60582081159896
 20
881.00950971331145
 30
0.0
 11
-51.60582081159896
 21
880.00950971331145
 31
0.0
1001
ACAD
1000
ASC_BOUNDS
1002
{
1070
    19
1005
2318
1002
}
  0
LINE
  5
8D9
  8
0
 10
-52.60582081159896
 20
865.00950971331099
 30
0.0
 11
-51.60582081159896
 21
866.00950971331099
 31
0.0
1001
ACAD
1000
ASC_BOUNDS
1002
{
1070
    19
1005
2318
1002
}
  0
LINE
  5
8DA
  8
0
 10
55.39417918840104
 20
880.00950971331042
 30
0.0
 11
54.39417918840104
 21
881.00950971331031
 31
0.0
  0
LINE
  5
8DB
  8
0
 10
55.39417918840104
 20
866.00950971331145
 30
0.0
 11
54.39417918840104
 21
865.00950971331145
 31
0.0
  0
LINE
  5
8DC
  8
0
 10
55.39417918840104
 20
866.00950971331145
 30
0.0
 11
-7.1058208115989601
 21
866.00950971331145
 31
0.0
  0
LINE
  5
8DD
  8
0
 10
55.39417918840104
 20
880.00950971331042
 30
0.0
 11
-7.1058208115989601
 21
880.00950971331054
 31
0.0
  0
LINE
  5
989
  8
0
 10
-51.60582081159896
 20
880.00950971331145
 30
0.0
 11
-7.1058208115989601
 21
880.00950971331145
 31
0.0
  0
LINE
  5
98A
  8
0
 10
-51.60582081159896
 20
877.04522399902567
 30
0.0
 11
-7.1058208115989601
 21
877.04522399902567
 31
0.0
  0
LINE
  5
A06
  8
0
 10
542.34184412660295
 20
937.58061911428399
 30
0.0
 11
442.34184412660301
 21
937.58061911428399
 31
0.0
  0
LINE
  5
A07
  8
0
 10
542.34184412660295
 20
919.58061911428388
 30
0.0
 11
442.34184412660301
 21
919.58061911428388
 31
0.0
  0
LINE
  5
A44
  8
0
  6
DASHDOT_CENTER
 10
-129.23514627148549
 20
736.49472088690413
 30
0.0
 11
-244.23514627148549
 21
736.49472088690413
 31
0.0
  0
LINE
  5
A47
  8
0
  6
DASHDOT_CENTER
 10
-186.73514627148549
 20
791.49472088690413
 30
0.0
 11
-186.73514627148549
 21
681.49472088690413
 31
0.0
  0
CIRCLE
  5
A49
  8
0
 10
-186.73514627148549
 20
736.49472088690413
 30
0.0
 40
21.0
  0
CIRCLE
  5
A4A
  8
0
 10
-186.73514627148549
 20
736.49472088690413
 30
0.0
 40
14.0
  0
CIRCLE
  5
A4C
  8
0
 10
-186.73514627148549
 20
736.49472088690413
 30
0.0
 40
10.0
  0
LINE
  5
ACB
  8
0
  6
DASHDOT_CENTER
 10
-186.73514627148549
 20
816.40094098334134
 30
0.0
 11
-186.73514627148549
 21
861.40094098334055
 31
0.0
1001
ACAD
1000
ASC_BOUNDS
1002
{
1070
    19
1005
10EC
1002
}
  0
LINE
  5
ACC
  8
0
 10
-197.73514627148549
 20
821.40094098334146
 30
0.0
 11
-175.73514627148549
 21
821.40094098334123
 31
0.0
1001
ACAD
1000
ASC_BOUNDS
1002
{
1070
    19
1005
10EC
1002
}
  0
LINE
  5
ACD
  8
0
 10
-174.73514627148549
 20
822.40094098334123
 30
0.0
 11
-174.73514627148549
 21
832.40094098334112
 31
0.0
  0
LINE
  5
ACE
  8
0
 10
-198.73514627148549
 20
822.40094098334134
 30
0.0
 11
-198.73514627148549
 21
833.40094098334134
 31
0.0
1001
ACAD
1000
ASC_BOUNDS
1002
{
1070
    19
1005
22F8
1005
10EC
1002
}
  0
LINE
  5
AD0
  8
0
 10
-203.73514627148549
 20
832.40094098334134
 30
0.0
 11
-198.73514627148549
 21
832.40094098334134
 31
0.0
1001
ACAD
1000
ASC_BOUNDS
1002
{
1070
    19
1005
22F8
1002
}
  0
LINE
  5
AD1
  8
0
 10
-168.73514627148541
 20
833.40094098334112
 30
0.0
 11
-168.73514627148549
 21
839.85585601146647
 31
0.0
  0
LINE
  5
AD2
  8
0
 10
-204.73514627148549
 20
833.40094098334134
 30
0.0
 11
-204.73514627148549
 21
839.85585601146647
 31
0.0
1001
ACAD
1000
ASC_BOUNDS
1002
{
1070
    19
1005
22F8
1002
}
  0
LINE
  5
B0F
  8
0
 10
-197.73514627148549
 20
821.40094098334146
 30
0.0
 11
-198.73514627148549
 21
822.40094098334134
 31
0.0
1001
ACAD
1000
ASC_BOUNDS
1002
{
1070
    19
1005
10EC
1002
}
  0
LINE
  5
B10
  8
0
 10
-175.73514627148549
 20
821.40094098334123
 30
0.0
 11
-174.73514627148549
 21
822.40094098334123
 31
0.0
  0
LINE
  5
B11
  8
0
 10
-174.73514627148549
 20
822.40094098334123
 30
0.0
 11
-186.73514627148549
 21
822.40094098334123
 31
0.0
  0
ARC
  5
B12
  8
0
 10
-203.73514627148549
 20
833.40094098334134
 30
0.0
 40
1.0
 50
180.0
 51
269.9999999999996
1001
ACAD
1000
ASC_BOUNDS
1002
{
1070
    19
1005
22F8
1002
}
  0
ARC
  5
B13
  8
0
 10
-169.73514627148541
 20
833.40094098334112
 30
0.0
 40
1.0
 50
269.9999999999996
 51
0.0
  0
LINE
  5
B52
  8
0
 10
-235.73514627148549
 20
856.40094098334134
 30
0.0
 11
-137.7351462714839
 21
856.40094098333986
 31
0.0
1001
ACAD
1000
ASC_BOUNDS
1002
{
1070
    19
1005
22F8
1002
}
  0
LINE
  5
B55
  8
0
 10
-236.73514627148549
 20
843.40094098334134
 30
0.0
 11
-236.73514627148549
 21
855.40094098334146
 31
0.0
1001
ACAD
1000
ASC_BOUNDS
1002
{
1070
    19
1005
22F8
1002
}
  0
LINE
  5
B56
  8
0
 10
-235.73514627148549
 20
842.40094098334134
 30
0.0
 11
-222.73514627148549
 21
842.40094098334134
 31
0.0
1001
ACAD
1000
ASC_BOUNDS
1002
{
1070
    19
1005
22F8
1002
}
  0
LINE
  5
B57
  8
0
 10
-235.73514627148549
 20
856.40094098334134
 30
0.0
 11
-236.73514627148549
 21
855.40094098334146
 31
0.0
1001
ACAD
1000
ASC_BOUNDS
1002
{
1070
    19
1005
22F8
1002
}
  0
LINE
  5
B58
  8
0
 10
-235.73514627148549
 20
842.40094098334134
 30
0.0
 11
-236.73514627148549
 21
843.40094098334134
 31
0.0
1001
ACAD
1000
ASC_BOUNDS
1002
{
1070
    19
1005
22F8
1002
}
  0
LINE
  5
B5A
  8
0
 10
-136.73514627148541
 20
843.40094098334134
 30
0.0
 11
-136.73514627148541
 21
855.40094098334146
 31
0.0
  0
LINE
  5
B5B
  8
0
 10
-137.73514627148541
 20
842.40094098334134
 30
0.0
 11
-136.73514627148541
 21
843.40094098334134
 31
0.0
  0
LINE
  5
B5C
  8
0
 10
-137.73514627148541
 20
856.40094098334134
 30
0.0
 11
-136.73514627148541
 21
855.40094098334146
 31
0.0
  0
LINE
  5
B99
  8
0
 10
-136.73514627148541
 20
843.40094098334134
 30
0.0
 11
-186.73514627148549
 21
843.40094098334134
 31
0.0
  0
LINE
  5
B9A
  8
0
 10
-136.73514627148541
 20
855.40094098334146
 30
0.0
 11
-220.2351462714856
 21
855.40094098334123
 31
0.0
  0
LINE
  5
B9B
  8
0
 10
-220.23514627148569
 20
843.40094098334134
 30
0.0
 11
-220.23514627148569
 21
849.15094098334146
 31
0.0
1001
ACAD
1000
ASC_BOUNDS
1002
{
1070
    19
1005
22F8
1002
}
  0
LINE
  5
B9D
  8
0
 10
-206.1171122827356
 20
842.0919239889663
 30
0.0
 11
-220.2351462714856
 21
849.15094098334146
 31
0.0
1001
ACAD
1000
ASC_BOUNDS
1002
{
1070
    19
1005
22F8
1002
}
  0
ARC
  5
B9E
  8
0
 10
-207.23514627148549
 20
839.85585601146647
 30
0.0
 40
2.5
 50
359.99999999999972
 51
63.434948822921733
1001
ACAD
1000
ASC_BOUNDS
1002
{
1070
    19
1005
22F8
1002
}
  0
LINE
  5
B9F
  8
0
 10
-186.73514627148541
 20
842.40094098334112
 30
0.0
 11
-137.73514627148569
 21
842.40094098334112
 31
0.0
  0
ARC
  5
BA0
  8
0
 10
-166.23514627148549
 20
839.85585601146647
 30
0.0
 40
2.5
 50
116.5650511770782
 51
180.0000000000002
  0
LINE
  5
BA1
  8
0
 10
-167.3531802602354
 20
842.0919239889663
 30
0.0
 11
-166.7351462714856
 21
842.40094098334134
 31
0.0
  0
LINE
  5
C1C
  8
0
 10
-198.73514627148549
 20
850.40094098334146
 30
0.0
 11
-186.73514627148549
 21
850.40094098334134
 31
0.0
1001
ACAD
1000
ASC_BOUNDS
1002
{
1070
    19
1005
22F8
1005
10EC
1002
}
  0
LINE
  5
C20
  8
0
 10
-200.23514627148549
 20
851.40094098334146
 30
0.0
 11
-186.73514627148549
 21
851.40094098333896
 31
0.0
1001
ACAD
1000
ASC_BOUNDS
1002
{
1070
    19
1005
22F8
1002
}
  0
LINE
  5
C21
  8
0
 10
-207.73514627148549
 20
849.40094098334146
 30
0.0
 11
-200.73514627148549
 21
849.40094098334134
 31
0.0
1001
ACAD
1000
ASC_BOUNDS
1002
{
1070
    19
1005
22F8
1002
}
  0
LINE
  5
C23
  8
0
 10
-220.23514627148549
 20
854.40094098334146
 30
0.0
 11
-207.73514627148549
 21
849.40094098334146
 31
0.0
1001
ACAD
1000
ASC_BOUNDS
1002
{
1070
    19
1005
22F8
1002
}
  0
LINE
  5
C24
  8
0
 10
-220.23514627148549
 20
854.40094098334146
 30
0.0
 11
-220.23514627148549
 21
855.400940983341
 31
0.0
1001
ACAD
1000
ASC_BOUNDS
1002
{
1070
    19
1005
22F8
1002
}
  0
LINE
  5
C25
  8
0
 10
-220.23514627148569
 20
843.40094098334134
 30
0.0
 11
-221.23514627148569
 21
842.40094098334134
 31
0.0
1001
ACAD
1000
ASC_BOUNDS
1002
{
1070
    19
1005
22F8
1002
}
  0
LINE
  5
C26
  8
0
 10
-221.23514627148549
 20
856.40094098334123
 30
0.0
 11
-220.23514627148549
 21
855.400940983341
 31
0.0
1001
ACAD
1000
ASC_BOUNDS
1002
{
1070
    19
1005
22F8
1002
}
  0
LINE
  5
C29
  8
0
 10
-222.73514627148549
 20
842.40094098334134
 30
0.0
 11
-206.73514627148541
 21
842.40094098334134
 31
0.0
1001
ACAD
1000
ASC_BOUNDS
1002
{
1070
    19
1005
22F8
1002
}
  0
LINE
  5
C2A
  8
0
 10
146.87818989426461
 20
887.84276136387882
 30
0.0
 11
157.33346183885851
 21
887.84276136387882
 31
0.0
  0
LINE
  5
C2B
  8
0
 10
-51.605820811599052
 20
866.00950971331099
 30
0.0
 11
-40.625820811598572
 21
866.00950971331099
 31
0.0
  0
LINE
  5
CA5
  8
0
 10
-220.2351462714856
 20
843.40094098334134
 30
0.0
 11
-208.73514627148549
 21
843.40094098334112
 31
0.0
  0
LINE
  5
CA6
  8
0
 10
-200.73514627148549
 20
849.40094098334134
 30
0.0
 11
-200.73514627148549
 21
850.90094098334146
 31
0.0
1001
ACAD
1000
ASC_BOUNDS
1002
{
1070
    19
1005
22F8
1002
}
  0
LINE
  5
CA7
  8
0
 10
-186.73514627148541
 20
832.40094098334112
 30
0.0
 11
-169.73514627148541
 21
832.40094098334112
 31
0.0
  0
ARC
  5
CAA
  8
0
 10
-200.23514627148549
 20
850.90094098334146
 30
0.0
 40
0.5
 50
89.999999999998593
 51
180.0
1001
ACAD
1000
ASC_BOUNDS
1002
{
1070
    19
1005
22F8
1002
}
  0
LINE
  5
CAC
  8
0
 10
-196.73514627148549
 20
850.40094098334146
 30
0.0
 11
-196.73514627148549
 21
850.90094098334077
 31
0.0
1001
ACAD
1000
ASC_BOUNDS
1002
{
1070
    19
1005
22F8
1002
}
  0
ARC
  5
CAD
  8
0
 10
-197.23514627148549
 20
850.90094098334077
 30
0.0
 40
0.5
 50
0.0
 51
89.999999999988816
1001
ACAD
1000
ASC_BOUNDS
1002
{
1070
    19
1005
22F8
1002
}
  0
LINE
  5
CF0
  8
0
 10
-188.73514627148549
 20
841.40094098334134
 30
0.0
 11
-186.73514627148549
 21
841.40094098334112
 31
0.0
  0
LINE
  5
CF1
  8
0
 10
-188.73514627148541
 20
821.40094098334146
 30
0.0
 11
-188.73514627148549
 21
841.40094098334134
 31
0.0
1001
ACAD
1000
ASC_BOUNDS
1002
{
1070
    19
1005
10EC
1002
}
  0
LINE
  5
CF2
  8
0
 10
-188.73514627148549
 20
841.40094098334134
 30
0.0
 11
-186.73514627148549
 21
842.55564152172064
 31
0.0
1001
ACAD
1000
ASC_BOUNDS
1002
{
1070
    19
1005
10EC
1002
}
  0
LINE
  5
E2D
  8
0
  6
DASHDOT_CENTER
 10
-285.78572879917942
 20
736.49472088690413
 30
0.0
 11
-377.78572879917942
 21
736.49472088690413
 31
0.0
  0
LINE
  5
E74
  8
0
  6
DASHDOT_CENTER
 10
-331.78572879917942
 20
781.49472088690413
 30
0.0
 11
-331.78572879917942
 21
691.49472088690413
 31
0.0
  0
CIRCLE
  5
EB5
  8
0
 10
-331.78572879917942
 20
736.49472088690413
 30
0.0
 40
18.0
  0
CIRCLE
  5
EB6
  8
0
 10
-331.78572879917942
 20
736.49472088690413
 30
0.0
 40
12.0
  0
CIRCLE
  5
EB7
  8
0
 10
-331.78572879917942
 20
736.49472088690413
 30
0.0
 40
8.0
  0
LINE
  5
EF9
  8
0
  6
DASHDOT_CENTER
 10
-331.78572879917942
 20
799.2374277371606
 30
0.0
 11
-331.78572879917942
 21
840.2374277371606
 31
0.0
1001
ACAD
1000
ASC_BOUNDS
1002
{
1070
    19
1005
15B9
1002
}
  0
LINE
  5
EFA
  8
0
 10
-341.03572879917942
 20
804.23742773716049
 30
0.0
 11
-322.53572879917942
 21
804.23742773716071
 31
0.0
1001
ACAD
1000
ASC_BOUNDS
1002
{
1070
    19
1005
15B9
1002
}
  0
LINE
  5
EFB
  8
0
 10
-321.78572879917942
 20
804.98742773716071
 30
0.0
 11
-321.78572879917942
 21
814.2374277371606
 31
0.0
  0
LINE
  5
EFC
  8
0
 10
-341.78572879917948
 20
804.98742773716049
 30
0.0
 11
-341.78572879917948
 21
815.23742773716083
 31
0.0
1001
ACAD
1000
ASC_BOUNDS
1002
{
1070
    19
1005
227D
1005
15B9
1002
}
  0
LINE
  5
EFD
  8
0
 10
-341.03572879917942
 20
804.23742773716049
 30
0.0
 11
-341.78572879917948
 21
804.98742773716049
 31
0.0
1001
ACAD
1000
ASC_BOUNDS
1002
{
1070
    19
1005
15B9
1002
}
  0
LINE
  5
EFE
  8
0
 10
-322.53572879917942
 20
804.23742773716071
 30
0.0
 11
-321.78572879917942
 21
804.98742773716071
 31
0.0
  0
LINE
  5
EFF
  8
0
 10
-321.78572879917942
 20
804.98742773716071
 30
0.0
 11
-331.78572879917942
 21
804.98742773716049
 31
0.0
  0
LINE
  5
F01
  8
0
 10
-346.03572879917931
 20
814.2374277371606
 30
0.0
 11
-341.78572879917948
 21
814.23742773716083
 31
0.0
1001
ACAD
1000
ASC_BOUNDS
1002
{
1070
    19
1005
227D
1002
}
  0
LINE
  5
F02
  8
0
 10
-346.78572879917931
 20
814.98742773716071
 30
0.0
 11
-346.78572879917931
 21
824.33657320793907
 31
0.0
1001
ACAD
1000
ASC_BOUNDS
1002
{
1070
    19
1005
227D
1002
}
  0
LINE
  5
F03
  8
0
 10
-316.78572879917948
 20
814.98742773716083
 30
0.0
 11
-316.78572879917948
 21
821.23742773716049
 31
0.0
  0
ARC
  5
F42
  8
0
 10
-346.03572879917931
 20
814.98742773716071
 30
0.0
 40
0.75
 50
180.0
 51
270.00000000000023
1001
ACAD
1000
ASC_BOUNDS
1002
{
1070
    19
1005
227D
1002
}
  0
ARC
  5
F43
  8
0
 10
-317.53572879917942
 20
814.98742773716083
 30
0.0
 40
0.75
 50
270.0
 51
0.0
  0
LINE
  5
FBC
  8
0
 10
-370.78572879917948
 20
835.23742773716049
 30
0.0
 11
-292.78572879917863
 21
835.23742773715981
 31
0.0
1001
ACAD
1000
ASC_BOUNDS
1002
{
1070
    19
1005
227D
1002
}
  0
LINE
  5
FBF
  8
0
 10
-370.78572879917948
 20
821.23742773716049
 30
0.0
 11
-346.78572879917931
 21
821.23742773716083
 31
0.0
1001
ACAD
1000
ASC_BOUNDS
1002
{
1070
    19
1005
227D
1002
}
  0
LINE
  5
FC0
  8
0
 10
-371.78572879917948
 20
822.2374277371606
 30
0.0
 11
-371.78572879917959
 21
834.2374277371606
 31
0.0
1001
ACAD
1000
ASC_BOUNDS
1002
{
1070
    19
1005
227D
1002
}
  0
LINE
  5
FC1
  8
0
 10
-356.28572879917948
 20
822.2374277371606
 30
0.0
 11
-356.28572879917948
 21
829.19197319170621
 31
0.0
1001
ACAD
1000
ASC_BOUNDS
1002
{
1070
    19
1005
227D
1002
}
  0
LINE
  5
FC6
  8
0
 10
-356.28572879917948
 20
829.19197319170598
 30
0.0
 11
-348.102242673006
 21
826.21616005491592
 31
0.0
1001
ACAD
1000
ASC_BOUNDS
1002
{
1070
    19
1005
227D
1002
}
  0
ARC
  5
FC7
  8
0
 10
-348.78572879917931
 20
824.33657320793907
 30
0.0
 40
2.0
 50
359.99999999999977
 51
70.016893478101977
1001
ACAD
1000
ASC_BOUNDS
1002
{
1070
    19
1005
227D
1002
}
  0
LINE
  5
FC9
  8
0
 10
-356.28572879917948
 20
833.2374277371606
 30
0.0
 11
-331.78572879917942
 21
833.23742773716037
 31
0.0
  0
LINE
  5
FCD
  8
0
 10
-356.28572879917948
 20
833.2374277371606
 30
0.0
 11
-349.78572879917942
 21
829.73742773716037
 31
0.0
1001
ACAD
1000
ASC_BOUNDS
1002
{
1070
    19
1005
227D
1002
}
  0
LINE
  5
FCE
  8
0
 10
-349.78572879917931
 20
829.73742773716037
 30
0.0
 11
-343.78572879917942
 21
829.73742773716037
 31
0.0
1001
ACAD
1000
ASC_BOUNDS
1002
{
1070
    19
1005
227D
1002
}
  0
LINE
  5
FCF
  8
0
 10
-371.78572879917948
 20
822.2374277371606
 30
0.0
 11
-370.78572879917948
 21
821.23742773716049
 31
0.0
1001
ACAD
1000
ASC_BOUNDS
1002
{
1070
    19
1005
227D
1002
}
  0
LINE
  5
FD0
  8
0
 10
-370.78572879917948
 20
835.23742773716049
 30
0.0
 11
-371.78572879917959
 21
834.2374277371606
 31
0.0
1001
ACAD
1000
ASC_BOUNDS
1002
{
1070
    19
1005
227D
1002
}
  0
LINE
  5
FD1
  8
0
 10
-356.28572879917948
 20
822.2374277371606
 30
0.0
 11
-357.28572879917948
 21
821.23742773716049
 31
0.0
1001
ACAD
1000
ASC_BOUNDS
1002
{
1070
    19
1005
227D
1002
}
  0
LINE
  5
FD2
  8
0
 10
-356.28572879917959
 20
822.23742773716049
 30
0.0
 11
-346.78572879917931
 21
822.2374277371606
 31
0.0
  0
LINE
  5
FD3
  8
0
 10
-331.78572879917931
 20
814.2374277371606
 30
0.0
 11
-317.53572879917942
 21
814.23742773716083
 31
0.0
  0
LINE
  5
1010
  8
0
 10
-356.28572879917948
 20
833.2374277371606
 30
0.0
 11
-356.28572879917948
 21
834.23742773716037
 31
0.0
1001
ACAD
1000
ASC_BOUNDS
1002
{
1070
    19
1005
227D
1002
}
  0
LINE
  5
1011
  8
0
 10
-357.28572879917948
 20
835.23742773716049
 30
0.0
 11
-356.28572879917948
 21
834.23742773716037
 31
0.0
1001
ACAD
1000
ASC_BOUNDS
1002
{
1070
    19
1005
227D
1002
}
  0
LINE
  5
1012
  8
0
 10
-356.28572879917948
 20
834.23742773716037
 30
0.0
 11
-331.78572879917942
 21
834.23742773716037
 31
0.0
  0
LINE
  5
1013
  8
0
 10
-341.78572879917948
 20
831.2374277371606
 30
0.0
 11
-331.78572879917942
 21
831.2374277371606
 31
0.0
1001
ACAD
1000
ASC_BOUNDS
1002
{
1070
    19
1005
227D
1005
15B9
1002
}
  0
LINE
  5
108D
  8
0
 10
-24.10582081159896
 20
851.00950971331133
 30
0.0
 11
-23.10582081159896
 21
851.00950971331133
 31
0.0
1001
ACAD
1000
ASC_BOUNDS
1002
{
1070
    19
1005
2318
1005
109C
1002
}
  0
LINE
  5
108E
  8
0
 10
-24.105820811598949
 20
852.00950971331133
 30
0.0
 11
-23.10582081159896
 21
852.00950971331133
 31
0.0
1001
ACAD
1000
ASC_BOUNDS
1002
{
1070
    19
1005
2318
1005
109C
1002
}
  0
LINE
  5
108F
  8
0
 10
-23.10582081159896
 20
852.00950971331133
 30
0.0
 11
-23.10582081159896
 21
872.00950971331122
 31
0.0
1001
ACAD
1000
ASC_BOUNDS
1002
{
1070
    19
1005
2318
1005
109C
1002
}
  0
LINE
  5
1090
  8
0
 10
-24.10582081159896
 20
851.00950971331133
 30
0.0
 11
-24.10582081159896
 21
852.00950971331133
 31
0.0
1001
ACAD
1000
ASC_BOUNDS
1002
{
1070
    19
1005
2318
1005
109C
1002
}
  0
INSERT
  5
109C
  8
0
  6
CONTINUOUS
  2
*X2
 10
0.0
 20
0.0
 30
0.0
1001
ACAD
1000
HATCH
1002
{
1070
    19
1000
_USER
1040
2.5
1040
0.7853981633974483
1000
ASC_BOUNDS
1070
     1
1070
     1
1070
    11
1005
767
1005
7BF
1005
7BE
1005
76A
1005
76D
1005
87A
1005
108D
1005
1090
1005
108E
1005
108F
1005
833
1000
ASC_SEEDPOINT
1011
-12.13422009676605
1021
0.0
1031
0.0
1021
860.66579959422415
1031
0.0
1000
R14_HATCH_DATA
1000
109C
1011
1.0
1021
0.0
1031
0.0
1021
0.0
1031
0.0
1011
0.0
1021
0.0
1031
0.0
1021
1.0
1031
0.0
1011
0.0
1021
0.0
1031
0.0
1021
0.0
1031
1.0
1040
0.0
1010
0.0
1020
0.0
1030
1.0
1000
_USER
1070
     0
1070
     1
1071
        1
1071
        7
1070
     0
1070
     1
1071
       11
1040
-7.1058208115989601
1040
872.00950971331122
1040
-23.10582081159896
1040
872.00950971331122
1040
-23.10582081159896
1040
852.0095097133111
1040
-24.10582081159896
1040
852.00950971331133
1040
-24.10582081159896
1040
851.00950971331133
1040
-23.10582081159896
1040
851.00950971331133
1040
-23.10582081159896
1040
838.00950971331145
1040
-22.10582081159906
1040
837.00950971331145
1040
-10.10582081159896
1040
837.00950971331133
1040
-10.10582081159896
1040
857.00950971331145
1040
-7.1058208115989601
1040
858.74156052088017
1071
       11
1005
833
1005
108F
1005
108E
1005
1090
1005
108D
1005
87A
1005
76D
1005
76A
1005
7BE
1005
7BF
1005
767
1070
     0
1070
     0
1040
0.7853981633974483
1040
2.5
1070
     0
1070
     1
1040
0.7853981633974483
1040
0.0
1040
0.0
1040
-1.767766952966368
1040
1.767766952966368
1070
     0
1040
0.1112680416114553
1071
        1
1040
-12.13422009676605
1040
860.66579959422415
1040
0.0
1002
}
  0
LINE
  5
10BD
  8
0
 10
-199.73514627148549
 20
833.40094098334134
 30
0.0
 11
-198.73514627148549
 21
833.40094098334134
 31
0.0
1001
ACAD
1000
ASC_BOUNDS
1002
{
1070
    19
1005
22F8
1005
10EC
1002
}
  0
LINE
  5
10BE
  8
0
 10
-199.73514627148549
 20
834.40094098334146
 30
0.0
 11
-198.73514627148549
 21
834.40094098334134
 31
0.0
1001
ACAD
1000
ASC_BOUNDS
1002
{
1070
    19
1005
22F8
1005
10EC
1002
}
  0
LINE
  5
10BF
  8
0
 10
-199.73514627148549
 20
833.40094098334146
 30
0.0
 11
-199.73514627148549
 21
834.40094098334134
 31
0.0
1001
ACAD
1000
ASC_BOUNDS
1002
{
1070
    19
1005
22F8
1005
10EC
1002
}
  0
LINE
  5
10C0
  8
0
 10
-198.73514627148549
 20
834.40094098334134
 30
0.0
 11
-198.73514627148549
 21
850.40094098334146
 31
0.0
1001
ACAD
1000
ASC_BOUNDS
1002
{
1070
    19
1005
22F8
1005
10EC
1002
}
  0
INSERT
  5
10EC
  8
0
  6
CONTINUOUS
  2
*X3
 10
0.0
 20
0.0
 30
0.0
1001
ACAD
1000
HATCH
1002
{
1070
    19
1000
_USER
1040
2.5
1040
0.7853981633974483
1000
ASC_BOUNDS
1070
     1
1070
     1
1070
    11
1005
CF1
1005
ACC
1005
B0F
1005
ACE
1005
10BD
1005
10BF
1005
10BE
1005
10C0
1005
C1C
1005
ACB
1005
CF2
1000
ASC_SEEDPOINT
1011
-192.98379604028011
1021
0.0
1031
0.0
1021
839.54853436753854
1031
0.0
1000
R14_HATCH_DATA
1000
10EC
1011
1.0
1021
0.0
1031
0.0
1021
0.0
1031
0.0
1011
0.0
1021
0.0
1031
0.0
1021
1.0
1031
0.0
1011
0.0
1021
0.0
1031
0.0
1021
0.0
1031
1.0
1040
0.0
1010
0.0
1020
0.0
1030
1.0
1000
_USER
1070
     0
1070
     1
1071
        1
1071
        7
1070
     0
1070
     1
1071
       11
1040
-188.73514627148549
1040
841.40094098334112
1040
-186.73514627148549
1040
842.55564152172064
1040
-186.73514627148549
1040
850.40094098334112
1040
-198.73514627148549
1040
850.40094098334146
1040
-198.73514627148549
1040
834.40094098334134
1040
-199.73514627148549
1040
834.40094098334146
1040
-199.73514627148549
1040
833.40094098334134
1040
-198.73514627148549
1040
833.40094098334146
1040
-198.73514627148549
1040
822.40094098334134
1040
-197.73514627148549
1040
821.40094098334146
1040
-188.73514627148541
1040
821.40094098334146
1071
       11
1005
CF2
1005
ACB
1005
C1C
1005
10C0
1005
10BE
1005
10BF
1005
10BD
1005
ACE
1005
B0F
1005
ACC
1005
CF1
1070
     0
1070
     0
1040
0.7853981633974483
1040
2.5
1070
     0
1070
     1
1040
0.7853981633974483
1040
0.0
1040
0.0
1040
-1.767766952966368
1040
1.767766952966368
1070
     0
1040
0.087162036333205
1071
        1
1040
-192.98379604028011
1040
839.54853436753854
1040
0.0
1002
}
  0
LINE
  5
10ED
  8
0
 10
-342.78572879917942
 20
815.2374277371606
 30
0.0
 11
-341.78572879917948
 21
815.23742773716083
 31
0.0
1001
ACAD
1000
ASC_BOUNDS
1002
{
1070
    19
1005
227D
1005
15B9
1002
}
  0
LINE
  5
10EE
  8
0
 10
-342.78572879917942
 20
816.2374277371606
 30
0.0
 11
-341.78572879917948
 21
816.23742773716083
 31
0.0
1001
ACAD
1000
ASC_BOUNDS
1002
{
1070
    19
1005
227D
1005
15B9
1002
}
  0
LINE
  5
10EF
  8
0
 10
-342.78572879917942
 20
815.23742773716083
 30
0.0
 11
-342.78572879917942
 21
816.2374277371606
 31
0.0
1001
ACAD
1000
ASC_BOUNDS
1002
{
1070
    19
1005
227D
1005
15B9
1002
}
  0
LINE
  5
10F0
  8
0
 10
-341.78572879917948
 20
816.23742773716083
 30
0.0
 11
-341.78572879917948
 21
831.2374277371606
 31
0.0
1001
ACAD
1000
ASC_BOUNDS
1002
{
1070
    19
1005
227D
1005
15B9
1002
}
  0
LINE
  5
10FB
  8
0
 10
-339.78572879917942
 20
831.23742773716083
 30
0.0
 11
-339.78572879917942
 21
831.73742773716071
 31
0.0
1001
ACAD
1000
ASC_BOUNDS
1002
{
1070
    19
1005
227D
1002
}
  0
LINE
  5
10FC
  8
0
 10
-343.78572879917948
 20
829.73742773716037
 30
0.0
 11
-343.78572879917948
 21
831.73742773716071
 31
0.0
1001
ACAD
1000
ASC_BOUNDS
1002
{
1070
    19
1005
227D
1002
}
  0
LINE
  5
10FD
  8
0
 10
-343.28572879917942
 20
832.2374277371606
 30
0.0
 11
-331.78572879917942
 21
832.2374277371606
 31
0.0
1001
ACAD
1000
ASC_BOUNDS
1002
{
1070
    19
1005
227D
1002
}
  0
ARC
  5
10FE
  8
0
 10
-343.28572879917942
 20
831.73742773716071
 30
0.0
 40
0.5
 50
90.0
 51
180.0
1001
ACAD
1000
ASC_BOUNDS
1002
{
1070
    19
1005
227D
1002
}
  0
ARC
  5
10FF
  8
0
 10
-340.28572879917942
 20
831.73742773716071
 30
0.0
 40
0.5
 50
0.0
 51
90.0
1001
ACAD
1000
ASC_BOUNDS
1002
{
1070
    19
1005
227D
1002
}
  0
LINE
  5
1100
  8
0
 10
-291.78572879917942
 20
822.2374277371606
 30
0.0
 11
-291.78572879917931
 21
834.2374277371606
 31
0.0
  0
LINE
  5
1101
  8
0
 10
-291.78572879917942
 20
822.2374277371606
 30
0.0
 11
-292.78572879917942
 21
821.23742773716049
 31
0.0
  0
LINE
  5
1102
  8
0
 10
-292.78572879917931
 20
835.23742773716049
 30
0.0
 11
-291.78572879917931
 21
834.2374277371606
 31
0.0
  0
LINE
  5
1103
  8
0
 10
-331.78572879917931
 20
821.23742773716083
 30
0.0
 11
-292.7857287991792
 21
821.23742773716083
 31
0.0
  0
LINE
  5
1104
  8
0
 10
-291.78572879917942
 20
822.2374277371606
 30
0.0
 11
-331.78572879917942
 21
822.2374277371606
 31
0.0
  0
LINE
  5
1105
  8
0
 10
-291.78572879917931
 20
834.2374277371606
 30
0.0
 11
-331.78572879917942
 21
834.2374277371606
 31
0.0
  0
LINE
  5
1241
  8
0
 10
-220.23514627148549
 20
854.56716113206653
 30
0.0
 11
-186.73514627148549
 21
854.56716113206653
 31
0.0
  0
LINE
  5
127E
  8
0
  6
DASHDOT_CENTER
 10
-420.35035864991511
 20
736.49472088690413
 30
0.0
 11
-495.85035864991499
 21
736.49472088690413
 31
0.0
  0
LINE
  5
1281
  8
0
  6
DASHDOT_CENTER
 10
-458.10035864991499
 20
773.99472088690413
 30
0.0
 11
-458.10035864991499
 21
698.99472088690413
 31
0.0
  0
CIRCLE
  5
1283
  8
0
 10
-458.10035864991499
 20
736.49472088690413
 30
0.0
 40
15.5
  0
CIRCLE
  5
1284
  8
0
 10
-458.10035864991499
 20
736.49472088690413
 30
0.0
 40
11.5
  0
CIRCLE
  5
1285
  8
0
 10
-458.10035864991499
 20
736.49472088690413
 30
0.0
 40
8.5
  0
LINE
  5
137F
  8
0
  6
DASHDOT_CENTER
 10
-458.10035864991511
 20
792.72095749507184
 30
0.0
 11
-458.10035864991511
 21
830.72095749507196
 31
0.0
1001
ACAD
1000
ASC_BOUNDS
1002
{
1070
    19
1005
15CA
1002
}
  0
LINE
  5
1381
  8
0
 10
-467.35035864991499
 20
797.72095749507173
 30
0.0
 11
-448.85035864991511
 21
797.72095749507184
 31
0.0
1001
ACAD
1000
ASC_BOUNDS
1002
{
1070
    19
1005
15CA
1002
}
  0
LINE
  5
1383
  8
0
 10
-467.35035864991499
 20
797.72095749507173
 30
0.0
 11
-468.10035864991511
 21
798.47095749507173
 31
0.0
1001
ACAD
1000
ASC_BOUNDS
1002
{
1070
    19
1005
15CA
1002
}
  0
LINE
  5
1384
  8
0
 10
-468.10035864991511
 20
798.47095749507173
 30
0.0
 11
-468.10035864991511
 21
808.72095749507184
 31
0.0
1001
ACAD
1000
ASC_BOUNDS
1002
{
1070
    19
1005
2220
1005
15CA
1002
}
  0
LINE
  5
1385
  8
0
 10
-448.10035864991499
 20
798.47095749507184
 30
0.0
 11
-458.10035864991499
 21
798.47095749507173
 31
0.0
  0
LINE
  5
1386
  8
0
 10
-448.85035864991511
 20
797.72095749507184
 30
0.0
 11
-448.10035864991499
 21
798.47095749507184
 31
0.0
  0
LINE
  5
1387
  8
0
 10
-448.10035864991499
 20
798.47095749507184
 30
0.0
 11
-448.10035864991499
 21
807.72095749507184
 31
0.0
  0
LINE
  5
1388
  8
0
 10
-468.10035864991511
 20
821.72095749507184
 30
0.0
 11
-458.10035864991511
 21
821.72095749507184
 31
0.0
1001
ACAD
1000
ASC_BOUNDS
1002
{
1070
    19
1005
2220
1005
15CA
1002
}
  0
LINE
  5
1389
  8
0
 10
-468.10035864991511
 20
809.72095749507184
 30
0.0
 11
-468.10035864991511
 21
821.72095749507184
 31
0.0
1001
ACAD
1000
ASC_BOUNDS
1002
{
1070
    19
1005
2220
1005
15CA
1002
}
  0
LINE
  5
138A
  8
0
 10
-469.10035864991499
 20
809.72095749507173
 30
0.0
 11
-468.10035864991511
 21
809.72095749507184
 31
0.0
1001
ACAD
1000
ASC_BOUNDS
1002
{
1070
    19
1005
2220
1005
15CA
1002
}
  0
LINE
  5
138B
  8
0
 10
-469.10035864991499
 20
808.72095749507184
 30
0.0
 11
-469.10035864991499
 21
809.72095749507173
 31
0.0
1001
ACAD
1000
ASC_BOUNDS
1002
{
1070
    19
1005
2220
1005
15CA
1002
}
  0
LINE
  5
138C
  8
0
 10
-469.10035864991499
 20
808.72095749507173
 30
0.0
 11
-468.10035864991511
 21
808.72095749507184
 31
0.0
1001
ACAD
1000
ASC_BOUNDS
1002
{
1070
    19
1005
2220
1005
15CA
1002
}
  0
LINE
  5
138D
  8
0
 10
-471.60035864991511
 20
807.72095749507184
 30
0.0
 11
-468.10035864991511
 21
807.72095749507184
 31
0.0
1001
ACAD
1000
ASC_BOUNDS
1002
{
1070
    19
1005
2220
1002
}
  0
LINE
  5
138F
  8
0
 10
-472.10035864991511
 20
808.22095749507173
 30
0.0
 11
-472.10035864991499
 21
815.2209574950715
 31
0.0
1001
ACAD
1000
ASC_BOUNDS
1002
{
1070
    19
1005
2220
1002
}
  0
ARC
  5
1390
  8
0
 10
-471.60035864991511
 20
808.22095749507173
 30
0.0
 40
0.5
 50
180.0
 51
270.0
1001
ACAD
1000
ASC_BOUNDS
1002
{
1070
    19
1005
2220
1002
}
  0
LINE
  5
13D1
  8
0
 10
-490.60035864991511
 20
813.72095749507162
 30
0.0
 11
-490.60035864991522
 21
824.72095749507139
 31
0.0
1001
ACAD
1000
ASC_BOUNDS
1002
{
1070
    19
1005
2220
1002
}
  0
LINE
  5
13D2
  8
0
 10
-489.60035864991522
 20
825.7209574950715
 30
0.0
 11
-426.60035864991579
 21
825.72095749507241
 31
0.0
1001
ACAD
1000
ASC_BOUNDS
1002
{
1070
    19
1005
2220
1002
}
  0
LINE
  5
13D3
  8
0
 10
-489.60035864991511
 20
812.72095749507162
 30
0.0
 11
-472.10035864991499
 21
812.72095749507196
 31
0.0
1001
ACAD
1000
ASC_BOUNDS
1002
{
1070
    19
1005
2220
1002
}
  0
LINE
  5
13D4
  8
0
 10
-458.10035864991499
 20
812.72095749507162
 30
0.0
 11
-448.85035864991522
 21
812.72095749507184
 31
0.0
  0
LINE
  5
13D5
  8
0
 10
-489.60035864991522
 20
825.7209574950715
 30
0.0
 11
-490.60035864991522
 21
824.72095749507139
 31
0.0
1001
ACAD
1000
ASC_BOUNDS
1002
{
1070
    19
1005
2220
1002
}
  0
LINE
  5
13D6
  8
0
 10
-490.60035864991511
 20
813.72095749507162
 30
0.0
 11
-489.60035864991511
 21
812.72095749507162
 31
0.0
1001
ACAD
1000
ASC_BOUNDS
1002
{
1070
    19
1005
2220
1002
}
  0
LINE
  5
13D9
  8
0
 10
-472.10035864991511
 20
815.22095749507173
 30
0.0
 11
-478.10035864991511
 21
818.45172672584101
 31
0.0
1001
ACAD
1000
ASC_BOUNDS
1002
{
1070
    19
1005
2220
1002
}
  0
LINE
  5
13DC
  8
0
 10
-478.10035864991511
 20
813.72095749507162
 30
0.0
 11
-472.10035864991499
 21
813.72095749507162
 31
0.0
  0
LINE
  5
1419
  8
0
 10
-478.10035864991511
 20
824.22095749507173
 30
0.0
 11
-478.10035864991522
 21
824.72095749507162
 31
0.0
1001
ACAD
1000
ASC_BOUNDS
1002
{
1070
    19
1005
2220
1002
}
  0
LINE
  5
1457
  8
0
 10
-478.10035864991522
 20
824.22095749507173
 30
0.0
 11
-458.10035864991488
 21
824.22095749507173
 31
0.0
  0
LINE
  5
1459
  8
0
 10
-478.10035864991522
 20
824.72095749507162
 30
0.0
 11
-479.10035864991528
 21
825.7209574950715
 31
0.0
1001
ACAD
1000
ASC_BOUNDS
1002
{
1070
    19
1005
2220
1002
}
  0
LINE
  5
145A
  8
0
 10
-478.10035864991522
 20
824.72095749507162
 30
0.0
 11
-458.10035864991511
 21
824.72095749507162
 31
0.0
  0
LINE
  5
1498
  8
0
 10
-468.60035864991522
 20
822.72095749507184
 30
0.0
 11
-458.10035864991499
 21
822.72095749507298
 31
0.0
1001
ACAD
1000
ASC_BOUNDS
1002
{
1070
    19
1005
2220
1002
}
  0
LINE
  5
149B
  8
0
 10
-425.60035864991499
 20
813.72095749507162
 30
0.0
 11
-425.60035864991499
 21
824.72095749507139
 31
0.0
  0
LINE
  5
149C
  8
0
 10
-425.60035864991499
 20
813.72095749507162
 30
0.0
 11
-426.60035864991511
 21
812.72095749507162
 31
0.0
  0
LINE
  5
149D
  8
0
 10
-426.60035864991499
 20
825.7209574950715
 30
0.0
 11
-425.60035864991499
 21
824.72095749507139
 31
0.0
  0
LINE
  5
149E
  8
0
 10
-458.10035864991511
 20
813.72095749507162
 30
0.0
 11
-425.60035864991482
 21
813.72095749507162
 31
0.0
  0
LINE
  5
149F
  8
0
 10
-458.10035864991511
 20
812.72095749507196
 30
0.0
 11
-426.60035864991431
 21
812.72095749507241
 31
0.0
  0
LINE
  5
14A0
  8
0
 10
-425.60035864991499
 20
824.72095749507139
 30
0.0
 11
-458.10035864991511
 21
824.72095749507139
 31
0.0
  0
LINE
  5
14A1
  8
0
 10
-444.10035864991499
 20
808.22095749507173
 30
0.0
 11
-444.10035864991511
 21
812.72095749507196
 31
0.0
  0
ARC
  5
14A2
  8
0
 10
-444.60035864991511
 20
808.22095749507173
 30
0.0
 40
0.5
 50
270.0
 51
0.000000000000007
  0
LINE
  5
14A3
  8
0
 10
-444.60035864991511
 20
807.72095749507184
 30
0.0
 11
-458.10035864991499
 21
807.72095749507184
 31
0.0
  0
LINE
  5
14E1
  8
0
 10
-469.10035864991499
 20
821.72095749507184
 30
0.0
 11
-469.10035864991522
 21
822.22095749507173
 31
0.0
1001
ACAD
1000
ASC_BOUNDS
1002
{
1070
    19
1005
2220
1002
}
  0
LINE
  5
14E2
  8
0
 10
-467.10035864991511
 20
821.72095749507162
 30
0.0
 11
-467.10035864991522
 21
822.22095749507184
 31
0.0
1001
ACAD
1000
ASC_BOUNDS
1002
{
1070
    19
1005
2220
1002
}
  0
ARC
  5
14E3
  8
0
 10
-467.60035864991522
 20
822.22095749507184
 30
0.0
 40
0.5
 50
0.0000000000032569
 51
90.000000000000398
1001
ACAD
1000
ASC_BOUNDS
1002
{
1070
    19
1005
2220
1002
}
  0
ARC
  5
14E4
  8
0
 10
-468.60035864991522
 20
822.22095749507173
 30
0.0
 40
0.5
 50
90.00000000000108
 51
180.0000000000002
1001
ACAD
1000
ASC_BOUNDS
1002
{
1070
    19
1005
2220
1002
}
  0
LINE
  5
14E5
  8
0
 10
-469.10035864991511
 20
821.72095749507184
 30
0.0
 11
-473.60035864991329
 21
821.72095749507196
 31
0.0
1001
ACAD
1000
ASC_BOUNDS
1002
{
1070
    19
1005
2220
1002
}
  0
LINE
  5
14E7
  8
0
 10
-478.10035864991511
 20
824.22095749507173
 30
0.0
 11
-473.60035864991329
 21
821.72095749507184
 31
0.0
1001
ACAD
1000
ASC_BOUNDS
1002
{
1070
    19
1005
2220
1002
}
  0
LINE
  5
1561
  8
0
 10
-333.78572879917942
 20
804.23742773716071
 30
0.0
 11
-333.78572879917942
 21
824.2374277371606
 31
0.0
1001
ACAD
1000
ASC_BOUNDS
1002
{
1070
    19
1005
15B9
1002
}
  0
LINE
  5
1562
  8
0
 10
-333.78572879917942
 20
824.2374277371606
 30
0.0
 11
-331.78572879917942
 21
824.2374277371606
 31
0.0
  0
LINE
  5
1563
  8
0
 10
-333.78572879917942
 20
824.2374277371606
 30
0.0
 11
-331.78572879917942
 21
825.3921282755399
 31
0.0
1001
ACAD
1000
ASC_BOUNDS
1002
{
1070
    19
1005
15B9
1002
}
  0
LINE
  5
15AD
  8
0
 10
-333.78572879917971
 20
824.2374277371606
 30
0.0
 11
-331.78572879917942
 21
824.2374277371606
 31
0.0
  0
INSERT
  5
15B9
  8
0
  6
CONTINUOUS
  2
*X4
 10
0.0
 20
0.0
 30
0.0
1001
ACAD
1000
HATCH
1002
{
1070
    19
1000
_USER
1040
2.0
1040
0.7853981633974483
1000
ASC_BOUNDS
1070
     1
1070
     1
1070
    11
1005
1563
1005
1561
1005
EFA
1005
EFD
1005
EFC
1005
10ED
1005
10EF
1005
10EE
1005
10F0
1005
1013
1005
EF9
1000
ASC_SEEDPOINT
1011
-336.72146292673
1021
0.0
1031
0.0
1021
824.41072453834033
1031
0.0
1000
R14_HATCH_DATA
1000
15B9
1011
1.0
1021
0.0
1031
0.0
1021
0.0
1031
0.0
1011
0.0
1021
0.0
1031
0.0
1021
1.0
1031
0.0
1011
0.0
1021
0.0
1031
0.0
1021
0.0
1031
1.0
1040
0.0
1010
0.0
1020
0.0
1030
1.0
1000
_USER
1070
     0
1070
     1
1071
        1
1071
        7
1070
     0
1070
     1
1071
       11
1040
-333.78572879917931
1040
824.23742773716094
1040
-331.78572879917942
1040
825.3921282755399
1040
-331.78572879917931
1040
831.2374277371606
1040
-341.78572879917948
1040
831.2374277371606
1040
-341.78572879917948
1040
816.23742773716083
1040
-342.78572879917942
1040
816.2374277371606
1040
-342.78572879917942
1040
815.2374277371606
1040
-341.78572879917948
1040
815.23742773716083
1040
-341.78572879917948
1040
804.98742773716049
1040
-341.03572879917942
1040
804.23742773716049
1040
-333.78572879917942
1040
804.23742773716049
1071
       11
1005
EF9
1005
1013
1005
10F0
1005
10EE
1005
10EF
1005
10ED
1005
EFC
1005
EFD
1005
EFA
1005
1561
1005
1563
1070
     0
1070
     0
1040
0.7853981633974483
1040
2.0
1070
     0
1070
     1
1040
0.7853981633974483
1040
0.0
1040
6.5164702420888707
1040
-1.414213562373094
1040
1.4142135623730949
1070
     0
1040
0.0587864924123238
1071
        1
1040
-336.72146292673
1040
824.41072453834033
1040
0.0
1002
}
  0
LINE
  5
15BA
  8
0
 10
-460.10035864991499
 20
817.72095749507184
 30
0.0
 11
-458.10035864991511
 21
818.87565803345103
 31
0.0
1001
ACAD
1000
ASC_BOUNDS
1002
{
1070
    19
1005
15CA
1002
}
  0
LINE
  5
15BB
  8
0
 10
-460.10035864991528
 20
817.72095749507173
 30
0.0
 11
-458.10035864991511
 21
817.72095749507173
 31
0.0
  0
LINE
  5
15BC
  8
0
 10
-460.10035864991499
 20
817.72095749507184
 30
0.0
 11
-458.10035864991511
 21
817.72095749507184
 31
0.0
  0
LINE
  5
15BE
  8
0
 10
-460.10035864991499
 20
797.72095749507184
 30
0.0
 11
-460.10035864991499
 21
817.72095749507184
 31
0.0
1001
ACAD
1000
ASC_BOUNDS
1002
{
1070
    19
1005
15CA
1002
}
  0
INSERT
  5
15CA
  8
0
  6
CONTINUOUS
  2
*X5
 10
0.0
 20
0.0
 30
0.0
1001
ACAD
1000
HATCH
1002
{
1070
    19
1000
_USER
1040
2.0
1040
0.7853981633974483
1000
ASC_BOUNDS
1070
     1
1070
     1
1070
    11
1005
15BE
1005
1381
1005
1383
1005
1384
1005
138C
1005
138B
1005
138A
1005
1389
1005
1388
1005
137F
1005
15BA
1000
ASC_SEEDPOINT
1011
-464.86937372003331
1021
0.0
1031
0.0
1021
810.50490712803366
1031
0.0
1000
R14_HATCH_DATA
1000
15CA
1011
1.0
1021
0.0
1031
0.0
1021
0.0
1031
0.0
1011
0.0
1021
0.0
1031
0.0
1021
1.0
1031
0.0
1011
0.0
1021
0.0
1031
0.0
1021
0.0
1031
1.0
1040
0.0
1010
0.0
1020
0.0
1030
1.0
1000
_USER
1070
     0
1070
     1
1071
        1
1071
        7
1070
     0
1070
     1
1071
       11
1040
-468.10035864991511
1040
809.72095749507184
1040
-469.10035864991499
1040
809.72095749507184
1040
-469.10035864991499
1040
808.72095749507173
1040
-468.10035864991511
1040
808.72095749507184
1040
-468.10035864991511
1040
798.47095749507173
1040
-467.35035864991499
1040
797.72095749507162
1040
-460.10035864991511
1040
797.72095749507162
1040
-460.10035864991499
1040
817.72095749507173
1040
-458.10035864991511
1040
818.87565803345103
1040
-458.10035864991511
1040
821.72095749507162
1040
-468.10035864991511
1040
821.72095749507184
1071
       11
1005
15BA
1005
137F
1005
1388
1005
1389
1005
138A
1005
138B
1005
138C
1005
1384
1005
1383
1005
1381
1005
15BE
1070
     0
1070
     0
1040
0.7853981633974483
1040
2.0
1070
     0
1070
     1
1040
0.7853981633974483
1040
0.0
1040
0.0
1040
-1.414213562373094
1040
1.4142135623730949
1070
     0
1040
0.1504131986740097
1071
        1
1040
-464.86937372003331
1040
810.50490712803366
1040
0.0
1002
}
  0
LINE
  5
183E
  8
0
 10
-478.10035864991511
 20
818.45172672584101
 30
0.0
 11
-478.10035864991511
 21
813.72095749507184
 31
0.0
1001
ACAD
1000
ASC_BOUNDS
1002
{
1070
    19
1005
2220
1002
}
  0
LINE
  5
183F
  8
0
 10
-478.10035864991511
 20
813.72095749507184
 30
0.0
 11
-479.10035864991511
 21
812.72095749507184
 31
0.0
1001
ACAD
1000
ASC_BOUNDS
1002
{
1070
    19
1005
2220
1002
}
  0
LINE
  5
1A70
  8
0
  6
DASHDOT_CENTER
 10
-540.44030859651468
 20
736.49472088690413
 30
0.0
 11
-602.74030859651464
 21
736.49472088690413
 31
0.0
  0
CIRCLE
  5
1AAF
  8
0
 10
-571.59030859651455
 20
736.49472088690413
 30
0.0
 40
11.5
  0
CIRCLE
  5
1AB0
  8
0
 10
-571.59030859651455
 20
736.49472088690413
 30
0.0
 40
8.5
  0
CIRCLE
  5
1AB1
  8
0
 10
-571.59030859651455
 20
736.49472088690413
 30
0.0
 40
6.5
  0
LINE
  5
1B6F
  8
0
  6
DASHDOT_CENTER
 10
-571.59030859651455
 20
766.49472088690413
 30
0.0
 11
-571.59030859651455
 21
706.49472088690413
 31
0.0
  0
LINE
  5
1BEC
  8
0
  6
DASHDOT_CENTER
 10
-571.59030859651455
 20
782.61514873645694
 30
0.0
 11
-571.59030859651455
 21
815.61514873645706
 31
0.0
1001
ACAD
1000
ASC_BOUNDS
1002
{
1070
    19
1005
1E0B
1002
}
  0
LINE
  5
1BED
  8
0
 10
-579.09030859651477
 20
787.61514873645683
 30
0.0
 11
-564.09030859651455
 21
787.61514873645706
 31
0.0
1001
ACAD
1000
ASC_BOUNDS
1002
{
1070
    19
1005
1E0B
1002
}
  0
LINE
  5
1BEE
  8
0
 10
-563.59030859651455
 20
788.11514873645694
 30
0.0
 11
-563.59030859651455
 21
796.61514873645694
 31
0.0
  0
LINE
  5
1BEF
  8
0
 10
-579.59030859651466
 20
788.11514873645683
 30
0.0
 11
-579.59030859651466
 21
807.61514873645706
 31
0.0
1001
ACAD
1000
ASC_BOUNDS
1002
{
1070
    19
1005
21C4
1005
1E0B
1002
}
  0
LINE
  5
1BF0
  8
0
 10
-579.09030859651477
 20
787.61514873645683
 30
0.0
 11
-579.59030859651466
 21
788.11514873645683
 31
0.0
1001
ACAD
1000
ASC_BOUNDS
1002
{
1070
    19
1005
1E0B
1002
}
  0
LINE
  5
1BF1
  8
0
 10
-564.09030859651455
 20
787.61514873645706
 30
0.0
 11
-563.59030859651455
 21
788.11514873645694
 31
0.0
  0
LINE
  5
1BF2
  8
0
 10
-563.59030859651455
 20
788.11514873645694
 30
0.0
 11
-571.59030859651455
 21
788.11514873645694
 31
0.0
  0
LINE
  5
1C30
  8
0
 10
-584.09030859651455
 20
796.61514873645683
 30
0.0
 11
-579.59030859651466
 21
796.61514873645683
 31
0.0
1001
ACAD
1000
ASC_BOUNDS
1002
{
1070
    19
1005
21C4
1002
}
  0
LINE
  5
1CAB
  8
0
 10
-595.84030859651455
 20
810.61514873645694
 30
0.0
 11
-547.34030859651455
 21
810.61514873645694
 31
0.0
1001
ACAD
1000
ASC_BOUNDS
1002
{
1070
    19
1005
21C4
1002
}
  0
LINE
  5
1CAD
  8
0
 10
-596.59030859651455
 20
800.36514873645729
 30
0.0
 11
-596.59030859651455
 21
809.86514873645694
 31
0.0
1001
ACAD
1000
ASC_BOUNDS
1002
{
1070
    19
1005
21C4
1002
}
  0
LINE
  5
1CAE
  8
0
 10
-595.84030859651455
 20
799.61514873645717
 30
0.0
 11
-584.59030859651466
 21
799.61514873645717
 31
0.0
1001
ACAD
1000
ASC_BOUNDS
1002
{
1070
    19
1005
21C4
1002
}
  0
LINE
  5
1CAF
  8
0
 10
-595.84030859651455
 20
810.61514873645694
 30
0.0
 11
-596.59030859651455
 21
809.86514873645694
 31
0.0
1001
ACAD
1000
ASC_BOUNDS
1002
{
1070
    19
1005
21C4
1002
}
  0
LINE
  5
1CB0
  8
0
 10
-596.59030859651455
 20
800.36514873645729
 30
0.0
 11
-595.84030859651455
 21
799.61514873645717
 31
0.0
1001
ACAD
1000
ASC_BOUNDS
1002
{
1070
    19
1005
21C4
1002
}
  0
LINE
  5
1CB2
  8
0
 10
-586.09030859651466
 20
800.11514873645729
 30
0.0
 11
-586.09030859651466
 21
802.59967928402989
 31
0.0
1001
ACAD
1000
ASC_BOUNDS
1002
{
1070
    19
1005
21C4
1002
}
  0
LINE
  5
1CB5
  8
0
 10
-585.11974420988645
 20
803.31651354057146
 30
0.0
 11
-585.11974420988645
 21
803.31651354057146
 31
0.0
  0
LINE
  5
1CB7
  8
0
 10
-584.59030859651455
 20
797.11514873645683
 30
0.0
 11
-584.59030859651466
 21
802.59967928402989
 31
0.0
1001
ACAD
1000
ASC_BOUNDS
1002
{
1070
    19
1005
21C4
1002
}
  0
ARC
  5
1CB8
  8
0
 10
-584.09030859651455
 20
797.11514873645683
 30
0.0
 40
0.5
 50
180.0
 51
270.00000000000063
1001
ACAD
1000
ASC_BOUNDS
1002
{
1070
    19
1005
21C4
1002
}
  0
ARC
  5
1CBC
  8
0
 10
-585.34030859651477
 20
802.59967928402989
 30
0.0
 40
0.75
 50
0.0
 51
72.897271030945191
1001
ACAD
1000
ASC_BOUNDS
1002
{
1070
    19
1005
21C4
1002
}
  0
ARC
  5
1CBD
  8
0
 10
-585.34030859651477
 20
802.59967928402989
 30
0.0
 40
0.75
 50
72.897271030941965
 51
180.0
1001
ACAD
1000
ASC_BOUNDS
1002
{
1070
    19
1005
21C4
1002
}
  0
ARC
  5
1CBE
  8
0
 10
-586.59030859651477
 20
800.11514873645729
 30
0.0
 40
0.5
 50
270.0
 51
0.0
1001
ACAD
1000
ASC_BOUNDS
1002
{
1070
    19
1005
21C4
1002
}
  0
LINE
  5
1CFB
  8
0
 10
-579.59030859651466
 20
807.61514873645694
 30
0.0
 11
-571.59030859651466
 21
807.61514873645694
 31
0.0
1001
ACAD
1000
ASC_BOUNDS
1002
{
1070
    19
1005
21C4
1005
1E0B
1002
}
  0
LINE
  5
1CFC
  8
0
 10
-571.59030859651455
 20
796.61514873645683
 30
0.0
 11
-559.09030859651455
 21
796.61514873645706
 31
0.0
  0
ARC
  5
1CFD
  8
0
 10
-559.09030859651455
 20
797.11514873645683
 30
0.0
 40
0.5
 50
269.99999999999932
 51
0.000000000000007
  0
LINE
  5
1CFE
  8
0
 10
-546.59030859651455
 20
800.36514873645729
 30
0.0
 11
-546.59030859651455
 21
809.86514873645694
 31
0.0
  0
LINE
  5
1CFF
  8
0
 10
-546.59030859651455
 20
800.36514873645729
 30
0.0
 11
-547.34030859651455
 21
799.61514873645717
 31
0.0
  0
LINE
  5
1D00
  8
0
 10
-547.34030859651455
 20
810.61514873645694
 30
0.0
 11
-546.59030859651455
 21
809.86514873645694
 31
0.0
  0
LINE
  5
1D01
  8
0
 10
-547.34030859651455
 20
799.61514873645717
 30
0.0
 11
-571.59030859651455
 21
799.61514873645729
 31
0.0
  0
LINE
  5
1D02
  8
0
 10
-558.59030859651466
 20
797.11514873645683
 30
0.0
 11
-558.59030859651466
 21
799.61514873645729
 31
0.0
  0
LINE
  5
1D3F
  8
0
 10
-546.59030859651455
 20
809.86514873645694
 30
0.0
 11
-571.59030859651455
 21
809.86514873645694
 31
0.0
  0
LINE
  5
1D40
  8
0
 10
-546.59030859651455
 20
800.36514873645729
 30
0.0
 11
-571.59030859651455
 21
800.36514873645729
 31
0.0
  0
LINE
  5
1DBA
  8
0
 10
-586.84030859651466
 20
810.61514873645694
 30
0.0
 11
-586.09030859651466
 21
809.86514873645694
 31
0.0
1001
ACAD
1000
ASC_BOUNDS
1002
{
1070
    19
1005
21C4
1002
}
  0
LINE
  5
1DBB
  8
0
 10
-586.09030859651466
 20
809.86514873645694
 30
0.0
 11
-571.59030859651455
 21
809.86514873645694
 31
0.0
  0
LINE
  5
1DF8
  8
0
 10
-580.09030859651466
 20
808.61514873645706
 30
0.0
 11
-571.59030859651455
 21
808.61514873645535
 31
0.0
1001
ACAD
1000
ASC_BOUNDS
1002
{
1070
    19
1005
21C4
1002
}
  0
LINE
  5
1DFA
  8
0
 10
-578.59030859651477
 20
807.61514873645694
 30
0.0
 11
-578.59030859651477
 21
808.11514873645694
 31
0.0
1001
ACAD
1000
ASC_BOUNDS
1002
{
1070
    19
1005
21C4
1002
}
  0
LINE
  5
1DFC
  8
0
 10
-580.59030859651466
 20
807.61514873645694
 30
0.0
 11
-580.59030859651466
 21
808.11514873645717
 31
0.0
1001
ACAD
1000
ASC_BOUNDS
1002
{
1070
    19
1005
21C4
1002
}
  0
LINE
  5
1DFE
  8
0
 10
-586.09030859651466
 20
809.86514873645694
 30
0.0
 11
-580.59030859651466
 21
807.61514873645694
 31
0.0
1001
ACAD
1000
ASC_BOUNDS
1002
{
1070
    19
1005
21C4
1002
}
  0
ARC
  5
1DFF
  8
0
 10
-579.09030859651477
 20
808.11514873645694
 30
0.0
 40
0.5
 50
0.0
 51
89.999999999996746
1001
ACAD
1000
ASC_BOUNDS
1002
{
1070
    19
1005
21C4
1002
}
  0
ARC
  5
1E00
  8
0
 10
-580.09030859651466
 20
808.11514873645717
 30
0.0
 40
0.5
 50
89.999999999995666
 51
180.0
1001
ACAD
1000
ASC_BOUNDS
1002
{
1070
    19
1005
21C4
1002
}
  0
LINE
  5
1E01
  8
0
 10
-573.59030859651455
 20
803.61514873645683
 30
0.0
 11
-571.59030859651455
 21
803.61514873645694
 31
0.0
  0
LINE
  5
1E02
  8
0
 10
-573.59030859651455
 20
787.61514873645683
 30
0.0
 11
-573.59030859651455
 21
803.61514873645683
 31
0.0
1001
ACAD
1000
ASC_BOUNDS
1002
{
1070
    19
1005
1E0B
1002
}
  0
LINE
  5
1E03
  8
0
 10
-573.59030859651455
 20
803.61514873645694
 30
0.0
 11
-571.59030859651466
 21
804.76984927483613
 31
0.0
1001
ACAD
1000
ASC_BOUNDS
1002
{
1070
    19
1005
1E0B
1002
}
  0
INSERT
  5
1E0B
  8
0
  6
CONTINUOUS
  2
*X6
 10
0.0
 20
0.0
 30
0.0
1001
ACAD
1000
HATCH
1002
{
1070
    19
1000
_USER
1040
1.5
1040
0.7853981633974483
1000
ASC_BOUNDS
1070
     1
1070
     1
1070
     7
1005
1E02
1005
1BED
1005
1BF0
1005
1BEF
1005
1CFB
1005
1BEC
1005
1E03
1000
ASC_SEEDPOINT
1011
-576.01941907860316
1021
0.0
1031
0.0
1021
801.62659406675618
1031
0.0
1000
R14_HATCH_DATA
1000
1E0B
1011
1.0
1021
0.0
1031
0.0
1021
0.0
1031
0.0
1011
0.0
1021
0.0
1031
0.0
1021
1.0
1031
0.0
1011
0.0
1021
0.0
1031
0.0
1021
0.0
1031
1.0
1040
0.0
1010
0.0
1020
0.0
1030
1.0
1000
_USER
1070
     0
1070
     1
1071
        1
1071
        7
1070
     0
1070
     1
1071
        7
1040
-573.59030859651455
1040
803.61514873645683
1040
-571.59030859651455
1040
804.76984927483625
1040
-571.59030859651455
1040
807.61514873645694
1040
-579.59030859651466
1040
807.61514873645694
1040
-579.59030859651466
1040
788.11514873645672
1040
-579.09030859651466
1040
787.61514873645672
1040
-573.59030859651455
1040
787.61514873645683
1071
        7
1005
1E03
1005
1BEC
1005
1CFB
1005
1BEF
1005
1BF0
1005
1BED
1005
1E02
1070
     0
1070
     0
1040
0.7853981633974483
1040
1.5
1070
     1
1070
     2
1040
0.7853981633974483
1040
0.0
1040
0.0
1040
-1.060660171779821
1040
1.060660171779821
1070
     0
1040
2.3561944901923439
1040
0.0
1040
0.0
1040
-1.060660171779821
1040
-1.060660171779821
1070
     0
1040
0.0566882643807639
1071
        1
1040
-576.01941907860316
1040
801.62659406675618
1040
0.0
1002
}
  0
INSERT
  5
21C4
  8
0
  6
CONTINUOUS
  2
*X7
 10
0.0
 20
0.0
 30
0.0
1001
ACAD
1000
HATCH
1002
{
1070
    19
1000
_USER
1040
2.0
1040
0.7853981633974483
1000
ASC_BOUNDS
1070
     1
1070
     1
1070
    21
1005
1BEF
1005
1C30
1005
1CB8
1005
1CB7
1005
1CBC
1005
1CBD
1005
1CB2
1005
1CBE
1005
1CAE
1005
1CB0
1005
1CAD
1005
1CAF
1005
1CAB
1005
1DBA
1005
1DFE
1005
1DFC
1005
1E00
1005
1DF8
1005
1DFF
1005
1DFA
1005
1CFB
1000
ASC_SEEDPOINT
1011
-583.27917282246835
1021
0.0
1031
0.0
1021
806.48670611184104
1031
0.0
1000
R14_HATCH_DATA
1000
21C4
1011
1.0
1021
0.0
1031
0.0
1021
0.0
1031
0.0
1011
0.0
1021
0.0
1031
0.0
1021
1.0
1031
0.0
1011
0.0
1021
0.0
1031
0.0
1021
0.0
1031
1.0
1040
0.0
1010
0.0
1020
0.0
1030
1.0
1000
_USER
1070
     0
1070
     1
1071
        1
1071
        7
1070
     1
1070
     1
1071
       21
1040
-579.59030859651466
1040
807.61514873645694
1040
0.0
1040
-578.59030859651477
1040
807.61514873645694
1040
0.0
1040
-578.59030859651477
1040
808.11514873645694
1040
0.4142135623730117
1040
-579.09030859651466
1040
808.61514873645694
1040
0.0
1040
-580.09030859651455
1040
808.61514873645706
1040
0.4142135623731838
1040
-580.59030859651466
1040
808.11514873645717
1040
0.0
1040
-580.59030859651466
1040
807.61514873645672
1040
0.0
1040
-586.09030859651455
1040
809.86514873645694
1040
0.0
1040
-586.84030859651477
1040
810.61514873645694
1040
0.0
1040
-595.84030859651466
1040
810.61514873645717
1040
0.0
1040
-596.59030859651455
1040
809.86514873645717
1040
0.0
1040
-596.59030859651455
1040
800.36514873645706
1040
0.0
1040
-595.84030859651455
1040
799.61514873645717
1040
0.0
1040
-586.59030859651477
1040
799.61514873645717
1040
0.4142135623730951
1040
-586.09030859651466
1040
800.11514873645729
1040
0.0
1040
-586.09030859651466
1040
802.59967928402989
1040
-0.5046037398793399
1040
-585.11974420988645
1040
803.31651354057146
1040
-0.3292536413343941
1040
-584.59030859651466
1040
802.59967928403012
1040
0.0
1040
-584.59030859651455
1040
797.11514873645683
1040
0.4142135623730982
1040
-584.09030859651455
1040
796.61514873645683
1040
0.0
1040
-579.59030859651466
1040
796.61514873645694
1040
0.0
1071
       21
1005
1CFB
1005
1DFA
1005
1DFF
1005
1DF8
1005
1E00
1005
1DFC
1005
1DFE
1005
1DBA
1005
1CAB
1005
1CAF
1005
1CAD
1005
1CB0
1005
1CAE
1005
1CBE
1005
1CB2
1005
1CBD
1005
1CBC
1005
1CB7
1005
1CB8
1005
1C30
1005
1BEF
1070
     0
1070
     0
1040
0.7853981633974483
1040
2.0
1070
     1
1070
     2
1040
0.7853981633974483
1040
0.0
1040
0.0
1040
-1.414213562373094
1040
1.4142135623730949
1070
     0
1040
2.3561944901923439
1040
0.0
1040
0.0
1040
-1.4142135623730949
1040
-1.414213562373094
1070
     0
1040
0.0399335245344048
1071
        1
1040
-583.27917282246835
1040
806.48670611184104
1040
0.0
1002
}
  0
CIRCLE
  5
21C5
  8
0
 10
-571.59030859651455
 20
736.49472088690413
 30
0.0
 40
14.5
  0
CIRCLE
  5
21C6
  8
0
 10
-571.59030859651455
 20
736.49472088690413
 30
0.0
 40
15.25
  0
CIRCLE
  5
21C7
  8
0
 10
-571.59030859651455
 20
736.49472088690413
 30
0.0
 40
24.25
  0
CIRCLE
  5
21C8
  8
0
 10
-571.59030859651455
 20
736.49472088690413
 30
0.0
 40
25.0
  0
INSERT
  5
2220
  8
0
  6
CONTINUOUS
  2
*X8
 10
0.0
 20
0.0
 30
0.0
1001
ACAD
1000
HATCH
1002
{
1070
    19
1000
_USER
1040
2.5
1040
0.7853981633974483
1000
ASC_BOUNDS
1070
     1
1070
     1
1070
    26
1005
1389
1005
138A
1005
138B
1005
138C
1005
1384
1005
138D
1005
1390
1005
138F
1005
13D9
1005
183E
1005
183F
1005
13D3
1005
13D6
1005
13D1
1005
13D5
1005
13D2
1005
1459
1005
1419
1005
14E7
1005
14E5
1005
14E1
1005
14E4
1005
1498
1005
14E3
1005
14E2
1005
1388
1000
ASC_SEEDPOINT
1011
-482.66664613040979
1021
0.0
1031
0.0
1021
819.6164368039905
1031
0.0
1000
R14_HATCH_DATA
1000
2220
1011
1.0
1021
0.0
1031
0.0
1021
0.0
1031
0.0
1011
0.0
1021
0.0
1031
0.0
1021
1.0
1031
0.0
1011
0.0
1021
0.0
1031
0.0
1021
0.0
1031
1.0
1040
0.0
1010
0.0
1020
0.0
1030
1.0
1000
_USER
1070
     0
1070
     1
1071
        1
1071
        7
1070
     1
1070
     1
1071
       26
1040
-468.10035864991511
1040
821.72095749507162
1040
0.0
1040
-467.10035864991499
1040
821.72095749507162
1040
0.0
1040
-467.10035864991522
1040
822.22095749507184
1040
0.4142135623731137
1040
-467.60035864991522
1040
822.72095749507196
1040
0.0
1040
-468.60035864991522
1040
822.72095749507184
1040
0.414213562373124
1040
-469.10035864991522
1040
822.22095749507173
1040
0.0
1040
-469.10035864991499
1040
821.72095749507184
1040
0.0
1040
-473.6003586499138
1040
821.72095749507196
1040
0.0
1040
-478.10035864991511
1040
824.22095749507173
1040
0.0
1040
-478.10035864991522
1040
824.72095749507162
1040
0.0
1040
-479.10035864991528
1040
825.7209574950715
1040
0.0
1040
-489.60035864991499
1040
825.7209574950715
1040
0.0
1040
-490.60035864991522
1040
824.72095749507139
1040
0.0
1040
-490.60035864991511
1040
813.72095749507162
1040
0.0
1040
-489.60035864991511
1040
812.72095749507162
1040
0.0
1040
-479.10035864991499
1040
812.72095749507184
1040
0.0
1040
-478.10035864991499
1040
813.72095749507184
1040
0.0
1040
-478.10035864991511
1040
818.45172672584101
1040
0.0
1040
-472.10035864991499
1040
815.22095749507173
1040
0.0
1040
-472.10035864991511
1040
808.22095749507173
1040
0.4142135623730951
1040
-471.60035864991511
1040
807.72095749507184
1040
0.0
1040
-468.10035864991511
1040
807.72095749507162
1040
0.0
1040
-468.10035864991511
1040
808.72095749507184
1040
0.0
1040
-469.10035864991499
1040
808.72095749507173
1040
0.0
1040
-469.10035864991499
1040
809.72095749507173
1040
0.0
1040
-468.10035864991511
1040
809.72095749507184
1040
0.0
1071
       26
1005
1388
1005
14E2
1005
14E3
1005
1498
1005
14E4
1005
14E1
1005
14E5
1005
14E7
1005
1419
1005
1459
1005
13D2
1005
13D5
1005
13D1
1005
13D6
1005
13D3
1005
183F
1005
183E
1005
13D9
1005
138F
1005
1390
1005
138D
1005
1384
1005
138C
1005
138B
1005
138A
1005
1389
1070
     0
1070
     0
1040
0.7853981633974483
1040
2.5
1070
     1
1070
     2
1040
0.7853981633974483
1040
0.0
1040
0.0
1040
-1.767766952966368
1040
1.767766952966368
1070
     0
1040
2.3561944901923439
1040
0.0
1040
0.0
1040
-1.767766952966368
1040
-1.767766952966368
1070
     0
1040
0.0742479615316688
1071
        1
1040
-482.66664613040979
1040
819.6164368039905
1040
0.0
1002
}
  0
CIRCLE
  5
2221
  8
0
 10
-458.10035864991499
 20
736.49472088690413
 30
0.0
 40
20.0
  0
CIRCLE
  5
2222
  8
0
 10
-458.10035864991499
 20
736.49472088690413
 30
0.0
 40
21.0
  0
CIRCLE
  5
2223
  8
0
 10
-458.10035864991499
 20
736.49472088690413
 30
0.0
 40
31.5
  0
CIRCLE
  5
2224
  8
0
 10
-458.10035864991499
 20
736.49472088690413
 30
0.0
 40
32.5
  0
INSERT
  5
227D
  8
0
  6
CONTINUOUS
  2
*X9
 10
0.0
 20
0.0
 30
0.0
1001
ACAD
1000
HATCH
1002
{
1070
    19
1000
_USER
1040
2.5
1040
0.7853981633974483
1000
ASC_BOUNDS
1070
     1
1070
     1
1070
    27
1005
FC1
1005
FD1
1005
FBF
1005
FCF
1005
FC0
1005
FD0
1005
FBC
1005
1011
1005
1010
1005
FCD
1005
FCE
1005
10FC
1005
10FE
1005
10FD
1005
10FF
1005
10FB
1005
1013
1005
10F0
1005
10EE
1005
10EF
1005
10ED
1005
EFC
1005
F01
1005
F42
1005
F02
1005
FC7
1005
FC6
1000
ASC_SEEDPOINT
1011
-359.77165874574888
1021
0.0
1031
0.0
1021
826.52721329611109
1031
0.0
1000
R14_HATCH_DATA
1000
227D
1011
1.0
1021
0.0
1031
0.0
1021
0.0
1031
0.0
1011
0.0
1021
0.0
1031
0.0
1021
1.0
1031
0.0
1011
0.0
1021
0.0
1031
0.0
1021
0.0
1031
1.0
1040
0.0
1010
0.0
1020
0.0
1030
1.0
1000
_USER
1070
     0
1070
     1
1071
        1
1071
        7
1070
     1
1070
     1
1071
       27
1040
-356.28572879917959
1040
829.19197319170621
1040
0.0
1040
-348.102242673006
1040
826.21616005491592
1040
-0.3153798303920367
1040
-346.78572879917931
1040
824.33657320793907
1040
0.0
1040
-346.78572879917931
1040
814.98742773716071
1040
0.4142135623730959
1040
-346.03572879917931
1040
814.2374277371606
1040
0.0
1040
-341.78572879917948
1040
814.23742773716106
1040
0.0
1040
-341.78572879917942
1040
815.23742773716083
1040
0.0
1040
-342.78572879917942
1040
815.23742773716083
1040
0.0
1040
-342.78572879917942
1040
816.23742773716083
1040
0.0
1040
-341.78572879917948
1040
816.23742773716094
1040
0.0
1040
-341.78572879917948
1040
831.23742773716083
1040
0.0
1040
-339.78572879917942
1040
831.23742773716083
1040
0.0
1040
-339.78572879917942
1040
831.73742773716071
1040
0.4142135623730951
1040
-340.28572879917942
1040
832.2374277371606
1040
0.0
1040
-343.28572879917942
1040
832.2374277371606
1040
0.4142135623730951
1040
-343.78572879917948
1040
831.73742773716071
1040
0.0
1040
-343.78572879917948
1040
829.73742773716015
1040
0.0
1040
-349.78572879917908
1040
829.73742773716037
1040
0.0
1040
-356.28572879917948
1040
833.23742773716083
1040
0.0
1040
-356.28572879917948
1040
834.23742773716037
1040
0.0
1040
-357.28572879917942
1040
835.23742773716049
1040
0.0
1040
-370.78572879917942
1040
835.23742773716049
1040
0.0
1040
-371.78572879917959
1040
834.2374277371606
1040
0.0
1040
-371.78572879917948
1040
822.2374277371606
1040
0.0
1040
-370.78572879917948
1040
821.23742773716049
1040
0.0
1040
-357.28572879917942
1040
821.23742773716083
1040
0.0
1040
-356.28572879917948
1040
822.2374277371606
1040
0.0
1071
       27
1005
FC6
1005
FC7
1005
F02
1005
F42
1005
F01
1005
EFC
1005
10ED
1005
10EF
1005
10EE
1005
10F0
1005
1013
1005
10FB
1005
10FF
1005
10FD
1005
10FE
1005
10FC
1005
FCE
1005
FCD
1005
1010
1005
1011
1005
FBC
1005
FD0
1005
FC0
1005
FCF
1005
FBF
1005
FD1
1005
FC1
1070
     0
1070
     0
1040
0.7853981633974483
1040
2.5
1070
     1
1070
     2
1040
0.7853981633974483
1040
0.0
1040
0.0
1040
-1.767766952966368
1040
1.767766952966368
1070
     0
1040
2.3561944901923439
1040
0.0
1040
0.0
1040
-1.767766952966368
1040
-1.767766952966368
1070
     0
1040
0.0765671234063964
1071
        1
1040
-359.77165874574888
1040
826.52721329611109
1040
0.0
1002
}
  0
CIRCLE
  5
227E
  8
0
 10
-331.78572879917942
 20
736.49472088690413
 30
0.0
 40
25.0
  0
CIRCLE
  5
227F
  8
0
 10
-331.78572879917942
 20
736.49472088690413
 30
0.0
 40
26.0
  0
CIRCLE
  5
2280
  8
0
 10
-331.78572879917942
 20
736.49472088690413
 30
0.0
 40
39.0
  0
CIRCLE
  5
2281
  8
0
 10
-331.78572879917942
 20
736.49472088690413
 30
0.0
 40
40.0
  0
INSERT
  5
22F8
  8
0
  6
CONTINUOUS
  2
*X10
 10
0.0
 20
0.0
 30
0.0
1001
ACAD
1000
HATCH
1002
{
1070
    19
1000
_USER
1040
3.0
1040
0.7853981633974483
1000
ASC_BOUNDS
1070
     1
1070
     1
1070
    28
1005
10C0
1005
10BE
1005
10BF
1005
10BD
1005
ACE
1005
AD0
1005
B12
1005
AD2
1005
B9E
1005
B9D
1005
B9B
1005
C25
1005
C29
1005
B56
1005
B58
1005
B55
1005
B57
1005
B52
1005
C26
1005
C24
1005
C23
1005
C21
1005
CA6
1005
CAA
1005
C20
1005
CAD
1005
CAC
1005
C1C
1000
ASC_SEEDPOINT
1011
-208.5827811149247
1021
0.0
1031
0.0
1021
845.91022900737437
1031
0.0
1000
R14_HATCH_DATA
1000
22F8
1011
1.0
1021
0.0
1031
0.0
1021
0.0
1031
0.0
1011
0.0
1021
0.0
1031
0.0
1021
1.0
1031
0.0
1011
0.0
1021
0.0
1031
0.0
1021
0.0
1031
1.0
1040
0.0
1010
0.0
1020
0.0
1030
1.0
1000
_USER
1070
     0
1070
     1
1071
        1
1071
        7
1070
     1
1070
     1
1071
       28
1040
-198.73514627148549
1040
850.40094098334146
1040
0.0
1040
-196.73514627148549
1040
850.40094098334146
1040
0.0
1040
-196.73514627148549
1040
850.90094098334077
1040
0.4142135623730546
1040
-197.23514627148541
1040
851.40094098334089
1040
0.0
1040
-200.23514627148541
1040
851.40094098334146
1040
0.4142135623731522
1040
-200.73514627148549
1040
850.90094098334146
1040
0.0
1040
-200.73514627148541
1040
849.40094098334134
1040
0.0
1040
-207.73514627148589
1040
849.40094098334146
1040
0.0
1040
-220.23514627148549
1040
854.40094098334146
1040
0.0
1040
-220.23514627148549
1040
855.400940983341
1040
0.0
1040
-221.23514627148549
1040
856.40094098334123
1040
0.0
1040
-235.73514627148549
1040
856.40094098334134
1040
0.0
1040
-236.73514627148549
1040
855.40094098334123
1040
0.0
1040
-236.73514627148549
1040
843.40094098334134
1040
0.0
1040
-235.73514627148541
1040
842.40094098334134
1040
0.0
1040
-222.73514627148549
1040
842.40094098334134
1040
0.0
1040
-221.23514627148589
1040
842.40094098334134
1040
0.0
1040
-220.2351462714856
1040
843.40094098334134
1040
0.0
1040
-220.23514627148569
1040
849.15094098334146
1040
0.0
1040
-206.1171122827356
1040
842.0919239889663
1040
-0.2840790438404159
1040
-204.73514627148549
1040
839.85585601146647
1040
0.0
1040
-204.73514627148549
1040
833.40094098334134
1040
0.4142135623730932
1040
-203.73514627148549
1040
832.40094098334134
1040
0.0
1040
-198.73514627148549
1040
832.40094098334146
1040
0.0
1040
-198.73514627148549
1040
833.40094098334134
1040
0.0
1040
-199.73514627148549
1040
833.40094098334134
1040
0.0
1040
-199.73514627148549
1040
834.40094098334146
1040
0.0
1040
-198.73514627148549
1040
834.40094098334134
1040
0.0
1071
       28
1005
C1C
1005
CAC
1005
CAD
1005
C20
1005
CAA
1005
CA6
1005
C21
1005
C23
1005
C24
1005
C26
1005
B52
1005
B57
1005
B55
1005
B58
1005
B56
1005
C29
1005
C25
1005
B9B
1005
B9D
1005
B9E
1005
AD2
1005
B12
1005
AD0
1005
ACE
1005
10BD
1005
10BF
1005
10BE
1005
10C0
1070
     0
1070
     0
1040
0.7853981633974483
1040
3.0
1070
     1
1070
     2
1040
0.7853981633974483
1040
0.0
1040
0.0
1040
-2.1213203435596419
1040
2.1213203435596419
1070
     0
1040
2.3561944901923439
1040
0.0
1040
0.0
1040
-2.1213203435596419
1040
-2.1213203435596419
1070
     0
1040
0.0736014949986674
1071
        1
1040
-208.5827811149247
1040
845.91022900737437
1040
0.0
1002
}
  0
CIRCLE
  5
22F9
  8
0
 10
-186.73514627148549
 20
736.49472088690413
 30
0.0
 40
33.5
  0
CIRCLE
  5
22FA
  8
0
 10
-186.73514627148549
 20
736.49472088690413
 30
0.0
 40
34.5
  0
CIRCLE
  5
22FB
  8
0
 10
-186.73514627148549
 20
736.49472088690413
 30
0.0
 40
49.0
  0
CIRCLE
  5
22FC
  8
0
 10
-186.73514627148549
 20
736.49472088690413
 30
0.0
 40
50.0
  0
INSERT
  5
2318
  8
0
  6
CONTINUOUS
  2
*X11
 10
0.0
 20
0.0
 30
0.0
1001
ACAD
1000
HATCH
1002
{
1070
    19
1000
_USER
1040
3.0
1040
0.7853981633974483
1000
ASC_BOUNDS
1070
     1
1070
     1
1070
    27
1005
108F
1005
108E
1005
1090
1005
108D
1005
87A
1005
76F
1005
7FC
1005
770
1005
82A
1005
825
1005
87D
1005
8D9
1005
821
1005
8D7
1005
822
1005
8D6
1005
81F
1005
8D8
1005
87E
1005
837
1005
834
1005
839
1005
83C
1005
838
1005
83B
1005
83A
1005
833
1000
ASC_SEEDPOINT
1011
-40.591593459567783
1021
0.0
1031
0.0
1021
868.38109093146898
1031
0.0
1000
R14_HATCH_DATA
1000
2318
1011
1.0
1021
0.0
1031
0.0
1021
0.0
1031
0.0
1011
0.0
1021
0.0
1031
0.0
1021
1.0
1031
0.0
1011
0.0
1021
0.0
1031
0.0
1021
0.0
1031
1.0
1040
0.0
1010
0.0
1020
0.0
1030
1.0
1000
_USER
1070
     0
1070
     1
1071
        1
1071
        7
1070
     1
1070
     1
1071
       27
1040
-23.10582081159896
1040
872.00950971331122
1040
0.0
1040
-19.10582081159896
1040
872.00950971331122
1040
0.0
1040
-19.10582081159896
1040
872.25950971331145
1040
0.4142135623731095
1040
-20.105820811598999
1040
873.25950971331133
1040
0.0
1040
-22.605820811598999
1040
873.25950971331133
1040
0.4142135623730822
1040
-23.60582081159896
1040
872.25950971331145
1040
0.0
1040
-23.60582081159896
1040
871.00950971331133
1040
0.0
1040
-32.10582081159933
1040
871.00950971331145
1040
0.0
1040
-51.60582081159896
1040
877.04522399902555
1040
0.0
1040
-51.605820811598953
1040
880.00950971331156
1040
0.0
1040
-52.60582081159896
1040
881.00950971331145
1040
0.0
1040
-68.605820811599017
1040
881.00950971331145
1040
0.0
1040
-69.60582081159896
1040
880.00950971331156
1040
0.0
1040
-69.60582081159896
1040
866.00950971331099
1040
0.0
1040
-68.605820811598932
1040
865.00950971331099
1040
0.0
1040
-52.60582081159896
1040
865.00950971331099
1040
0.0
1040
-51.605820811598953
1040
866.00950971331099
1040
0.0
1040
-51.605820811598939
1040
871.7282597133111
1040
0.0
1040
-32.065181507995668
1040
861.55084340935127
1040
-0.2796189540012253
1040
-29.10582081159896
1040
856.67281594643293
1040
0.0
1040
-29.10582081159896
1040
851.00950971331145
1040
0.4142135623731617
1040
-28.10582081159896
1040
850.00950971331133
1040
0.0
1040
-23.10582081159896
1040
850.00950971331133
1040
0.0
1040
-23.10582081159896
1040
851.00950971331133
1040
0.0
1040
-24.10582081159896
1040
851.00950971331133
1040
0.0
1040
-24.10582081159896
1040
852.00950971331133
1040
0.0
1040
-23.10582081159896
1040
852.00950971331133
1040
0.0
1071
       27
1005
833
1005
83A
1005
83B
1005
838
1005
83C
1005
839
1005
834
1005
837
1005
87E
1005
8D8
1005
81F
1005
8D6
1005
822
1005
8D7
1005
821
1005
8D9
1005
87D
1005
825
1005
82A
1005
770
1005
7FC
1005
76F
1005
87A
1005
108D
1005
1090
1005
108E
1005
108F
1070
     0
1070
     0
1040
0.7853981633974483
1040
3.0
1070
     1
1070
     2
1040
0.7853981633974483
1040
0.0
1040
0.0
1040
-2.1213203435596419
1040
2.1213203435596419
1070
     0
1040
2.3561944901923439
1040
0.0
1040
0.0
1040
-2.1213203435596419
1040
-2.1213203435596419
1070
     0
1040
0.0798371420775516
1071
        1
1040
-40.591593459567783
1040
868.38109093146898
1040
0.0
1002
}
  0
CIRCLE
  5
2319
  8
0
 10
-7.1058208115989601
 20
736.49472088690413
 30
0.0
 40
45.0
  0
CIRCLE
  5
231A
  8
0
 10
-7.1058208115989601
 20
736.49472088690413
 30
0.0
 40
46.0
  0
CIRCLE
  5
231B
  8
0
 10
-7.1058208115989601
 20
736.49472088690413
 30
0.0
 40
61.5
  0
CIRCLE
  5
231C
  8
0
 10
-7.1058208115989601
 20
736.49472088690413
 30
0.0
 40
62.5
  0
INSERT
  5
2375
  8
0
  6
CONTINUOUS
  2
*X12
 10
0.0
 20
0.0
 30
0.0
1001
ACAD
1000
HATCH
1002
{
1070
    19
1000
_USER
1040
3.0
1040
0.7853981633974483
1000
ASC_BOUNDS
1070
     1
1070
     1
1070
    27
1005
1FF
1005
1F8
1005
1F9
1005
1FA
1005
1F7
1005
204
1005
1FD
1005
1CA
1005
58E
1005
58F
1005
590
1005
1BE
1005
1C0
1005
207
1005
1C1
1005
209
1005
212
1005
213
1005
1D4
1005
3F7
1005
1C2
1005
3F4
1005
1BC
1005
3F3
1005
1C3
1005
3F6
1005
1BD
1000
ASC_SEEDPOINT
1011
145.8631924874239
1021
0.0
1031
0.0
1021
895.72056089476166
1031
0.0
1000
R14_HATCH_DATA
1000
2375
1011
1.0
1021
0.0
1031
0.0
1021
0.0
1031
0.0
1011
0.0
1021
0.0
1031
0.0
1021
1.0
1031
0.0
1011
0.0
1021
0.0
1031
0.0
1021
0.0
1031
1.0
1040
0.0
1010
0.0
1020
0.0
1030
1.0
1000
_USER
1070
     0
1070
     1
1071
        1
1071
        7
1070
     1
1070
     1
1071
       27
1040
146.87818989426469
1040
899.84276136387848
1040
0.0
1040
146.87818989426481
1040
903.34276136387848
1040
0.0
1040
145.37818989426481
1040
904.84276136387859
1040
0.0
1040
128.37818989426481
1040
904.84276136387859
1040
0.0
1040
126.87818989426469
1040
903.34276136387848
1040
0.0
1040
126.87818989426481
1040
887.84276136387882
1040
0.0
1040
128.37818989426481
1040
886.34276136387894
1040
0.0
1040
145.37818989426469
1040
886.34276136387894
1040
0.0
1040
146.87818989426469
1040
887.84276136387894
1040
0.0
1040
146.87818989426469
1040
894.46062716595986
1040
0.0
1040
159.70324514754381
1040
886.34276136387871
1040
0.0
1040
178.5099843345175
1040
874.43867347657238
1040
-0.2471757795466177
1040
179.37818989426469
1040
872.78972188692114
1040
0.0
1040
179.37818989426469
1040
868.84276136387848
1040
0.4142135623731034
1040
181.37818989426481
1040
866.84276136387848
1040
0.0
1040
185.87818989426469
1040
866.84276136387848
1040
0.0
1040
185.87818989426469
1040
867.34276136387859
1040
0.0
1040
183.87818989426469
1040
867.34276136387882
1040
0.0
1040
183.87818989426469
1040
868.84276136387825
1040
0.0
1040
185.87818989426469
1040
868.84276136387859
1040
0.0
1040
185.87818989426481
1040
894.34276136387871
1040
0.0
1040
188.37819200234549
1040
894.34276136387871
1040
0.4142135623729449
1040
186.87819200234549
1040
895.84276136387814
1040
0.0
1040
181.37819137474889
1040
895.84276136387791
1040
0.4142135623730896
1040
179.87819137474889
1040
894.3427613638778
1040
0.0
1040
179.87819137474889
1040
891.84276136387848
1040
0.0
1040
169.87819137474901
1040
891.84276136387848
1040
0.0
1071
       27
1005
1BD
1005
3F6
1005
1C3
1005
3F3
1005
1BC
1005
3F4
1005
1C2
1005
3F7
1005
1D4
1005
213
1005
212
1005
209
1005
1C1
1005
207
1005
1C0
1005
1BE
1005
590
1005
58F
1005
58E
1005
1CA
1005
1FD
1005
204
1005
1F7
1005
1FA
1005
1F9
1005
1F8
1005
1FF
1070
     0
1070
     0
1040
0.7853981633974483
1040
3.0
1070
     1
1070
     2
1040
0.7853981633974483
1040
0.0
1040
0.0
1040
-2.1213203435596419
1040
2.1213203435596419
1070
     0
1040
2.3561944901923439
1040
0.0
1040
0.0
1040
-2.1213203435596419
1040
-2.1213203435596419
1070
     0
1040
0.0962915958151538
1071
        1
1040
145.8631924874239
1040
895.72056089476166
1040
0.0
1002
}
  0
CIRCLE
  5
2376
  8
0
 10
201.87818989426481
 20
736.49472088690413
 30
0.0
 40
55.0
  0
CIRCLE
  5
2377
  8
0
 10
201.87818989426481
 20
736.49472088690413
 30
0.0
 40
56.0
  0
CIRCLE
  5
2378
  8
0
 10
201.87818989426481
 20
736.49472088690413
 30
0.0
 40
74.0
  0
CIRCLE
  5
2379
  8
0
 10
201.87818989426481
 20
736.49472088690413
 30
0.0
 40
75.0
  0
INSERT
  5
2394
  8
0
  6
CONTINUOUS
  2
*X13
 10
0.0
 20
0.0
 30
0.0
1001
ACAD
1000
HATCH
1002
{
1070
    19
1000
_USER
1040
3.5
1040
0.7853981633974483
1000
ASC_BOUNDS
1070
     1
1070
     1
1070
    26
1005
528
1005
527
1005
52F
1005
530
1005
52E
1005
583
1005
570
1005
56D
1005
5FD
1005
5FA
1005
5FC
1005
5FB
1005
520
1005
4D9
1005
586
1005
4DE
1005
4E0
1005
646
1005
645
1005
4D2
1005
57E
1005
4D0
1005
57D
1005
4D1
1005
57C
1005
644
1000
ASC_SEEDPOINT
1011
360.20902520251587
1021
0.0
1031
0.0
1021
930.66757745372934
1031
0.0
1000
R14_HATCH_DATA
1000
2394
1011
1.0
1021
0.0
1031
0.0
1021
0.0
1031
0.0
1011
0.0
1021
0.0
1031
0.0
1021
1.0
1031
0.0
1011
0.0
1021
0.0
1031
0.0
1021
0.0
1031
1.0
1040
0.0
1010
0.0
1020
0.0
1030
1.0
1000
_USER
1070
     0
1070
     1
1071
        1
1071
        7
1070
     1
1070
     1
1071
       26
1040
366.34184412660312
1040
933.15066294540907
1040
0.0
1040
366.34184412660312
1040
937.58061911428388
1040
0.0
1040
364.84184412660301
1040
939.08061911428365
1040
0.0
1040
343.84184412660312
1040
939.0806191142841
1040
0.0
1040
342.34184412660318
1040
937.58061911428399
1040
0.0
1040
342.34184412660301
1040
919.58061911428388
1040
0.0
1040
343.84184412660301
1040
918.08061911428399
1040
0.0
1040
365.34184412660312
1040
918.08061911428422
1040
0.4142135623730934
1040
366.34184412660312
1040
919.08061911428422
1040
0.0
1040
366.34184412660312
1040
928.8282381619033
1040
0.0
1040
413.34184412660289
1040
909.5806191142841
1040
0.0
1040
413.34184412660301
1040
897.58061911428365
1040
0.4142135623730987
1040
413.84184412660301
1040
897.08061911428376
1040
0.0
1040
422.34184412660318
1040
897.08061911428388
1040
0.0
1040
422.34184412660318
1040
897.58061911428399
1040
0.0
1040
420.34184412660318
1040
897.58061911428399
1040
0.0
1040
420.34184412660318
1040
899.0806191142841
1040
0.0
1040
422.34184412660318
1040
899.08061911428388
1040
0.0
1040
422.34184412660312
1040
923.58061911428376
1040
0.0
1040
425.34184412660318
1040
923.58061911428399
1040
0.0
1040
425.34184412660301
1040
924.5806191142841
1040
0.4142135623730003
1040
424.84184412660301
1040
925.08061911428399
1040
0.0
1040
415.84184412660318
1040
925.08061911428422
1040
0.4142135623731103
1040
414.84184412660318
1040
924.08061911428422
1040
0.0
1040
414.84184412660318
1040
921.08061911428445
1040
0.0
1040
395.81520697004731
1040
921.08061911428445
1040
0.0
1071
       26
1005
644
1005
57C
1005
4D1
1005
57D
1005
4D0
1005
57E
1005
4D2
1005
645
1005
646
1005
4E0
1005
4DE
1005
586
1005
4D9
1005
520
1005
5FB
1005
5FC
1005
5FA
1005
5FD
1005
56D
1005
570
1005
583
1005
52E
1005
530
1005
52F
1005
527
1005
528
1070
     0
1070
     0
1040
0.7853981633974483
1040
3.5
1070
     1
1070
     2
1040
0.7853981633974483
1040
0.0
1040
0.0
1040
-2.4748737341529159
1040
2.4748737341529159
1070
     0
1040
2.3561944901923439
1040
0.0
1040
0.0
1040
-2.4748737341529159
1040
-2.474873734152915
1070
     0
1040
0.1219668885300744
1071
        1
1040
360.20902520251587
1040
930.66757745372934
1040
0.0
1002
}
  0
CIRCLE
  5
2395
  8
0
 10
442.34184412660301
 20
736.49472088690413
 30
0.0
 40
75.0
  0
CIRCLE
  5
2396
  8
0
 10
442.34184412660301
 20
736.49472088690413
 30
0.0
 40
76.0
  0
CIRCLE
  5
2397
  8
0
 10
442.34184412660301
 20
736.49472088690413
 30
0.0
 40
99.0
  0
CIRCLE
  5
2398
  8
0
 10
442.34184412660301
 20
736.49472088690413
 30
0.0
 40
100.0
  0
VIEWPORT
  5
8D
 67
     1
  8
0
 10
143.47825622558591
 20
99.980751991271987
 30
0.0
 40
339.12752973873143
 41
222.1965796813964
 68
     1
 69
     1
1001
ACAD
1000
MVIEW
1002
{
1070
    16
1010
0.0
1020
0.0
1030
0.0
1010
0.0
1020
0.0
1030
1.0
1040
0.0
1040
222.1965796813964
1040
143.47825622558591
1040
99.980751991271987
1040
50.0
1040
0.0
1040
0.0
1070
     0
1070
   100
1070
     1
1070
     1
1070
     0
1070
     0
1070
     0
1070
     0
1040
0.0
1040
0.0
1040
0.0
1040
10.0
1040
10.0
1040
10.0
1040
10.0
1070
     0
1002
{
1002
}
1002
}
  0
VIEWPORT
  5
8F
 67
     1
  8
0
 10
143.37242841720581
 20
99.874916553497314
 30
0.0
 40
229.3958854675293
 41
159.79986648559569
 68
     2
 69
     2
1001
ACAD
1000
MVIEW
1002
{
1070
    16
1010
0.0
1020
0.0
1030
0.0
1010
0.0
1020
0.0
1030
1.0
1040
0.0
1040
300.10452961672468
1040
210.0
1040
148.5
1040
50.0
1040
0.0
1040
0.0
1070
     0
1070
   100
1070
     1
1070
     2
1070
     0
1070
     0
1070
     0
1070
     0
1040
0.0
1040
0.0
1040
0.0
1040
10.0
1040
10.0
1040
10.0
1040
10.0
1070
     0
1002
{
1002
}
1002
}
  0
ENDSEC
  0
EOF
