  0
SECTION
  2
HEADER
  9
$ACADVER
  1
AC1009
  9
$INSBASE
 10
-3.888145
 20
303.995803
 30
0.0
  9
$EXTMIN
 10
-31.729899
 20
262.095419
 30
0.0
  9
$EXTMAX
 10
315.052755
 20
363.047425
 30
0.0
  9
$LIMMIN
 10
0.0
 20
0.0
  9
$LIMMAX
 10
12.0
 20
9.0
  9
$ORTHOMODE
 70
     1
  9
$REGENMODE
 70
     1
  9
$FILLMODE
 70
     1
  9
$QTEXTMODE
 70
     0
  9
$MIRRTEXT
 70
     1
  9
$DRAGMODE
 70
     2
  9
$LTSCALE
 40
5.0
  9
$OSMODE
 70
     0
  9
$ATTMODE
 70
     1
  9
$TEXTSIZE
 40
4.0
  9
$TRACEWID
 40
0.05
  9
$TEXTSTYLE
  7
STANDARD
  9
$CLAYER
  8
0
  9
$CELTYPE
  6
BYLAYER
  9
$CECOLOR
 62
   256
  9
$DIMSCALE
 40
1.0
  9
$DIMASZ
 40
2.5
  9
$DIMEXO
 40
0.0
  9
$DIMDLI
 40
5.0
  9
$DIMRND
 40
0.0
  9
$DIMDLE
 40
0.0
  9
$DIMEXE
 40
1.0
  9
$DIMTP
 40
0.0
  9
$DIMTM
 40
0.0
  9
$DIMTXT
 40
2.5
  9
$DIMCEN
 40
0.09
  9
$DIMTSZ
 40
0.0
  9
$DIMTOL
 70
     0
  9
$DIMLIM
 70
     0
  9
$DIMTIH
 70
     0
  9
$DIMTOH
 70
     0
  9
$DIMSE1
 70
     0
  9
$DIMSE2
 70
     0
  9
$DIMTAD
 70
     1
  9
$DIMZIN
 70
     0
  9
$DIMBLK
  1
PIL
  9
$DIMASO
 70
     0
  9
$DIMSHO
 70
     0
  9
$DIMPOST
  1

  9
$DIMAPOST
  1

  9
$DIMALT
 70
     0
  9
$DIMALTD
 70
     2
  9
$DIMALTF
 40
25.4
  9
$DIMLFAC
 40
1.0
  9
$DIMTOFL
 70
     1
  9
$DIMTVP
 40
0.0
  9
$DIMTIX
 70
     0
  9
$DIMSOXD
 70
     0
  9
$DIMSAH
 70
     0
  9
$DIMBLK1
  1

  9
$DIMBLK2
  1

  9
$DIMSTYLE
  2
*UNNAMED
  9
$DIMCLRD
 70
     0
  9
$DIMCLRE
 70
     0
  9
$DIMCLRT
 70
     0
  9
$DIMTFAC
 40
1.0
  9
$DIMGAP
 40
0.09
  9
$LUNITS
 70
     2
  9
$LUPREC
 70
     4
  9
$SKETCHINC
 40
0.1
  9
$FILLETRAD
 40
1.0
  9
$AUNITS
 70
     0
  9
$AUPREC
 70
     0
  9
$MENU
  1
wiberger
  9
$ELEVATION
 40
0.0
  9
$PELEVATION
 40
0.0
  9
$THICKNESS
 40
0.0
  9
$LIMCHECK
 70
     0
  9
$BLIPMODE
 70
     1
  9
$CHAMFERA
 40
0.0
  9
$CHAMFERB
 40
0.0
  9
$SKPOLY
 70
     0
  9
$TDCREATE
 40
2450189.555687615
  9
$TDUPDATE
 40
2450218.452345717
  9
$TDINDWG
 40
0.0033052083
  9
$TDUSRTIMER
 40
0.0033052083
  9
$USRTIMER
 70
     1
  9
$ANGBASE
 50
0.0
  9
$ANGDIR
 70
     0
  9
$PDMODE
 70
     0
  9
$PDSIZE
 40
0.0
  9
$PLINEWID
 40
0.0
  9
$COORDS
 70
     2
  9
$SPLFRAME
 70
     0
  9
$SPLINETYPE
 70
     6
  9
$SPLINESEGS
 70
     8
  9
$ATTDIA
 70
     0
  9
$ATTREQ
 70
     1
  9
$HANDLING
 70
     0
  9
$HANDSEED
  5
0
  9
$SURFTAB1
 70
     6
  9
$SURFTAB2
 70
     6
  9
$SURFTYPE
 70
     6
  9
$SURFU
 70
     6
  9
$SURFV
 70
     6
  9
$UCSNAME
  2

  9
$UCSORG
 10
0.0
 20
0.0
 30
0.0
  9
$UCSXDIR
 10
1.0
 20
0.0
 30
0.0
  9
$UCSYDIR
 10
0.0
 20
1.0
 30
0.0
  9
$PUCSNAME
  2

  9
$PUCSORG
 10
0.0
 20
0.0
 30
0.0
  9
$PUCSXDIR
 10
1.0
 20
0.0
 30
0.0
  9
$PUCSYDIR
 10
0.0
 20
1.0
 30
0.0
  9
$USERI1
 70
     0
  9
$USERI2
 70
     0
  9
$USERI3
 70
     0
  9
$USERI4
 70
     0
  9
$USERI5
 70
     0
  9
$USERR1
 40
0.0
  9
$USERR2
 40
0.0
  9
$USERR3
 40
0.0
  9
$USERR4
 40
0.0
  9
$USERR5
 40
0.0
  9
$WORLDVIEW
 70
     1
  9
$SHADEDGE
 70
     3
  9
$SHADEDIF
 70
    70
  9
$TILEMODE
 70
     1
  9
$MAXACTVP
 70
    16
  9
$PINSBASE
 10
0.0
 20
0.0
 30
0.0
  9
$PLIMCHECK
 70
     0
  9
$PEXTMIN
 10
1.000000E+20
 20
1.000000E+20
 30
1.000000E+20
  9
$PEXTMAX
 10
-1.000000E+20
 20
-1.000000E+20
 30
-1.000000E+20
  9
$PLIMMIN
 10
0.0
 20
0.0
  9
$PLIMMAX
 10
12.0
 20
9.0
  9
$UNITMODE
 70
     0
  9
$VISRETAIN
 70
     0
  9
$PLINEGEN
 70
     0
  9
$PSLTSCALE
 70
     0
  9
$TREEDEPTH
 70
  3020
  9
$DWGCODEPAGE
  3
undefined
  0
ENDSEC
  0
SECTION
  2
TABLES
  0
TABLE
  2
VPORT
 70
     2
  0
VPORT
  2
*ACTIVE
 70
     0
 10
0.0
 20
0.0
 11
1.0
 21
1.0
 12
197.176105
 22
307.238527
 13
0.0
 23
0.0
 14
1.0
 24
1.0
 15
0.0
 25
0.0
 16
0.0
 26
0.0
 36
1.0
 17
0.0
 27
0.0
 37
0.0
 40
276.888667
 41
1.767507
 42
50.0
 43
0.0
 44
0.0
 50
0.0
 51
0.0
 71
     0
 72
   100
 73
     1
 74
     0
 75
     0
 76
     0
 77
     0
 78
     0
  0
ENDTAB
  0
TABLE
  2
LTYPE
 70
     2
  0
LTYPE
  2
CONTINUOUS
 70
    64
  3
Solid line
 72
    65
 73
     0
 40
0.0
  0
LTYPE
  2
CENTER
 70
    64
  3
____ _ ____ _ ____ _ ____ _ ____ _ ____ _ ____
 72
    65
 73
     4
 40
2.0
 49
1.25
 49
-0.25
 49
0.25
 49
-0.25
  0
ENDTAB
  0
TABLE
  2
LAYER
 70
     1
  0
LAYER
  2
0
 70
    64
 62
     7
  6
CONTINUOUS
  0
ENDTAB
  0
TABLE
  2
STYLE
 70
     1
  0
STYLE
  2
STANDARD
 70
     0
 40
0.0
 41
1.0
 50
0.0
 71
     0
 42
0.2
  3
txt
  4

  0
ENDTAB
  0
TABLE
  2
VIEW
 70
     0
  0
ENDTAB
  0
TABLE
  2
UCS
 70
     0
  0
ENDTAB
  0
TABLE
  2
APPID
 70
     1
  0
APPID
  2
ACAD
 70
    64
  0
ENDTAB
  0
TABLE
  2
DIMSTYLE
 70
     0
  0
ENDTAB
  0
ENDSEC
  0
SECTION
  2
BLOCKS
  0
BLOCK
  8
0
  2
*X0
 70
    65
 10
0.0
 20
0.0
 30
0.0
  3
*X
  0
LINE
  8
0
 62
     0
 10
-2.828856
 20
328.097118
 30
0.0
 11
2.766217
 21
333.69219
 31
0.0
  0
LINE
  8
0
 62
     0
 10
6.171144
 20
337.097118
 30
0.0
 11
6.766217
 21
337.69219
 31
0.0
  0
LINE
  8
0
 62
     0
 10
-4.827621
 20
328.219673
 30
0.0
 11
-1.662634
 21
331.38466
 31
0.0
  0
LINE
  8
0
 62
     0
 10
4.049824
 20
337.097118
 30
0.0
 11
6.766217
 21
339.813511
 31
0.0
  0
LINE
  8
0
 62
     0
 10
1.378675
 20
334.425969
 30
0.0
 11
2.766217
 21
335.813511
 31
0.0
  0
LINE
  8
0
 62
     0
 10
-5.725823
 20
329.442791
 30
0.0
 11
-4.071496
 21
331.097118
 31
0.0
  0
LINE
  8
0
 62
     0
 10
1.666217
 20
336.834831
 30
0.0
 11
6.766217
 21
341.934831
 31
0.0
  0
LINE
  8
0
 62
     0
 10
1.666217
 20
338.956151
 30
0.0
 11
6.307183
 21
343.597118
 31
0.0
  0
LINE
  8
0
 62
     0
 10
1.666217
 20
341.077472
 30
0.0
 11
4.185863
 21
343.597118
 31
0.0
  0
LINE
  8
0
 62
     0
 10
-0.707535
 20
328.097118
 30
0.0
 11
2.766217
 21
331.57087
 31
0.0
  0
LINE
  8
0
 62
     0
 10
0.566217
 20
327.24955
 30
0.0
 11
2.766217
 21
329.44955
 31
0.0
  0
LINE
  8
0
 62
     0
 10
0.566217
 20
325.128229
 30
0.0
 11
2.766217
 21
327.328229
 31
0.0
  0
LINE
  8
0
 62
     0
 10
0.905655
 20
323.346347
 30
0.0
 11
2.766217
 21
325.206909
 31
0.0
  0
LINE
  8
0
 62
     0
 10
2.766217
 20
330.281077
 30
0.0
 11
0.340878
 21
332.706416
 31
0.0
  0
LINE
  8
0
 62
     0
 10
2.766217
 20
328.159757
 30
0.0
 11
-0.838372
 21
331.764345
 31
0.0
  0
LINE
  8
0
 62
     0
 10
2.766217
 20
326.038436
 30
0.0
 11
-2.383583
 21
331.188236
 31
0.0
  0
LINE
  8
0
 62
     0
 10
2.766217
 20
323.917116
 30
0.0
 11
0.566217
 21
326.117116
 31
0.0
  0
LINE
  8
0
 62
     0
 10
-1.413785
 20
328.097118
 30
0.0
 11
-4.404086
 21
331.087419
 31
0.0
  0
LINE
  8
0
 62
     0
 10
1.459146
 20
323.102867
 30
0.0
 11
0.571965
 21
323.990047
 31
0.0
  0
LINE
  8
0
 62
     0
 10
-3.535105
 20
328.097118
 30
0.0
 11
-5.616519
 21
330.178532
 31
0.0
  0
LINE
  8
0
 62
     0
 10
2.766217
 20
332.402397
 30
0.0
 11
1.193561
 21
333.975054
 31
0.0
  0
LINE
  8
0
 62
     0
 10
2.766217
 20
334.523718
 30
0.0
 11
1.645667
 21
335.644267
 31
0.0
  0
LINE
  8
0
 62
     0
 10
2.766217
 20
336.645038
 30
0.0
 11
1.666217
 21
337.745038
 31
0.0
  0
LINE
  8
0
 62
     0
 10
4.435457
 20
337.097118
 30
0.0
 11
1.666217
 21
339.866358
 31
0.0
  0
LINE
  8
0
 62
     0
 10
6.556778
 20
337.097118
 30
0.0
 11
1.666217
 21
341.987679
 31
0.0
  0
LINE
  8
0
 62
     0
 10
6.766217
 20
339.008999
 30
0.0
 11
2.39284
 21
343.382376
 31
0.0
  0
LINE
  8
0
 62
     0
 10
6.766217
 20
341.130319
 30
0.0
 11
4.299418
 21
343.597118
 31
0.0
  0
LINE
  8
0
 62
     0
 10
6.766217
 20
343.25164
 30
0.0
 11
6.420739
 21
343.597118
 31
0.0
  0
ENDBLK
  8
0
  0
BLOCK
  8
0
  2
*X1
 70
    65
 10
0.0
 20
0.0
 30
0.0
  3
*X
  0
LINE
  8
0
 62
     0
 10
24.183174
 20
327.531983
 30
0.0
 11
34.636224
 21
337.985033
 31
0.0
  0
LINE
  8
0
 62
     0
 10
22.539031
 20
328.00916
 30
0.0
 11
25.092944
 21
330.563074
 31
0.0
  0
LINE
  8
0
 62
     0
 10
29.505133
 20
334.975263
 30
0.0
 11
34.636224
 21
340.106353
 31
0.0
  0
LINE
  8
0
 62
     0
 10
29.536224
 20
337.127674
 30
0.0
 11
34.636224
 21
342.227674
 31
0.0
  0
LINE
  8
0
 62
     0
 10
29.536224
 20
339.248994
 30
0.0
 11
33.319213
 21
343.031983
 31
0.0
  0
LINE
  8
0
 62
     0
 10
29.536224
 20
341.370314
 30
0.0
 11
31.197893
 21
343.031983
 31
0.0
  0
LINE
  8
0
 62
     0
 10
26.304495
 20
327.531983
 30
0.0
 11
29.636224
 21
330.863713
 31
0.0
  0
LINE
  8
0
 62
     0
 10
30.304495
 20
331.531983
 30
0.0
 11
34.636224
 21
335.863713
 31
0.0
  0
LINE
  8
0
 62
     0
 10
28.425815
 20
327.531983
 30
0.0
 11
29.636224
 21
328.742392
 31
0.0
  0
LINE
  8
0
 62
     0
 10
32.425815
 20
331.531983
 30
0.0
 11
34.636224
 21
333.742392
 31
0.0
  0
LINE
  8
0
 62
     0
 10
28.436224
 20
325.421072
 30
0.0
 11
30.547135
 21
327.531983
 31
0.0
  0
LINE
  8
0
 62
     0
 10
34.547135
 20
331.531983
 30
0.0
 11
34.636224
 21
331.621072
 31
0.0
  0
LINE
  8
0
 62
     0
 10
28.458511
 20
323.322038
 30
0.0
 11
31.636224
 21
326.499751
 31
0.0
  0
LINE
  8
0
 62
     0
 10
29.789776
 20
322.531983
 30
0.0
 11
31.636224
 21
324.378431
 31
0.0
  0
LINE
  8
0
 62
     0
 10
29.636224
 20
330.988235
 30
0.0
 11
28.338927
 21
332.285532
 31
0.0
  0
LINE
  8
0
 62
     0
 10
31.636224
 20
326.866914
 30
0.0
 11
30.971155
 21
327.531983
 31
0.0
  0
LINE
  8
0
 62
     0
 10
29.636224
 20
328.866914
 30
0.0
 11
27.201535
 21
331.301603
 31
0.0
  0
LINE
  8
0
 62
     0
 10
31.636224
 20
324.745594
 30
0.0
 11
25.710086
 21
330.671732
 31
0.0
  0
LINE
  8
0
 62
     0
 10
31.636224
 20
322.624274
 30
0.0
 11
28.436224
 21
325.824274
 31
0.0
  0
LINE
  8
0
 62
     0
 10
26.728514
 20
327.531983
 30
0.0
 11
23.728514
 21
330.531983
 31
0.0
  0
LINE
  8
0
 62
     0
 10
29.607194
 20
322.531983
 30
0.0
 11
28.436224
 21
323.702953
 31
0.0
  0
LINE
  8
0
 62
     0
 10
24.607194
 20
327.531983
 30
0.0
 11
22.344561
 21
329.794616
 31
0.0
  0
LINE
  8
0
 62
     0
 10
31.213795
 20
331.531983
 30
0.0
 11
29.147265
 21
333.598514
 31
0.0
  0
LINE
  8
0
 62
     0
 10
33.335116
 20
331.531983
 30
0.0
 11
29.532333
 21
335.334766
 31
0.0
  0
LINE
  8
0
 62
     0
 10
34.636224
 20
332.352196
 30
0.0
 11
29.536224
 21
337.452196
 31
0.0
  0
LINE
  8
0
 62
     0
 10
34.636224
 20
334.473516
 30
0.0
 11
29.536224
 21
339.573516
 31
0.0
  0
LINE
  8
0
 62
     0
 10
34.636224
 20
336.594836
 30
0.0
 11
29.544237
 21
341.686823
 31
0.0
  0
LINE
  8
0
 62
     0
 10
34.636224
 20
338.716157
 30
0.0
 11
30.442781
 21
342.909599
 31
0.0
  0
LINE
  8
0
 62
     0
 10
34.636224
 20
340.837477
 30
0.0
 11
32.441717
 21
343.031983
 31
0.0
  0
LINE
  8
0
 62
     0
 10
34.636224
 20
342.958797
 30
0.0
 11
34.563038
 21
343.031983
 31
0.0
  0
ENDBLK
  8
0
  0
BLOCK
  8
0
  2
*X2
 70
    65
 10
0.0
 20
0.0
 30
0.0
  3
*X
  0
LINE
  8
0
 62
     0
 10
106.895547
 20
335.998144
 30
0.0
 11
114.816505
 21
343.919103
 31
0.0
  0
LINE
  8
0
 62
     0
 10
119.895547
 20
348.998144
 30
0.0
 11
121.816505
 21
350.919103
 31
0.0
  0
LINE
  8
0
 62
     0
 10
104.774227
 20
335.998144
 30
0.0
 11
114.816505
 21
346.040423
 31
0.0
  0
LINE
  8
0
 62
     0
 10
117.774227
 20
348.998144
 30
0.0
 11
121.816505
 21
353.040423
 31
0.0
  0
LINE
  8
0
 62
     0
 10
102.88374
 20
336.228978
 30
0.0
 11
106.687648
 21
340.032885
 31
0.0
  0
LINE
  8
0
 62
     0
 10
115.652906
 20
348.998144
 30
0.0
 11
121.816505
 21
355.161743
 31
0.0
  0
LINE
  8
0
 62
     0
 10
112.481764
 20
345.827002
 30
0.0
 11
114.816505
 21
348.161743
 31
0.0
  0
LINE
  8
0
 62
     0
 10
101.914186
 20
337.380745
 30
0.0
 11
104.531586
 21
339.998144
 31
0.0
  0
LINE
  8
0
 62
     0
 10
112.516505
 20
347.983064
 30
0.0
 11
121.816505
 21
357.283064
 31
0.0
  0
LINE
  8
0
 62
     0
 10
112.516505
 20
350.104384
 30
0.0
 11
121.410266
 21
358.998144
 31
0.0
  0
LINE
  8
0
 62
     0
 10
112.516505
 20
352.225704
 30
0.0
 11
119.288945
 21
358.998144
 31
0.0
  0
LINE
  8
0
 62
     0
 10
112.516505
 20
354.347025
 30
0.0
 11
117.167625
 21
358.998144
 31
0.0
  0
LINE
  8
0
 62
     0
 10
112.516505
 20
356.468345
 30
0.0
 11
115.046304
 21
358.998144
 31
0.0
  0
LINE
  8
0
 62
     0
 10
109.016867
 20
335.998144
 30
0.0
 11
114.816505
 21
341.797782
 31
0.0
  0
LINE
  8
0
 62
     0
 10
111.138188
 20
335.998144
 30
0.0
 11
114.816505
 21
339.676462
 31
0.0
  0
LINE
  8
0
 62
     0
 10
112.816505
 20
335.555142
 30
0.0
 11
114.816505
 21
337.555142
 31
0.0
  0
LINE
  8
0
 62
     0
 10
112.816505
 20
333.433821
 30
0.0
 11
114.816505
 21
335.433821
 31
0.0
  0
LINE
  8
0
 62
     0
 10
112.816505
 20
331.312501
 30
0.0
 11
114.816505
 21
333.312501
 31
0.0
  0
LINE
  8
0
 62
     0
 10
113.163728
 20
329.538403
 30
0.0
 11
114.816505
 21
331.19118
 31
0.0
  0
LINE
  8
0
 62
     0
 10
114.744789
 20
328.998144
 30
0.0
 11
114.816505
 21
329.06986
 31
0.0
  0
LINE
  8
0
 62
     0
 10
114.816505
 20
341.267368
 30
0.0
 11
112.0367
 21
344.047174
 31
0.0
  0
LINE
  8
0
 62
     0
 10
114.816505
 20
339.146048
 30
0.0
 11
111.279278
 21
342.683275
 31
0.0
  0
LINE
  8
0
 62
     0
 10
114.816505
 20
337.024728
 30
0.0
 11
110.263642
 21
341.577592
 31
0.0
  0
LINE
  8
0
 62
     0
 10
114.816505
 20
334.903407
 30
0.0
 11
108.997763
 21
340.72215
 31
0.0
  0
LINE
  8
0
 62
     0
 10
114.816505
 20
332.782087
 30
0.0
 11
112.816505
 21
334.782087
 31
0.0
  0
LINE
  8
0
 62
     0
 10
111.600448
 20
335.998144
 30
0.0
 11
107.442173
 21
340.156419
 31
0.0
  0
LINE
  8
0
 62
     0
 10
114.816505
 20
330.660767
 30
0.0
 11
112.816505
 21
332.660767
 31
0.0
  0
LINE
  8
0
 62
     0
 10
109.479128
 20
335.998144
 30
0.0
 11
105.479128
 21
339.998144
 31
0.0
  0
LINE
  8
0
 62
     0
 10
114.357808
 20
328.998144
 30
0.0
 11
112.816505
 21
330.539446
 31
0.0
  0
LINE
  8
0
 62
     0
 10
107.357808
 20
335.998144
 30
0.0
 11
103.401367
 21
339.954585
 31
0.0
  0
LINE
  8
0
 62
     0
 10
105.236487
 20
335.998144
 30
0.0
 11
102.142338
 21
339.092294
 31
0.0
  0
LINE
  8
0
 62
     0
 10
102.884994
 20
336.228318
 30
0.0
 11
102.046679
 21
337.066632
 31
0.0
  0
LINE
  8
0
 62
     0
 10
114.816505
 20
343.388689
 30
0.0
 11
112.471407
 21
345.733787
 31
0.0
  0
LINE
  8
0
 62
     0
 10
114.816505
 20
345.510009
 30
0.0
 11
112.516505
 21
347.810009
 31
0.0
  0
LINE
  8
0
 62
     0
 10
114.816505
 20
347.631329
 30
0.0
 11
112.516505
 21
349.931329
 31
0.0
  0
LINE
  8
0
 62
     0
 10
115.571011
 20
348.998144
 30
0.0
 11
112.516505
 21
352.05265
 31
0.0
  0
LINE
  8
0
 62
     0
 10
117.692332
 20
348.998144
 30
0.0
 11
112.516505
 21
354.17397
 31
0.0
  0
LINE
  8
0
 62
     0
 10
119.813652
 20
348.998144
 30
0.0
 11
112.516505
 21
356.29529
 31
0.0
  0
LINE
  8
0
 62
     0
 10
121.816505
 20
349.116611
 30
0.0
 11
112.841739
 21
358.091377
 31
0.0
  0
LINE
  8
0
 62
     0
 10
121.816505
 20
351.237931
 30
0.0
 11
114.100117
 21
358.954319
 31
0.0
  0
LINE
  8
0
 62
     0
 10
121.816505
 20
353.359252
 30
0.0
 11
116.177613
 21
358.998144
 31
0.0
  0
LINE
  8
0
 62
     0
 10
121.816505
 20
355.480572
 30
0.0
 11
118.298933
 21
358.998144
 31
0.0
  0
LINE
  8
0
 62
     0
 10
121.816505
 20
357.601892
 30
0.0
 11
120.420254
 21
358.998144
 31
0.0
  0
ENDBLK
  8
0
  0
BLOCK
  8
0
  2
*X3
 70
    65
 10
0.0
 20
0.0
 30
0.0
  3
*X
  0
LINE
  8
0
 62
     0
 10
198.109169
 20
346.601593
 30
0.0
 11
215.062011
 21
363.554435
 31
0.0
  0
LINE
  8
0
 62
     0
 10
196.188626
 20
346.802371
 30
0.0
 11
200.033835
 21
350.647579
 31
0.0
  0
LINE
  8
0
 62
     0
 10
205.716024
 20
356.329768
 30
0.0
 11
215.062011
 21
365.675755
 31
0.0
  0
LINE
  8
0
 62
     0
 10
195.182589
 20
347.917653
 30
0.0
 11
197.866528
 21
350.601593
 31
0.0
  0
LINE
  8
0
 62
     0
 10
205.762011
 20
358.497075
 30
0.0
 11
215.062011
 21
367.797075
 31
0.0
  0
LINE
  8
0
 62
     0
 10
205.762011
 20
360.618396
 30
0.0
 11
214.745208
 21
369.601593
 31
0.0
  0
LINE
  8
0
 62
     0
 10
205.762011
 20
362.739716
 30
0.0
 11
212.623887
 21
369.601593
 31
0.0
  0
LINE
  8
0
 62
     0
 10
205.762011
 20
364.861036
 30
0.0
 11
210.502567
 21
369.601593
 31
0.0
  0
LINE
  8
0
 62
     0
 10
205.762011
 20
366.982357
 30
0.0
 11
208.381246
 21
369.601593
 31
0.0
  0
LINE
  8
0
 62
     0
 10
200.230489
 20
346.601593
 30
0.0
 11
215.062011
 21
361.433114
 31
0.0
  0
LINE
  8
0
 62
     0
 10
202.351809
 20
346.601593
 30
0.0
 11
208.562011
 21
352.811794
 31
0.0
  0
LINE
  8
0
 62
     0
 10
210.351809
 20
354.601593
 30
0.0
 11
215.062011
 21
359.311794
 31
0.0
  0
LINE
  8
0
 62
     0
 10
204.47313
 20
346.601593
 30
0.0
 11
208.562011
 21
350.690474
 31
0.0
  0
LINE
  8
0
 62
     0
 10
212.47313
 20
354.601593
 30
0.0
 11
215.062011
 21
357.190474
 31
0.0
  0
LINE
  8
0
 62
     0
 10
206.062011
 20
346.069153
 30
0.0
 11
209.59445
 21
349.601593
 31
0.0
  0
LINE
  8
0
 62
     0
 10
214.59445
 20
354.601593
 30
0.0
 11
215.062011
 21
355.069153
 31
0.0
  0
LINE
  8
0
 62
     0
 10
206.062011
 20
343.947833
 30
0.0
 11
211.062011
 21
348.947833
 31
0.0
  0
LINE
  8
0
 62
     0
 10
206.062011
 20
341.826513
 30
0.0
 11
211.062011
 21
346.826513
 31
0.0
  0
LINE
  8
0
 62
     0
 10
206.450816
 20
340.093998
 30
0.0
 11
211.062011
 21
344.705192
 31
0.0
  0
LINE
  8
0
 62
     0
 10
208.079731
 20
339.601593
 30
0.0
 11
211.062011
 21
342.583872
 31
0.0
  0
LINE
  8
0
 62
     0
 10
210.201052
 20
339.601593
 30
0.0
 11
211.062011
 21
340.462552
 31
0.0
  0
LINE
  8
0
 62
     0
 10
211.062011
 20
348.96656
 30
0.0
 11
210.426978
 21
349.601593
 31
0.0
  0
LINE
  8
0
 62
     0
 10
208.562011
 20
351.46656
 30
0.0
 11
205.309587
 21
354.718984
 31
0.0
  0
LINE
  8
0
 62
     0
 10
211.062011
 20
346.84524
 30
0.0
 11
204.56476
 21
353.34249
 31
0.0
  0
LINE
  8
0
 62
     0
 10
211.062011
 20
344.723919
 30
0.0
 11
203.560283
 21
352.225647
 31
0.0
  0
LINE
  8
0
 62
     0
 10
211.062011
 20
342.602599
 30
0.0
 11
202.306129
 21
351.35848
 31
0.0
  0
LINE
  8
0
 62
     0
 10
211.062011
 20
340.481279
 30
0.0
 11
206.062011
 21
345.481279
 31
0.0
  0
LINE
  8
0
 62
     0
 10
204.941697
 20
346.601593
 30
0.0
 11
200.765438
 21
350.777851
 31
0.0
  0
LINE
  8
0
 62
     0
 10
209.820376
 20
339.601593
 30
0.0
 11
206.062011
 21
343.359958
 31
0.0
  0
LINE
  8
0
 62
     0
 10
202.820376
 20
346.601593
 30
0.0
 11
198.820376
 21
350.601593
 31
0.0
  0
LINE
  8
0
 62
     0
 10
207.699056
 20
339.601593
 30
0.0
 11
206.062011
 21
341.238638
 31
0.0
  0
LINE
  8
0
 62
     0
 10
200.699056
 20
346.601593
 30
0.0
 11
196.727268
 21
350.573381
 31
0.0
  0
LINE
  8
0
 62
     0
 10
198.577736
 20
346.601593
 30
0.0
 11
195.426543
 21
349.752786
 31
0.0
  0
LINE
  8
0
 62
     0
 10
196.309411
 20
346.748597
 30
0.0
 11
195.209014
 21
347.848993
 31
0.0
  0
LINE
  8
0
 62
     0
 10
208.562011
 20
353.58788
 30
0.0
 11
205.726529
 21
356.423362
 31
0.0
  0
LINE
  8
0
 62
     0
 10
209.669619
 20
354.601593
 30
0.0
 11
205.762011
 21
358.509201
 31
0.0
  0
LINE
  8
0
 62
     0
 10
211.790939
 20
354.601593
 30
0.0
 11
205.762011
 21
360.630521
 31
0.0
  0
LINE
  8
0
 62
     0
 10
213.912259
 20
354.601593
 30
0.0
 11
205.762011
 21
362.751841
 31
0.0
  0
LINE
  8
0
 62
     0
 10
215.062011
 20
355.573162
 30
0.0
 11
205.762011
 21
364.873162
 31
0.0
  0
LINE
  8
0
 62
     0
 10
215.062011
 20
357.694482
 30
0.0
 11
205.762011
 21
366.994482
 31
0.0
  0
LINE
  8
0
 62
     0
 10
215.062011
 20
359.815803
 30
0.0
 11
206.125917
 21
368.751896
 31
0.0
  0
LINE
  8
0
 62
     0
 10
215.062011
 20
361.937123
 30
0.0
 11
207.425973
 21
369.57316
 31
0.0
  0
LINE
  8
0
 62
     0
 10
215.062011
 20
364.058443
 30
0.0
 11
209.518861
 21
369.601593
 31
0.0
  0
LINE
  8
0
 62
     0
 10
215.062011
 20
366.179764
 30
0.0
 11
211.640182
 21
369.601593
 31
0.0
  0
LINE
  8
0
 62
     0
 10
215.062011
 20
368.301084
 30
0.0
 11
213.761502
 21
369.601593
 31
0.0
  0
ENDBLK
  8
0
  0
BLOCK
  8
0
  2
*X4
 70
    65
 10
0.0
 20
0.0
 30
0.0
  3
*X
  0
LINE
  8
0
 62
     0
 10
-23.229899
 20
312.645822
 30
0.0
 11
-21.729899
 21
314.145822
 31
0.0
  0
LINE
  8
0
 62
     0
 10
-23.229899
 20
314.413589
 30
0.0
 11
-21.729899
 21
315.913589
 31
0.0
  0
LINE
  8
0
 62
     0
 10
-23.229899
 20
316.181356
 30
0.0
 11
-21.729899
 21
317.681356
 31
0.0
  0
LINE
  8
0
 62
     0
 10
-23.229899
 20
317.949122
 30
0.0
 11
-19.424816
 21
321.754206
 31
0.0
  0
LINE
  8
0
 62
     0
 10
-23.229899
 20
319.716889
 30
0.0
 11
-21.192583
 21
321.754206
 31
0.0
  0
LINE
  8
0
 62
     0
 10
-23.229899
 20
321.484656
 30
0.0
 11
-22.96035
 21
321.754206
 31
0.0
  0
LINE
  8
0
 62
     0
 10
-23.229899
 20
310.878055
 30
0.0
 11
-21.729899
 21
312.378055
 31
0.0
  0
LINE
  8
0
 62
     0
 10
-23.229899
 20
309.110288
 30
0.0
 11
-21.729899
 21
310.610288
 31
0.0
  0
LINE
  8
0
 62
     0
 10
-22.818214
 20
307.754206
 30
0.0
 11
-21.729899
 21
308.842521
 31
0.0
  0
ENDBLK
  8
0
  0
BLOCK
  8
0
  2
*X5
 70
    65
 10
0.0
 20
0.0
 30
0.0
  3
*X
  0
LINE
  8
0
 62
     0
 10
137.243622
 20
321.091385
 30
0.0
 11
139.993622
 21
323.841385
 31
0.0
  0
LINE
  8
0
 62
     0
 10
137.243622
 20
322.859152
 30
0.0
 11
139.993622
 21
325.609152
 31
0.0
  0
LINE
  8
0
 62
     0
 10
137.243622
 20
324.626919
 30
0.0
 11
139.993622
 21
327.376919
 31
0.0
  0
LINE
  8
0
 62
     0
 10
137.243622
 20
326.394686
 30
0.0
 11
139.993622
 21
329.144686
 31
0.0
  0
LINE
  8
0
 62
     0
 10
137.243622
 20
328.162453
 30
0.0
 11
139.993622
 21
330.912453
 31
0.0
  0
LINE
  8
0
 62
     0
 10
142.093355
 20
333.012186
 30
0.0
 11
144.243622
 21
335.162453
 31
0.0
  0
LINE
  8
0
 62
     0
 10
137.243622
 20
329.93022
 30
0.0
 11
142.567045
 21
335.253643
 31
0.0
  0
LINE
  8
0
 62
     0
 10
137.243622
 20
331.697987
 30
0.0
 11
140.799278
 21
335.253643
 31
0.0
  0
LINE
  8
0
 62
     0
 10
137.243622
 20
333.465754
 30
0.0
 11
139.031511
 21
335.253643
 31
0.0
  0
LINE
  8
0
 62
     0
 10
137.243622
 20
335.233521
 30
0.0
 11
137.263744
 21
335.253643
 31
0.0
  0
LINE
  8
0
 62
     0
 10
137.243622
 20
319.323618
 30
0.0
 11
139.993622
 21
322.073618
 31
0.0
  0
LINE
  8
0
 62
     0
 10
137.243622
 20
317.555851
 30
0.0
 11
139.993622
 21
320.305851
 31
0.0
  0
LINE
  8
0
 62
     0
 10
137.243622
 20
315.788084
 30
0.0
 11
139.993622
 21
318.538084
 31
0.0
  0
LINE
  8
0
 62
     0
 10
138.476948
 20
315.253643
 30
0.0
 11
139.993622
 21
316.770317
 31
0.0
  0
ENDBLK
  8
0
  0
ENDSEC
  0
SECTION
  2
ENTITIES
  0
LINE
  8
0
 10
153.543622
 20
268.748753
 30
0.0
 11
153.543622
 21
301.655288
 31
0.0
  0
LINE
  8
0
 10
134.943622
 20
268.748753
 30
0.0
 11
134.943622
 21
301.655288
 31
0.0
  0
ARC
  8
0
 10
151.543622
 20
268.748753
 30
0.0
 40
2.0
 50
293.925946
 51
0.0
  0
ARC
  8
0
 10
136.943622
 20
268.748753
 30
0.0
 40
2.0
 50
180.0
 51
246.074054
  0
ARC
  8
0
 10
151.543622
 20
301.655288
 30
0.0
 40
2.0
 50
0.0
 51
66.074054
  0
ARC
  8
0
 10
136.943622
 20
301.655288
 30
0.0
 40
2.0
 50
113.925946
 51
180.0
  0
CIRCLE
  8
0
 10
144.243622
 20
285.20202
 30
0.0
 40
20.0
  0
ARC
  8
0
 10
136.743622
 20
316.753643
 30
0.0
 40
1.5
 50
180.0
 51
270.0
  0
ARC
  8
0
 10
151.743622
 20
316.753643
 30
0.0
 40
1.5
 50
270.0
 51
0.0
  0
LINE
  8
0
 10
151.743622
 20
315.253643
 30
0.0
 11
136.743622
 21
315.253643
 31
0.0
  0
LINE
  8
0
 10
135.243622
 20
322.253643
 30
0.0
 11
135.243622
 21
316.753643
 31
0.0
  0
LINE
  8
0
 10
153.243622
 20
322.253643
 30
0.0
 11
153.243622
 21
316.753643
 31
0.0
  0
ARC
  8
0
 10
126.243622
 20
324.253643
 30
0.0
 40
2.0
 50
90.000011
 51
269.999971
  0
ARC
  8
0
 10
136.943622
 20
343.253643
 30
0.0
 40
2.0
 50
90.0
 51
180.0
  0
ARC
  8
0
 10
151.543622
 20
343.253643
 30
0.0
 40
2.0
 50
0.0
 51
90.0
  0
ARC
  8
0
 10
162.243622
 20
324.253643
 30
0.0
 40
2.0
 50
270.000029
 51
89.999989
  0
ARC
  8
0
 10
128.443622
 20
332.753643
 30
0.0
 40
6.5
 50
270.0
 51
0.0
  0
ARC
  8
0
 10
160.043622
 20
332.753643
 30
0.0
 40
6.5
 50
180.0
 51
270.0
  0
LINE
  8
0
 10
128.443622
 20
326.253643
 30
0.0
 11
126.243622
 21
326.253643
 31
0.0
  0
LINE
  8
0
 10
151.543622
 20
345.253643
 30
0.0
 11
136.943622
 21
345.253643
 31
0.0
  0
LINE
  8
0
 10
162.243623
 20
326.253643
 30
0.0
 11
160.043622
 21
326.253643
 31
0.0
  0
LINE
  8
0
 10
162.243623
 20
322.253643
 30
0.0
 11
144.243622
 21
322.253643
 31
0.0
  0
LINE
  8
0
 10
134.943622
 20
343.253643
 30
0.0
 11
134.943622
 21
332.753643
 31
0.0
  0
LINE
  8
0
 10
153.543622
 20
343.253643
 30
0.0
 11
153.543622
 21
332.753643
 31
0.0
  0
LINE
  8
0
 10
137.243622
 20
335.253643
 30
0.0
 11
137.243622
 21
315.253643
 31
0.0
  0
LINE
  8
0
 10
144.243622
 20
335.253643
 30
0.0
 11
137.243622
 21
335.253643
 31
0.0
  0
LINE
  8
0
 10
135.243622
 20
322.253643
 30
0.0
 11
126.243622
 21
322.253643
 31
0.0
  0
LINE
  8
0
 10
139.243622
 20
330.253643
 30
0.0
 11
139.243622
 21
315.253643
 31
0.0
  0
LINE
  8
0
 10
139.993622
 20
331.799904
 30
0.0
 11
139.993622
 21
316.003643
 31
0.0
  0
LINE
  8
0
 10
144.243622
 20
334.253643
 30
0.0
 11
139.993622
 21
331.799904
 31
0.0
  0
LINE
  8
0
 10
144.243622
 20
330.253643
 30
0.0
 11
139.243622
 21
330.253643
 31
0.0
  0
LINE
  8
0
 10
228.191219
 20
337.85121
 30
0.0
 11
219.191219
 21
337.85121
 31
0.0
  0
LINE
  8
0
 10
246.491219
 20
358.85121
 30
0.0
 11
246.491219
 21
348.35121
 31
0.0
  0
LINE
  8
0
 10
227.891219
 20
358.85121
 30
0.0
 11
227.891219
 21
348.35121
 31
0.0
  0
LINE
  8
0
 10
255.19122
 20
337.85121
 30
0.0
 11
237.191219
 21
337.85121
 31
0.0
  0
LINE
  8
0
 10
255.19122
 20
341.85121
 30
0.0
 11
252.991219
 21
341.85121
 31
0.0
  0
LINE
  8
0
 10
244.491219
 20
360.85121
 30
0.0
 11
229.891219
 21
360.85121
 31
0.0
  0
LINE
  8
0
 10
221.391219
 20
341.85121
 30
0.0
 11
219.19122
 21
341.85121
 31
0.0
  0
ARC
  8
0
 10
252.991219
 20
348.35121
 30
0.0
 40
6.5
 50
180.0
 51
270.0
  0
ARC
  8
0
 10
221.391219
 20
348.35121
 30
0.0
 40
6.5
 50
270.0
 51
0.0
  0
ARC
  8
0
 10
255.191219
 20
339.85121
 30
0.0
 40
2.0
 50
270.000029
 51
89.999989
  0
ARC
  8
0
 10
244.491219
 20
358.85121
 30
0.0
 40
2.0
 50
0.0
 51
90.0
  0
ARC
  8
0
 10
229.891219
 20
358.85121
 30
0.0
 40
2.0
 50
90.0
 51
180.0
  0
ARC
  8
0
 10
219.191219
 20
339.85121
 30
0.0
 40
2.0
 50
90.000011
 51
269.999971
  0
LINE
  8
0
 10
246.191219
 20
337.85121
 30
0.0
 11
246.191219
 21
332.35121
 31
0.0
  0
LINE
  8
0
 10
228.191219
 20
337.85121
 30
0.0
 11
228.191219
 21
332.35121
 31
0.0
  0
LINE
  8
0
 10
244.691219
 20
330.85121
 30
0.0
 11
237.191219
 21
330.85121
 31
0.0
  0
ARC
  8
0
 10
244.691219
 20
332.35121
 30
0.0
 40
1.5
 50
270.0
 51
0.0
  0
ARC
  8
0
 10
229.691219
 20
332.35121
 30
0.0
 40
1.5
 50
180.0
 51
270.0
  0
CIRCLE
  8
0
 10
237.191219
 20
285.20202
 30
0.0
 40
20.0
  0
ARC
  8
0
 10
229.891219
 20
301.655288
 30
0.0
 40
2.0
 50
113.925946
 51
180.0
  0
ARC
  8
0
 10
244.491219
 20
301.655288
 30
0.0
 40
2.0
 50
0.0
 51
66.074054
  0
ARC
  8
0
 10
229.891219
 20
268.748753
 30
0.0
 40
2.0
 50
180.0
 51
246.074054
  0
ARC
  8
0
 10
244.491219
 20
268.748753
 30
0.0
 40
2.0
 50
293.925946
 51
0.0
  0
ARC
  8
0
 10
283.446154
 20
292.70202
 30
0.0
 40
1.5
 50
90.0
 51
180.0
  0
ARC
  8
0
 10
283.446154
 20
277.70202
 30
0.0
 40
1.5
 50
180.0
 51
270.0
  0
LINE
  8
0
 10
297.946154
 20
300.70202
 30
0.0
 11
299.946154
 21
300.70202
 31
0.0
  0
ARC
  8
0
 10
299.946154
 20
290.70202
 30
0.0
 40
10.0
 50
360.0
 51
90.0
  0
ARC
  8
0
 10
299.946154
 20
279.70202
 30
0.0
 40
10.0
 50
270.0
 51
0.0
  0
LINE
  8
0
 10
297.946154
 20
269.70202
 30
0.0
 11
299.946154
 21
269.70202
 31
0.0
  0
ARC
  8
0
 10
297.946154
 20
295.70202
 30
0.0
 40
5.0
 50
90.0
 51
180.0
  0
ARC
  8
0
 10
297.946154
 20
274.70202
 30
0.0
 40
5.0
 50
180.0
 51
270.0
  0
LINE
  8
0
 10
309.946154
 20
279.70202
 30
0.0
 11
309.946154
 21
290.702021
 31
0.0
  0
LINE
  8
0
 10
292.946154
 20
274.70202
 30
0.0
 11
292.946154
 21
295.70202
 31
0.0
  0
ARC
  8
0
 10
296.946154
 20
290.20202
 30
0.0
 40
15.0
 50
0.0
 51
90.0
  0
ARC
  8
0
 10
296.946154
 20
280.20202
 30
0.0
 40
15.0
 50
270.0
 51
0.0
  0
LINE
  8
0
 10
290.946154
 20
305.20202
 30
0.0
 11
296.946154
 21
305.20202
 31
0.0
  0
LINE
  8
0
 10
290.946154
 20
265.20202
 30
0.0
 11
296.946154
 21
265.20202
 31
0.0
  0
LINE
  8
0
 10
288.946154
 20
267.202019
 30
0.0
 11
288.946154
 21
303.20202
 31
0.0
  0
LINE
  8
0
 10
311.946154
 20
280.20202
 30
0.0
 11
311.946154
 21
290.20202
 31
0.0
  0
ARC
  8
0
 10
290.946154
 20
267.20202
 30
0.0
 40
2.0
 50
180.000029
 51
270.0
  0
ARC
  8
0
 10
290.946154
 20
303.20202
 30
0.0
 40
2.0
 50
90.0
 51
179.999971
  0
LINE
  8
0
 10
288.946154
 20
276.20202
 30
0.0
 11
283.446154
 21
276.20202
 31
0.0
  0
LINE
  8
0
 10
288.946154
 20
294.20202
 30
0.0
 11
283.446154
 21
294.20202
 31
0.0
  0
LINE
  8
0
 10
281.946154
 20
277.70202
 30
0.0
 11
281.946154
 21
292.70202
 31
0.0
  0
LINE
  8
0
 10
227.891219
 20
268.748753
 30
0.0
 11
227.891219
 21
301.655288
 31
0.0
  0
LINE
  8
0
 10
246.491219
 20
268.748753
 30
0.0
 11
246.491219
 21
301.655288
 31
0.0
  0
LINE
  8
0
 10
233.191219
 20
330.85121
 30
0.0
 11
229.691219
 21
330.85121
 31
0.0
  0
ARC
  8
0
 10
177.574556
 20
292.70202
 30
0.0
 40
1.5
 50
90.0
 51
180.0
  0
ARC
  8
0
 10
177.574556
 20
277.70202
 30
0.0
 40
1.5
 50
180.0
 51
270.0
  0
LINE
  8
0
 10
192.074556
 20
300.70202
 30
0.0
 11
194.074556
 21
300.70202
 31
0.0
  0
ARC
  8
0
 10
194.074556
 20
290.70202
 30
0.0
 40
10.0
 50
360.0
 51
90.0
  0
ARC
  8
0
 10
194.074556
 20
279.70202
 30
0.0
 40
10.0
 50
270.0
 51
0.0
  0
LINE
  8
0
 10
192.074556
 20
269.70202
 30
0.0
 11
194.074556
 21
269.70202
 31
0.0
  0
ARC
  8
0
 10
192.074556
 20
295.70202
 30
0.0
 40
5.0
 50
90.0
 51
180.0
  0
ARC
  8
0
 10
192.074556
 20
274.70202
 30
0.0
 40
5.0
 50
180.0
 51
270.0
  0
LINE
  8
0
 10
204.074556
 20
279.70202
 30
0.0
 11
204.074556
 21
290.702021
 31
0.0
  0
LINE
  8
0
 10
187.074556
 20
274.70202
 30
0.0
 11
187.074556
 21
295.70202
 31
0.0
  0
ARC
  8
0
 10
191.074556
 20
290.20202
 30
0.0
 40
15.0
 50
0.0
 51
90.0
  0
ARC
  8
0
 10
191.074556
 20
280.20202
 30
0.0
 40
15.0
 50
270.0
 51
0.0
  0
LINE
  8
0
 10
185.074556
 20
305.20202
 30
0.0
 11
191.074556
 21
305.20202
 31
0.0
  0
LINE
  8
0
 10
185.074556
 20
265.20202
 30
0.0
 11
191.074556
 21
265.20202
 31
0.0
  0
LINE
  8
0
 10
183.074556
 20
267.202019
 30
0.0
 11
183.074556
 21
303.20202
 31
0.0
  0
LINE
  8
0
 10
206.074556
 20
280.20202
 30
0.0
 11
206.074556
 21
290.20202
 31
0.0
  0
ARC
  8
0
 10
185.074556
 20
267.20202
 30
0.0
 40
2.0
 50
180.000029
 51
270.0
  0
ARC
  8
0
 10
185.074556
 20
303.20202
 30
0.0
 40
2.0
 50
90.0
 51
179.999971
  0
LINE
  8
0
 10
183.074556
 20
276.20202
 30
0.0
 11
177.574556
 21
276.20202
 31
0.0
  0
LINE
  8
0
 10
183.074556
 20
294.20202
 30
0.0
 11
177.574556
 21
294.20202
 31
0.0
  0
LINE
  8
0
 10
176.074556
 20
277.70202
 30
0.0
 11
176.074556
 21
292.70202
 31
0.0
  0
LINE
  8
0
  6
CENTER
 10
144.243622
 20
311.73488
 30
0.0
 11
144.243622
 21
347.326797
 31
0.0
  0
LINE
  8
0
  6
CENTER
 10
237.191219
 20
312.929479
 30
0.0
 11
237.191219
 21
363.047425
 31
0.0
  0
LINE
  8
0
 10
240.591219
 20
315.85121
 30
0.0
 11
233.791219
 21
315.85121
 31
0.0
  0
LINE
  8
0
 10
233.191219
 20
316.45121
 30
0.0
 11
233.191219
 21
340.85121
 31
0.0
  0
LINE
  8
0
 10
241.191219
 20
316.45121
 30
0.0
 11
241.191219
 21
330.85121
 31
0.0
  0
LINE
  8
0
 10
233.791219
 20
315.85121
 30
0.0
 11
233.791219
 21
340.85121
 31
0.0
  0
LINE
  8
0
 10
240.591219
 20
315.85121
 30
0.0
 11
240.591219
 21
330.85121
 31
0.0
  0
LINE
  8
0
 10
233.791219
 20
315.85121
 30
0.0
 11
233.191219
 21
316.45121
 31
0.0
  0
LINE
  8
0
 10
240.591219
 20
315.85121
 30
0.0
 11
241.191219
 21
316.45121
 31
0.0
  0
LINE
  8
0
 10
233.791219
 20
340.85121
 30
0.0
 11
230.691219
 21
340.85121
 31
0.0
  0
LINE
  8
0
 10
237.191219
 20
345.85121
 30
0.0
 11
230.691219
 21
345.85121
 31
0.0
  0
LINE
  8
0
 10
230.691219
 20
345.85121
 30
0.0
 11
230.691219
 21
340.85121
 31
0.0
  0
LINE
  8
0
 10
266.946154
 20
281.80202
 30
0.0
 11
267.546154
 21
281.20202
 31
0.0
  0
LINE
  8
0
 10
266.946154
 20
288.60202
 30
0.0
 11
267.546154
 21
289.20202
 31
0.0
  0
LINE
  8
0
 10
266.946154
 20
281.80202
 30
0.0
 11
281.946154
 21
281.80202
 31
0.0
  0
LINE
  8
0
 10
266.946154
 20
288.60202
 30
0.0
 11
281.946154
 21
288.60202
 31
0.0
  0
LINE
  8
0
 10
267.546154
 20
281.20202
 30
0.0
 11
281.946154
 21
281.20202
 31
0.0
  0
LINE
  8
0
 10
267.546154
 20
289.20202
 30
0.0
 11
281.946154
 21
289.20202
 31
0.0
  0
LINE
  8
0
 10
266.946154
 20
281.80202
 30
0.0
 11
266.946154
 21
288.60202
 31
0.0
  0
LINE
  8
0
 10
-24.429899
 20
307.754206
 30
0.0
 11
-14.029899
 21
307.754206
 31
0.0
  0
LINE
  8
0
 10
-22.829899
 20
328.254206
 30
0.0
 11
-15.629899
 21
328.254206
 31
0.0
  0
LINE
  8
0
 10
-30.229899
 20
312.754206
 30
0.0
 11
-25.429899
 21
312.754206
 31
0.0
  0
LINE
  8
0
  6
CENTER
 10
-19.229899
 20
305.821091
 30
0.0
 11
-19.229899
 21
329.74211
 31
0.0
  0
LINE
  8
0
 10
-25.429899
 20
308.754206
 30
0.0
 11
-25.429899
 21
312.754206
 31
0.0
  0
LINE
  8
0
 10
-13.029899
 20
308.754206
 30
0.0
 11
-13.029899
 21
312.754206
 31
0.0
  0
LINE
  8
0
 10
-30.229899
 20
315.754206
 30
0.0
 11
-29.329899
 21
315.754206
 31
0.0
  0
LINE
  8
0
 10
-9.129899
 20
315.754206
 30
0.0
 11
-8.229899
 21
315.754206
 31
0.0
  0
LINE
  8
0
 10
-24.329899
 20
320.754206
 30
0.0
 11
-24.329899
 21
326.754206
 31
0.0
  0
LINE
  8
0
 10
-14.129899
 20
320.754206
 30
0.0
 11
-14.129899
 21
326.754206
 31
0.0
  0
ARC
  8
0
 10
-29.329899
 20
320.754206
 30
0.0
 40
5.0
 50
270.0
 51
0.0
  0
ARC
  8
0
 10
-9.129899
 20
320.754206
 30
0.0
 40
5.0
 50
180.0
 51
270.0
  0
ARC
  8
0
 10
-22.829899
 20
326.754206
 30
0.0
 40
1.5
 50
90.0
 51
180.0
  0
ARC
  8
0
 10
-15.629899
 20
326.754206
 30
0.0
 40
1.5
 50
0.0
 51
90.0
  0
ARC
  8
0
 10
-30.229899
 20
314.254206
 30
0.0
 40
1.5
 50
90.0
 51
270.0
  0
ARC
  8
0
 10
-8.229899
 20
314.254206
 30
0.0
 40
1.5
 50
270.0
 51
90.0
  0
LINE
  8
0
 10
-19.229899
 20
312.754206
 30
0.0
 11
-8.229899
 21
312.754206
 31
0.0
  0
LINE
  8
0
 10
-22.229899
 20
307.754206
 30
0.0
 11
-22.229899
 21
317.754206
 31
0.0
  0
LINE
  8
0
 10
-21.729899
 20
308.254206
 30
0.0
 11
-21.729899
 21
319.31083
 31
0.0
  0
LINE
  8
0
 10
-23.229899
 20
321.754206
 30
0.0
 11
-19.229899
 21
321.754206
 31
0.0
  0
LINE
  8
0
 10
-23.229899
 20
307.754206
 30
0.0
 11
-23.229899
 21
321.754206
 31
0.0
  0
LINE
  8
0
 10
-19.229899
 20
320.754206
 30
0.0
 11
-21.729899
 21
319.31083
 31
0.0
  0
LINE
  8
0
 10
-22.229899
 20
317.754206
 30
0.0
 11
-19.229899
 21
317.754206
 31
0.0
  0
ARC
  8
0
 10
-24.429899
 20
308.754206
 30
0.0
 40
1.0
 50
180.0
 51
270.0
  0
ARC
  8
0
 10
-14.029899
 20
308.754206
 30
0.0
 40
1.0
 50
270.0
 51
0.0
  0
ARC
  8
0
 10
3.412064
 20
290.40202
 30
0.0
 40
1.0
 50
90.0
 51
180.0
  0
ARC
  8
0
 10
3.412064
 20
280.00202
 30
0.0
 40
1.0
 50
180.0
 51
270.0
  0
LINE
  8
0
 10
7.412064
 20
274.202019
 30
0.0
 11
7.412064
 21
296.20202
 31
0.0
  0
ARC
  8
0
 10
8.912064
 20
296.20202
 30
0.0
 40
1.5
 50
90.0
 51
180.0
  0
ARC
  8
0
 10
8.912064
 20
274.20202
 30
0.0
 40
1.5
 50
180.0
 51
270.0
  0
LINE
  8
0
 10
3.412064
 20
291.40202
 30
0.0
 11
7.412064
 21
291.40202
 31
0.0
  0
LINE
  8
0
 10
3.412064
 20
279.00202
 30
0.0
 11
7.412064
 21
279.00202
 31
0.0
  0
LINE
  8
0
 10
22.912064
 20
282.70202
 30
0.0
 11
22.912064
 21
287.70202
 31
0.0
  0
LINE
  8
0
 10
2.412064
 20
280.00202
 30
0.0
 11
2.412064
 21
290.40202
 31
0.0
  0
LINE
  8
0
 10
8.912064
 20
297.70202
 30
0.0
 11
12.912064
 21
297.70202
 31
0.0
  0
LINE
  8
0
 10
8.912064
 20
272.70202
 30
0.0
 11
12.912064
 21
272.70202
 31
0.0
  0
ARC
  8
0
 10
12.912064
 20
287.70202
 30
0.0
 40
10.0
 50
360.0
 51
90.0
  0
ARC
  8
0
 10
12.912064
 20
282.70202
 30
0.0
 40
10.0
 50
270.0
 51
360.0
  0
LINE
  8
0
 10
10.412064
 20
278.45938
 30
0.0
 11
10.412064
 21
291.944661
 31
0.0
  0
ARC
  8
0
 10
12.912064
 20
287.70202
 30
0.0
 40
8.5
 50
360.0
 51
70.528779
  0
LINE
  8
0
 10
21.412064
 20
282.70202
 30
0.0
 11
21.412064
 21
287.70202
 31
0.0
  0
ARC
  8
0
 10
12.912064
 20
282.70202
 30
0.0
 40
8.5
 50
289.471221
 51
360.0
  0
ARC
  8
0
 10
14.412064
 20
291.944661
 30
0.0
 40
4.0
 50
70.528779
 51
180.0
  0
ARC
  8
0
 10
14.412064
 20
278.45938
 30
0.0
 40
4.0
 50
180.0
 51
289.471221
  0
ARC
  8
0
 10
92.495443
 20
278.45938
 30
0.0
 40
4.0
 50
180.0
 51
289.471221
  0
ARC
  8
0
 10
92.495443
 20
291.944661
 30
0.0
 40
4.0
 50
70.528779
 51
180.0
  0
ARC
  8
0
 10
90.995443
 20
282.70202
 30
0.0
 40
8.5
 50
289.471221
 51
360.0
  0
LINE
  8
0
 10
99.495443
 20
282.70202
 30
0.0
 11
99.495443
 21
287.70202
 31
0.0
  0
ARC
  8
0
 10
90.995443
 20
287.70202
 30
0.0
 40
8.5
 50
360.0
 51
70.528779
  0
LINE
  8
0
 10
88.495443
 20
278.45938
 30
0.0
 11
88.495443
 21
291.944661
 31
0.0
  0
ARC
  8
0
 10
90.995443
 20
282.70202
 30
0.0
 40
10.0
 50
270.0
 51
360.0
  0
ARC
  8
0
 10
90.995443
 20
287.70202
 30
0.0
 40
10.0
 50
360.0
 51
90.0
  0
LINE
  8
0
 10
86.995443
 20
272.70202
 30
0.0
 11
90.995443
 21
272.70202
 31
0.0
  0
LINE
  8
0
 10
86.995443
 20
297.70202
 30
0.0
 11
90.995443
 21
297.70202
 31
0.0
  0
LINE
  8
0
 10
80.495443
 20
280.00202
 30
0.0
 11
80.495443
 21
290.40202
 31
0.0
  0
LINE
  8
0
 10
100.995443
 20
282.70202
 30
0.0
 11
100.995443
 21
287.70202
 31
0.0
  0
LINE
  8
0
 10
81.495443
 20
279.00202
 30
0.0
 11
85.495443
 21
279.00202
 31
0.0
  0
LINE
  8
0
 10
81.495443
 20
291.40202
 30
0.0
 11
85.495443
 21
291.40202
 31
0.0
  0
ARC
  8
0
 10
86.995443
 20
274.20202
 30
0.0
 40
1.5
 50
180.0
 51
270.0
  0
ARC
  8
0
 10
86.995443
 20
296.20202
 30
0.0
 40
1.5
 50
90.0
 51
180.0
  0
LINE
  8
0
 10
85.495443
 20
274.202019
 30
0.0
 11
85.495443
 21
296.20202
 31
0.0
  0
ARC
  8
0
 10
81.495443
 20
280.00202
 30
0.0
 40
1.0
 50
180.0
 51
270.0
  0
ARC
  8
0
 10
81.495443
 20
290.40202
 30
0.0
 40
1.0
 50
90.0
 51
180.0
  0
ARC
  8
0
 10
50.43748
 20
323.531983
 30
0.0
 40
1.0
 50
270.0
 51
0.0
  0
ARC
  8
0
 10
40.03748
 20
323.531983
 30
0.0
 40
1.0
 50
180.0
 51
270.0
  0
LINE
  8
0
 10
42.73748
 20
307.531983
 30
0.0
 11
42.73748
 21
327.531983
 31
0.0
  0
LINE
  8
0
 10
42.23748
 20
308.031983
 30
0.0
 11
42.23748
 21
327.531983
 31
0.0
  0
LINE
  8
0
 10
45.23748
 20
327.531983
 30
0.0
 11
56.23748
 21
327.531983
 31
0.0
  0
ARC
  8
0
 10
56.23748
 20
329.031983
 30
0.0
 40
1.5
 50
270.0
 51
90.0
  0
ARC
  8
0
 10
34.23748
 20
329.031983
 30
0.0
 40
1.5
 50
90.0
 51
270.0
  0
ARC
  8
0
 10
48.83748
 20
341.531983
 30
0.0
 40
1.5
 50
0.0
 51
90.0
  0
ARC
  8
0
 10
41.63748
 20
341.531983
 30
0.0
 40
1.5
 50
90.0
 51
180.0
  0
ARC
  8
0
 10
55.33748
 20
335.531983
 30
0.0
 40
5.0
 50
180.0
 51
270.0
  0
ARC
  8
0
 10
35.13748
 20
335.531983
 30
0.0
 40
5.0
 50
270.0
 51
0.0
  0
LINE
  8
0
 10
50.33748
 20
335.531983
 30
0.0
 11
50.33748
 21
341.531983
 31
0.0
  0
LINE
  8
0
 10
40.13748
 20
335.531983
 30
0.0
 11
40.13748
 21
341.531983
 31
0.0
  0
LINE
  8
0
 10
55.33748
 20
330.531983
 30
0.0
 11
56.23748
 21
330.531983
 31
0.0
  0
LINE
  8
0
 10
34.23748
 20
330.531983
 30
0.0
 11
35.13748
 21
330.531983
 31
0.0
  0
LINE
  8
0
 10
51.43748
 20
323.531983
 30
0.0
 11
51.43748
 21
327.531983
 31
0.0
  0
LINE
  8
0
 10
39.03748
 20
323.531983
 30
0.0
 11
39.03748
 21
327.531983
 31
0.0
  0
LINE
  8
0
  6
CENTER
 10
45.23748
 20
305.132936
 30
0.0
 11
45.23748
 21
344.519887
 31
0.0
  0
LINE
  8
0
 10
34.23748
 20
327.531983
 30
0.0
 11
39.03748
 21
327.531983
 31
0.0
  0
LINE
  8
0
 10
41.63748
 20
343.031983
 30
0.0
 11
48.83748
 21
343.031983
 31
0.0
  0
LINE
  8
0
 10
40.03748
 20
322.531983
 30
0.0
 11
42.23748
 21
322.531983
 31
0.0
  0
CIRCLE
  8
0
 10
-19.229899
 20
285.20202
 30
0.0
 40
12.5
  0
LINE
  8
0
 10
42.73748
 20
307.531983
 30
0.0
 11
47.73748
 21
307.531983
 31
0.0
  0
LINE
  8
0
 10
40.23748
 20
327.531983
 30
0.0
 11
42.73748
 21
327.531983
 31
0.0
  0
LINE
  8
0
 10
40.23748
 20
331.531983
 30
0.0
 11
45.23748
 21
331.531983
 31
0.0
  0
LINE
  8
0
 10
40.23748
 20
327.531983
 30
0.0
 11
40.23748
 21
331.531983
 31
0.0
  0
LINE
  8
0
 10
48.23748
 20
308.031983
 30
0.0
 11
48.23748
 21
322.531983
 31
0.0
  0
LINE
  8
0
 10
47.73748
 20
307.531983
 30
0.0
 11
47.73748
 21
322.531983
 31
0.0
  0
LINE
  8
0
 10
42.73748
 20
307.531983
 30
0.0
 11
42.23748
 21
308.031983
 31
0.0
  0
LINE
  8
0
 10
47.73748
 20
307.531983
 30
0.0
 11
48.23748
 21
308.031983
 31
0.0
  0
LINE
  8
0
 10
45.23748
 20
322.531983
 30
0.0
 11
50.43748
 21
322.531983
 31
0.0
  0
LINE
  8
0
 10
65.495443
 20
282.70202
 30
0.0
 11
65.995443
 21
282.20202
 31
0.0
  0
LINE
  8
0
 10
65.495443
 20
287.70202
 30
0.0
 11
65.995443
 21
288.20202
 31
0.0
  0
LINE
  8
0
 10
65.495443
 20
282.70202
 30
0.0
 11
80.495443
 21
282.70202
 31
0.0
  0
LINE
  8
0
 10
65.995443
 20
282.20202
 30
0.0
 11
80.495443
 21
282.20202
 31
0.0
  0
LINE
  8
0
 10
65.495443
 20
287.70202
 30
0.0
 11
65.495443
 21
282.70202
 31
0.0
  0
LINE
  8
0
 10
65.995443
 20
288.20202
 30
0.0
 11
80.495443
 21
288.20202
 31
0.0
  0
LINE
  8
0
 10
65.495443
 20
287.70202
 30
0.0
 11
80.495443
 21
287.70202
 31
0.0
  0
LINE
  8
0
 10
-24.329899
 20
274.45772
 30
0.0
 11
-24.329899
 21
295.946321
 31
0.0
  0
LINE
  8
0
 10
-14.129899
 20
274.45772
 30
0.0
 11
-14.129899
 21
295.946321
 31
0.0
  0
ARC
  8
0
 10
-23.329899
 20
295.946321
 30
0.0
 40
1.0
 50
110.886737
 51
180.0
  0
ARC
  8
0
 10
-15.129899
 20
295.946321
 30
0.0
 40
1.0
 50
0.0
 51
69.113263
  0
ARC
  8
0
 10
-23.329899
 20
274.45772
 30
0.0
 40
1.0
 50
180.0
 51
249.113263
  0
ARC
  8
0
 10
-15.129899
 20
274.45772
 30
0.0
 40
1.0
 50
290.886737
 51
0.0
  0
INSERT
  8
0
  2
*X0
 10
-25.996116
 20
-15.342912
 30
0.0
  0
INSERT
  8
0
  2
*X1
 10
10.601257
 20
0.0
 30
0.0
  0
INSERT
  8
0
  2
*X2
 10
22.427116
 20
-13.744501
 30
0.0
  0
INSERT
  8
0
  2
*X3
 10
22.129209
 20
-8.750383
 30
0.0
  0
ARC
  8
0
 10
48.820147
 20
274.45772
 30
0.0
 40
1.0
 50
290.886737
 51
0.0
  0
ARC
  8
0
 10
40.620147
 20
274.45772
 30
0.0
 40
1.0
 50
180.0
 51
249.113263
  0
ARC
  8
0
 10
48.820147
 20
295.946321
 30
0.0
 40
1.0
 50
0.0
 51
69.113263
  0
ARC
  8
0
 10
40.620147
 20
295.946321
 30
0.0
 40
1.0
 50
110.886737
 51
180.0
  0
LINE
  8
0
 10
49.820147
 20
274.45772
 30
0.0
 11
49.820147
 21
295.946321
 31
0.0
  0
LINE
  8
0
 10
39.620147
 20
274.45772
 30
0.0
 11
39.620147
 21
295.946321
 31
0.0
  0
CIRCLE
  8
0
 10
44.720147
 20
285.20202
 30
0.0
 40
12.5
  0
LINE
  8
0
 10
42.23748
 20
308.031983
 30
0.0
 11
48.23748
 21
308.031983
 31
0.0
  0
LINE
  8
0
 10
65.995443
 20
288.20202
 30
0.0
 11
65.995443
 21
282.20202
 31
0.0
  0
LINE
  8
0
 10
233.191219
 20
316.45121
 30
0.0
 11
241.191219
 21
316.45121
 31
0.0
  0
LINE
  8
0
 10
267.546154
 20
289.20202
 30
0.0
 11
267.546154
 21
281.20202
 31
0.0
  0
LINE
  8
0
 10
-21.729899
 20
308.254206
 30
0.0
 11
-19.229899
 21
308.254206
 31
0.0
  0
LINE
  8
0
 10
-22.229899
 20
307.754206
 30
0.0
 11
-21.729899
 21
308.254206
 31
0.0
  0
LINE
  8
0
 10
-21.729899
 20
319.31083
 30
0.0
 11
-19.229899
 21
319.31083
 31
0.0
  0
INSERT
  8
0
  2
*X4
 10
0.0
 20
0.0
 30
0.0
1001
ACAD
1000
HATCH
1002
{
1070
    16
1000
ANSI31
1040
10.0
1040
0.0
1002
}
  0
LINE
  8
0
 10
144.243622
 20
316.003643
 30
0.0
 11
139.993622
 21
316.003643
 31
0.0
  0
LINE
  8
0
 10
139.993622
 20
331.799904
 30
0.0
 11
144.243622
 21
331.799904
 31
0.0
  0
LINE
  8
0
 10
139.243622
 20
315.253643
 30
0.0
 11
139.993622
 21
316.003643
 31
0.0
  0
INSERT
  8
0
  2
*X5
 10
0.0
 20
0.0
 30
0.0
1001
ACAD
1000
HATCH
1002
{
1070
    16
1000
ANSI31
1040
10.0
1040
0.0
1002
}
  0
ENDSEC
  0
EOF
