  0
SECTION
  2
HEADER
  9
$ACADVER
  1
AC1014
  9
$ACADMAINTVER
 70
     0
  9
$DWGCODEPAGE
  3
ANSI_1252
  9
$INSBASE
 10
0.0
 20
0.0
 30
0.0
  9
$EXTMIN
 10
-69.5
 20
-50.5
 30
0.0
  9
$EXTMAX
 10
390.0
 20
13.5
 30
0.0
  9
$LIMMIN
 10
0.0
 20
0.0
  9
$LIMMAX
 10
12.0
 20
9.0
  9
$ORTHOMODE
 70
     1
  9
$REGENMODE
 70
     1
  9
$FILLMODE
 70
     1
  9
$QTEXTMODE
 70
     0
  9
$MIRRTEXT
 70
     1
  9
$DRAGMODE
 70
     2
  9
$LTSCALE
 40
5.0
  9
$OSMODE
 70
     0
  9
$ATTMODE
 70
     1
  9
$TEXTSIZE
 40
0.2
  9
$TRACEWID
 40
0.05
  9
$TEXTSTYLE
  7
STANDARD
  9
$CLAYER
  8
0
  9
$CELTYPE
  6
BYLAYER
  9
$CECOLOR
 62
   256
  9
$CELTSCALE
 40
1.0
  9
$DELOBJ
 70
     1
  9
$DISPSILH
 70
     0
  9
$DIMSCALE
 40
1.0
  9
$DIMASZ
 40
2.5
  9
$DIMEXO
 40
0.0
  9
$DIMDLI
 40
5.0
  9
$DIMRND
 40
0.0
  9
$DIMDLE
 40
0.0
  9
$DIMEXE
 40
1.0
  9
$DIMTP
 40
0.0
  9
$DIMTM
 40
0.0
  9
$DIMTXT
 40
2.5
  9
$DIMCEN
 40
0.09
  9
$DIMTSZ
 40
0.0
  9
$DIMTOL
 70
     0
  9
$DIMLIM
 70
     0
  9
$DIMTIH
 70
     0
  9
$DIMTOH
 70
     0
  9
$DIMSE1
 70
     0
  9
$DIMSE2
 70
     0
  9
$DIMTAD
 70
     1
  9
$DIMZIN
 70
     0
  9
$DIMBLK
  1

  9
$DIMASO
 70
     0
  9
$DIMSHO
 70
     0
  9
$DIMPOST
  1

  9
$DIMAPOST
  1

  9
$DIMALT
 70
     0
  9
$DIMALTD
 70
     2
  9
$DIMALTF
 40
25.4
  9
$DIMLFAC
 40
1.0
  9
$DIMTOFL
 70
     1
  9
$DIMTVP
 40
0.0
  9
$DIMTIX
 70
     0
  9
$DIMSOXD
 70
     0
  9
$DIMSAH
 70
     0
  9
$DIMBLK1
  1

  9
$DIMBLK2
  1

  9
$DIMSTYLE
  2
STANDARD
  9
$DIMCLRD
 70
     0
  9
$DIMCLRE
 70
     0
  9
$DIMCLRT
 70
     0
  9
$DIMTFAC
 40
1.0
  9
$DIMGAP
 40
0.09
  9
$DIMJUST
 70
     0
  9
$DIMSD1
 70
     0
  9
$DIMSD2
 70
     0
  9
$DIMTOLJ
 70
     1
  9
$DIMTZIN
 70
     0
  9
$DIMALTZ
 70
     0
  9
$DIMALTTZ
 70
     0
  9
$DIMFIT
 70
     5
  9
$DIMUPT
 70
     0
  9
$DIMUNIT
 70
     2
  9
$DIMDEC
 70
     4
  9
$DIMTDEC
 70
     4
  9
$DIMALTU
 70
     2
  9
$DIMALTTD
 70
     2
  9
$DIMTXSTY
  7
STANDARD
  9
$DIMAUNIT
 70
     0
  9
$LUNITS
 70
     2
  9
$LUPREC
 70
     4
  9
$SKETCHINC
 40
0.1
  9
$FILLETRAD
 40
2.0
  9
$AUNITS
 70
     0
  9
$AUPREC
 70
     4
  9
$MENU
  1
wiberger
  9
$ELEVATION
 40
0.0
  9
$PELEVATION
 40
0.0
  9
$THICKNESS
 40
0.0
  9
$LIMCHECK
 70
     0
  9
$BLIPMODE
 70
     1
  9
$CHAMFERA
 40
0.0
  9
$CHAMFERB
 40
0.0
  9
$CHAMFERC
 40
0.0
  9
$CHAMFERD
 40
0.0
  9
$SKPOLY
 70
     0
  9
$TDCREATE
 40
2450192.614194097
  9
$TDUPDATE
 40
2451310.451021192
  9
$TDINDWG
 40
0.8694475347
  9
$TDUSRTIMER
 40
0.8694475347
  9
$USRTIMER
 70
     1
  9
$ANGBASE
 50
0.0
  9
$ANGDIR
 70
     0
  9
$PDMODE
 70
     3
  9
$PDSIZE
 40
5.0
  9
$PLINEWID
 40
0.0
  9
$COORDS
 70
     2
  9
$SPLFRAME
 70
     0
  9
$SPLINETYPE
 70
     6
  9
$SPLINESEGS
 70
     8
  9
$ATTDIA
 70
     0
  9
$ATTREQ
 70
     1
  9
$HANDLING
 70
     1
  9
$HANDSEED
  5
A06
  9
$SURFTAB1
 70
     6
  9
$SURFTAB2
 70
     6
  9
$SURFTYPE
 70
     6
  9
$SURFU
 70
     6
  9
$SURFV
 70
     6
  9
$UCSNAME
  2

  9
$UCSORG
 10
0.0
 20
0.0
 30
0.0
  9
$UCSXDIR
 10
1.0
 20
0.0
 30
0.0
  9
$UCSYDIR
 10
0.0
 20
1.0
 30
0.0
  9
$PUCSNAME
  2

  9
$PUCSORG
 10
0.0
 20
0.0
 30
0.0
  9
$PUCSXDIR
 10
1.0
 20
0.0
 30
0.0
  9
$PUCSYDIR
 10
0.0
 20
1.0
 30
0.0
  9
$USERI1
 70
     0
  9
$USERI2
 70
     0
  9
$USERI3
 70
     0
  9
$USERI4
 70
     0
  9
$USERI5
 70
     0
  9
$USERR1
 40
0.0
  9
$USERR2
 40
0.0
  9
$USERR3
 40
0.0
  9
$USERR4
 40
0.0
  9
$USERR5
 40
0.0
  9
$WORLDVIEW
 70
     1
  9
$SHADEDGE
 70
     3
  9
$SHADEDIF
 70
    70
  9
$TILEMODE
 70
     1
  9
$MAXACTVP
 70
    16
  9
$PINSBASE
 10
0.0
 20
0.0
 30
0.0
  9
$PLIMCHECK
 70
     0
  9
$PEXTMIN
 10
1.000000E+20
 20
1.000000E+20
 30
1.000000E+20
  9
$PEXTMAX
 10
-1.000000E+20
 20
-1.000000E+20
 30
-1.000000E+20
  9
$PLIMMIN
 10
0.0
 20
0.0
  9
$PLIMMAX
 10
12.0
 20
9.0
  9
$UNITMODE
 70
     0
  9
$VISRETAIN
 70
     0
  9
$PLINEGEN
 70
     0
  9
$PSLTSCALE
 70
     0
  9
$TREEDEPTH
 70
  3020
  9
$PICKSTYLE
 70
     1
  9
$CMLSTYLE
  2
STANDARD
  9
$CMLJUST
 70
     0
  9
$CMLSCALE
 40
1.0
  9
$PROXYGRAPHICS
 70
     1
  9
$MEASUREMENT
 70
     0
  0
ENDSEC
  0
SECTION
  2
CLASSES
  0
CLASS
  1
LWPOLYLINE
  2
AcDbPolyline
  3
"AutoCAD"
 90
        0
280
     0
281
     1
  0
CLASS
  1
DICTIONARYVAR
  2
AcDbDictionaryVar
  3
"AutoCAD"
 90
        0
280
     0
281
     0
  0
CLASS
  1
HATCH
  2
AcDbHatch
  3
"ACAD_SEDONA"
 90
        0
280
     0
281
     1
  0
ENDSEC
  0
SECTION
  2
TABLES
  0
TABLE
  2
VPORT
  5
8
100
AcDbSymbolTable
 70
     1
  0
VPORT
  5
A02
100
AcDbSymbolTableRecord
100
AcDbViewportTableRecord
  2
*ACTIVE
 70
     0
 10
0.0
 20
0.0
 11
1.0
 21
1.0
 12
160.25
 22
-12.75
 13
0.0
 23
0.0
 14
0.5
 24
0.5
 15
0.0
 25
0.0
 16
0.0
 26
0.0
 36
1.0
 17
0.0
 27
0.0
 37
0.0
 40
307.981148
 41
1.521197
 42
50.0
 43
0.0
 44
0.0
 50
0.0
 51
0.0
 71
     0
 72
   100
 73
     1
 74
     0
 75
     1
 76
     0
 77
     0
 78
     0
  0
ENDTAB
  0
TABLE
  2
LTYPE
  5
5
100
AcDbSymbolTable
 70
     2
  0
LTYPE
  5
11
100
AcDbSymbolTableRecord
100
AcDbLinetypeTableRecord
  2
BYBLOCK
 70
     0
  3

 72
    65
 73
     0
 40
0.0
  0
LTYPE
  5
12
100
AcDbSymbolTableRecord
100
AcDbLinetypeTableRecord
  2
BYLAYER
 70
     0
  3

 72
    65
 73
     0
 40
0.0
  0
LTYPE
  5
13
100
AcDbSymbolTableRecord
100
AcDbLinetypeTableRecord
  2
CONTINUOUS
 70
     0
  3
Solid line
 72
    65
 73
     0
 40
0.0
  0
LTYPE
  5
42
100
AcDbSymbolTableRecord
100
AcDbLinetypeTableRecord
  2
CENTER
 70
     0
  3
____ _ ____ _ ____ _ ____ _ ____ _ ____ _ ____
 72
    65
 73
     4
 40
2.0
 49
1.25
 74
     0
 49
-0.25
 74
     0
 49
0.25
 74
     0
 49
-0.25
 74
     0
  0
ENDTAB
  0
TABLE
  2
LAYER
  5
2
100
AcDbSymbolTable
 70
     1
  0
LAYER
  5
E
100
AcDbSymbolTableRecord
100
AcDbLayerTableRecord
  2
0
 70
     0
 62
     7
  6
CONTINUOUS
  0
ENDTAB
  0
TABLE
  2
STYLE
  5
3
100
AcDbSymbolTable
 70
     1
  0
STYLE
  5
F
100
AcDbSymbolTableRecord
100
AcDbTextStyleTableRecord
  2
STANDARD
 70
     0
 40
0.0
 41
1.0
 50
0.0
 71
     0
 42
0.2
  3
txt
  4

  0
ENDTAB
  0
TABLE
  2
VIEW
  5
6
100
AcDbSymbolTable
 70
     0
  0
ENDTAB
  0
TABLE
  2
UCS
  5
7
100
AcDbSymbolTable
 70
     0
  0
ENDTAB
  0
TABLE
  2
APPID
  5
9
100
AcDbSymbolTable
 70
     3
  0
APPID
  5
10
100
AcDbSymbolTableRecord
100
AcDbRegAppTableRecord
  2
ACAD
 70
     0
  0
APPID
  5
8B0
100
AcDbSymbolTableRecord
100
AcDbRegAppTableRecord
  2
CONTENTTABDATA
 70
     0
  0
APPID
  5
8B1
100
AcDbSymbolTableRecord
100
AcDbRegAppTableRecord
  2
CONTENTCURRENTTAB
 70
     0
  0
ENDTAB
  0
TABLE
  2
DIMSTYLE
  5
A
100
AcDbSymbolTable
 70
     1
  0
DIMSTYLE
105
599
100
AcDbSymbolTableRecord
100
AcDbDimStyleTableRecord
  2
STANDARD
 70
     0
  3

  4

  5

  6

  7

 40
1.0
 41
0.18
 42
0.0625
 43
0.38
 44
0.18
 45
0.0
 46
0.0
 47
0.0
 48
0.0
140
0.18
141
0.09
142
0.0
143
25.4
144
1.0
145
0.0
146
1.0
147
0.09
 71
     0
 72
     0
 73
     1
 74
     1
 75
     0
 76
     0
 77
     0
 78
     0
170
     0
171
     2
172
     0
173
     0
174
     0
175
     0
176
     0
177
     0
178
     0
270
     2
271
     4
272
     4
273
     2
274
     2
340
F
275
     0
280
     0
281
     0
282
     0
283
     1
284
     0
285
     0
286
     0
287
     3
288
     0
  0
ENDTAB
  0
TABLE
  2
BLOCK_RECORD
  5
1
100
AcDbSymbolTable
 70
    32
  0
BLOCK_RECORD
  5
17
100
AcDbSymbolTableRecord
100
AcDbBlockTableRecord
  2
*MODEL_SPACE
  0
BLOCK_RECORD
  5
14
100
AcDbSymbolTableRecord
100
AcDbBlockTableRecord
  2
*PAPER_SPACE
  0
BLOCK_RECORD
  5
1C
100
AcDbSymbolTableRecord
100
AcDbBlockTableRecord
  2
K5
  0
BLOCK_RECORD
  5
1D
100
AcDbSymbolTableRecord
100
AcDbBlockTableRecord
  2
HF5
  0
BLOCK_RECORD
  5
1E
100
AcDbSymbolTableRecord
100
AcDbBlockTableRecord
  2
HB5
  0
BLOCK_RECORD
  5
1F
100
AcDbSymbolTableRecord
100
AcDbBlockTableRecord
  2
H5
  0
BLOCK_RECORD
  5
20
100
AcDbSymbolTableRecord
100
AcDbBlockTableRecord
  2
K6
  0
BLOCK_RECORD
  5
21
100
AcDbSymbolTableRecord
100
AcDbBlockTableRecord
  2
H6
  0
BLOCK_RECORD
  5
22
100
AcDbSymbolTableRecord
100
AcDbBlockTableRecord
  2
HF6
  0
BLOCK_RECORD
  5
23
100
AcDbSymbolTableRecord
100
AcDbBlockTableRecord
  2
HB6
  0
BLOCK_RECORD
  5
24
100
AcDbSymbolTableRecord
100
AcDbBlockTableRecord
  2
K8
  0
BLOCK_RECORD
  5
25
100
AcDbSymbolTableRecord
100
AcDbBlockTableRecord
  2
H8
  0
BLOCK_RECORD
  5
26
100
AcDbSymbolTableRecord
100
AcDbBlockTableRecord
  2
HF8
  0
BLOCK_RECORD
  5
27
100
AcDbSymbolTableRecord
100
AcDbBlockTableRecord
  2
HB8
  0
BLOCK_RECORD
  5
28
100
AcDbSymbolTableRecord
100
AcDbBlockTableRecord
  2
K10
  0
BLOCK_RECORD
  5
29
100
AcDbSymbolTableRecord
100
AcDbBlockTableRecord
  2
H10
  0
BLOCK_RECORD
  5
2A
100
AcDbSymbolTableRecord
100
AcDbBlockTableRecord
  2
HF10
  0
BLOCK_RECORD
  5
2B
100
AcDbSymbolTableRecord
100
AcDbBlockTableRecord
  2
HB10
  0
BLOCK_RECORD
  5
2C
100
AcDbSymbolTableRecord
100
AcDbBlockTableRecord
  2
K12
  0
BLOCK_RECORD
  5
2D
100
AcDbSymbolTableRecord
100
AcDbBlockTableRecord
  2
HB12
  0
BLOCK_RECORD
  5
2E
100
AcDbSymbolTableRecord
100
AcDbBlockTableRecord
  2
K14
  0
BLOCK_RECORD
  5
2F
100
AcDbSymbolTableRecord
100
AcDbBlockTableRecord
  2
H14
  0
BLOCK_RECORD
  5
30
100
AcDbSymbolTableRecord
100
AcDbBlockTableRecord
  2
HF14
  0
BLOCK_RECORD
  5
31
100
AcDbSymbolTableRecord
100
AcDbBlockTableRecord
  2
HB14
  0
BLOCK_RECORD
  5
32
100
AcDbSymbolTableRecord
100
AcDbBlockTableRecord
  2
HB16
  0
BLOCK_RECORD
  5
33
100
AcDbSymbolTableRecord
100
AcDbBlockTableRecord
  2
K16
  0
ENDTAB
  0
ENDSEC
  0
SECTION
  2
BLOCKS
  0
BLOCK
  5
47
100
AcDbEntity
  8
0
100
AcDbBlockBegin
  2
*MODEL_SPACE
 70
     0
 10
0.0
 20
0.0
 30
0.0
  3
*MODEL_SPACE
  1

  0
ENDBLK
  5
48
100
AcDbEntity
  8
0
100
AcDbBlockEnd
  0
BLOCK
  5
45
100
AcDbEntity
 67
     1
  8
0
100
AcDbBlockBegin
  2
*PAPER_SPACE
 70
     0
 10
0.0
 20
0.0
 30
0.0
  3
*PAPER_SPACE
  1

  0
ENDBLK
  5
46
100
AcDbEntity
 67
     1
  8
0
100
AcDbBlockEnd
  0
BLOCK
  5
49
100
AcDbEntity
  8
0
100
AcDbBlockBegin
  2
K5
 70
     0
 10
0.0
 20
0.0
 30
0.0
  3
K5
  1

  0
LINE
  5
4A
100
AcDbEntity
  8
0
100
AcDbLine
 10
-2.1
 20
-19.6
 30
0.0
 11
2.1
 21
-19.6
 31
0.0
  0
LINE
  5
4B
100
AcDbEntity
  8
0
100
AcDbLine
 10
-2.5
 20
-9.6
 30
0.0
 11
-2.5
 21
-19.2
 31
0.0
  0
LINE
  5
4C
100
AcDbEntity
  8
0
100
AcDbLine
 10
2.5
 20
-9.6
 30
0.0
 11
2.5
 21
-19.2
 31
0.0
  0
LINE
  5
4D
100
AcDbEntity
  8
0
100
AcDbLine
 10
-4.0
 20
-9.6
 30
0.0
 11
4.0
 21
-9.6
 31
0.0
  0
LINE
  5
4E
100
AcDbEntity
  8
0
100
AcDbLine
 10
-4.0
 20
-7.1
 30
0.0
 11
-4.0
 21
-9.6
 31
0.0
  0
LINE
  5
4F
100
AcDbEntity
  8
0
100
AcDbLine
 10
4.0
 20
-7.1
 30
0.0
 11
4.0
 21
-9.6
 31
0.0
  0
LINE
  5
50
100
AcDbEntity
  8
0
100
AcDbLine
 10
-2.1
 20
-11.6
 30
0.0
 11
-2.1
 21
-19.6
 31
0.0
  0
LINE
  5
51
100
AcDbEntity
  8
0
100
AcDbLine
 10
2.1
 20
-11.6
 30
0.0
 11
2.1
 21
-19.6
 31
0.0
  0
LINE
  5
52
100
AcDbEntity
  8
0
100
AcDbLine
 10
-2.1
 20
-11.6
 30
0.0
 11
2.1
 21
-11.6
 31
0.0
  0
LINE
  5
53
100
AcDbEntity
  8
0
100
AcDbLine
 10
2.1
 20
-11.6
 30
0.0
 11
2.5
 21
-11.2
 31
0.0
  0
LINE
  5
54
100
AcDbEntity
  8
0
100
AcDbLine
 10
-2.1
 20
-11.6
 30
0.0
 11
-2.5
 21
-11.2
 31
0.0
  0
LINE
  5
55
100
AcDbEntity
  8
0
100
AcDbLine
 10
-2.1
 20
-19.6
 30
0.0
 11
-2.5
 21
-19.2
 31
0.0
  0
LINE
  5
56
100
AcDbEntity
  8
0
100
AcDbLine
 10
2.1
 20
-19.6
 30
0.0
 11
2.5
 21
-19.2
 31
0.0
  0
LINE
  5
57
100
AcDbEntity
  8
0
100
AcDbLine
 10
2.362068
 20
-6.262507
 30
0.0
 11
2.154139
 21
-5.0
 31
0.0
  0
LINE
  5
58
100
AcDbEntity
  8
0
100
AcDbLine
 10
-2.362068
 20
-6.262507
 30
0.0
 11
-2.154139
 21
-5.0
 31
0.0
  0
LINE
  5
59
100
AcDbEntity
  8
0
100
AcDbLine
 10
-4.0
 20
-7.1
 30
0.0
 11
-3.348776
 21
-7.1
 31
0.0
  0
LINE
  5
5A
100
AcDbEntity
  8
0
100
AcDbLine
 10
3.348776
 20
-7.1
 30
0.0
 11
4.0
 21
-7.1
 31
0.0
  0
ARC
  5
5B
100
AcDbEntity
  8
0
100
AcDbCircle
 10
-3.348776
 20
-6.1
 30
0.0
 40
1.0
100
AcDbArc
 50
270.0
 51
350.647578
  0
ARC
  5
5C
100
AcDbEntity
  8
0
100
AcDbCircle
 10
3.348776
 20
-6.1
 30
0.0
 40
1.0
100
AcDbArc
 50
189.352422
 51
270.0
  0
ENDBLK
  5
5D
100
AcDbEntity
  8
0
100
AcDbBlockEnd
  0
BLOCK
  5
5E
100
AcDbEntity
  8
0
100
AcDbBlockBegin
  2
HF5
 70
     0
 10
0.0
 20
0.0
 30
0.0
  3
HF5
  1

  0
LINE
  5
5F
100
AcDbEntity
  8
0
100
AcDbLine
 10
-4.995998
 20
-5.0
 30
0.0
 11
4.995998
 21
-5.0
 31
0.0
  0
ARC
  5
60
100
AcDbEntity
  8
0
100
AcDbCircle
 10
0.0
 20
-1.0
 30
0.0
 40
6.4
100
AcDbArc
 50
321.317813
 51
218.682187
  0
CIRCLE
  5
61
100
AcDbEntity
  8
0
100
AcDbCircle
 10
3.4
 20
-4.024517
 30
0.0
 40
0.6
  0
ENDBLK
  5
62
100
AcDbEntity
  8
0
100
AcDbBlockEnd
  0
BLOCK
  5
63
100
AcDbEntity
  8
0
100
AcDbBlockBegin
  2
HB5
 70
     0
 10
0.0
 20
0.0
 30
0.0
  3
HB5
  1

  0
LINE
  5
64
100
AcDbEntity
  8
0
100
AcDbLine
 10
-4.995998
 20
-5.0
 30
0.0
 11
4.995998
 21
-5.0
 31
0.0
  0
ARC
  5
65
100
AcDbEntity
  8
0
100
AcDbCircle
 10
0.0
 20
-1.0
 30
0.0
 40
6.4
100
AcDbArc
 50
321.317813
 51
218.682187
  0
CIRCLE
  5
66
100
AcDbEntity
  8
0
100
AcDbCircle
 10
0.0
 20
-0.968091
 30
0.0
 40
4.031909
  0
CIRCLE
  5
67
100
AcDbEntity
  8
0
100
AcDbCircle
 10
0.0
 20
-0.968091
 30
0.0
 40
2.5
  0
CIRCLE
  5
68
100
AcDbEntity
  8
0
100
AcDbCircle
 10
0.0
 20
-0.968091
 30
0.0
 40
2.1
  0
ARC
  5
69
100
AcDbEntity
  8
0
100
AcDbCircle
 10
0.0
 20
-0.968091
 30
0.0
 40
4.431909
100
AcDbArc
 50
319.720936
 51
191.009906
  0
ARC
  5
6A
100
AcDbEntity
  8
0
100
AcDbCircle
 10
-3.415349
 20
-4.024517
 30
0.0
 40
0.6
100
AcDbArc
 50
157.279373
 51
20.122836
  0
ARC
  5
6B
100
AcDbEntity
  8
0
100
AcDbCircle
 10
-3.415349
 20
-4.024517
 30
0.0
 40
0.5
100
AcDbArc
 50
188.452031
 51
20.122836
  0
LINE
  5
6C
100
AcDbEntity
  8
0
100
AcDbLine
 10
-3.909918
 20
-4.098008
 30
0.0
 11
-4.350336
 21
-1.814491
 31
0.0
  0
LINE
  5
6D
100
AcDbEntity
  8
0
100
AcDbLine
 10
-2.94587
 20
-3.8525
 30
0.0
 11
-2.981683
 21
-3.682102
 31
0.0
  0
ARC
  5
6E
100
AcDbEntity
  8
0
100
AcDbCircle
 10
3.457414
 20
-3.89802
 30
0.0
 40
0.1
100
AcDbArc
 50
139.720921
 51
319.720935
  0
ARC
  5
6F
100
AcDbEntity
  8
0
100
AcDbCircle
 10
3.457414
 20
-3.89802
 30
0.0
 40
1.1
100
AcDbArc
 50
196.296798
 51
319.720935
  0
LINE
  5
70
100
AcDbEntity
  8
0
100
AcDbLine
 10
3.533705
 20
-3.962671
 30
0.0
 11
4.160371
 21
-2.917491
 31
0.0
  0
LINE
  5
71
100
AcDbEntity
  8
0
100
AcDbLine
 10
4.160371
 20
-2.917491
 30
0.0
 11
5.018024
 21
-3.43172
 31
0.0
  0
LINE
  5
72
100
AcDbEntity
  8
0
100
AcDbLine
 10
5.018024
 20
-3.43172
 30
0.0
 11
4.296609
 21
-4.609183
 31
0.0
  0
ENDBLK
  5
73
100
AcDbEntity
  8
0
100
AcDbBlockEnd
  0
BLOCK
  5
74
100
AcDbEntity
  8
0
100
AcDbBlockBegin
  2
H5
 70
     0
 10
0.0
 20
0.0
 30
0.0
  3
H5
  1

  0
LINE
  5
75
100
AcDbEntity
  8
0
100
AcDbLine
 10
22.1
 20
-5.0
 30
0.0
 11
22.1
 21
3.0
 31
0.0
  0
LINE
  5
76
100
AcDbEntity
  8
0
100
AcDbLine
 10
-4.995998
 20
-5.0
 30
0.0
 11
5.131032
 21
-5.0
 31
0.0
  0
ARC
  5
77
100
AcDbEntity
  8
0
100
AcDbCircle
 10
5.731032
 20
3.0
 30
0.0
 40
0.5
100
AcDbArc
 50
0.0
 51
180.0
  0
LINE
  5
78
100
AcDbEntity
  8
0
100
AcDbLine
 10
6.331032
 20
3.0
 30
0.0
 11
22.1
 21
3.0
 31
0.0
  0
ARC
  5
79
100
AcDbEntity
  8
0
100
AcDbCircle
 10
0.0
 20
-1.0
 30
0.0
 40
6.4
100
AcDbArc
 50
35.179736
 51
218.682187
  0
ARC
  5
7A
100
AcDbEntity
  8
0
100
AcDbCircle
 10
5.731032
 20
3.0
 30
0.0
 40
0.6
100
AcDbArc
 50
326.44269
 51
0.0
  0
ARC
  5
7B
100
AcDbEntity
  8
0
100
AcDbCircle
 10
5.731032
 20
-5.0
 30
0.0
 40
0.6
100
AcDbArc
 50
360.0
 51
180.0
  0
LINE
  5
7C
100
AcDbEntity
  8
0
100
AcDbLine
 10
6.331032
 20
-5.0
 30
0.0
 11
22.1
 21
-5.0
 31
0.0
  0
LINE
  5
7D
100
AcDbEntity
  8
0
100
AcDbLine
 10
5.231032
 20
3.0
 30
0.0
 11
5.231032
 21
-2.423609
 31
0.0
  0
LINE
  5
7E
100
AcDbEntity
  8
0
100
AcDbLine
 10
6.231032
 20
3.0
 30
0.0
 11
6.231032
 21
-2.423609
 31
0.0
  0
ARC
  5
7F
100
AcDbEntity
  8
0
100
AcDbCircle
 10
4.231032
 20
-2.423609
 30
0.0
 40
1.0
100
AcDbArc
 50
270.0
 51
0.0
  0
ARC
  5
80
100
AcDbEntity
  8
0
100
AcDbCircle
 10
4.231032
 20
-2.423609
 30
0.0
 40
2.0
100
AcDbArc
 50
270.0
 51
0.0
  0
LWPOLYLINE
  5
81
100
AcDbEntity
  8
0
100
AcDbPolyline
 90
       16
 70
     1
 43
0.0
 10
-4.2
 20
-4.423609
 42
0.152282
 10
-4.094445
 20
-4.390698
 42
0.106939
 10
-3.987986
 20
-4.277162
 42
0.074314
 10
-3.924674
 20
-4.123931
 42
0.060941
 10
-3.900167
 20
-3.923609
 42
0.060941
 10
-3.924674
 20
-3.723287
 42
0.074314
 10
-3.987986
 20
-3.570056
 42
0.106939
 10
-4.094445
 20
-3.456521
 42
0.152282
 10
-4.2
 20
-3.423609
 42
0.152282
 10
-4.305555
 20
-3.456521
 42
0.106939
 10
-4.412014
 20
-3.570056
 42
0.074314
 10
-4.475326
 20
-3.723287
 42
0.060941
 10
-4.499833
 20
-3.923609
 42
0.060941
 10
-4.475326
 20
-4.123931
 42
0.074314
 10
-4.412014
 20
-4.277162
 42
0.106939
 10
-4.305555
 20
-4.390698
 42
0.152282
  0
LWPOLYLINE
  5
93
100
AcDbEntity
  8
0
100
AcDbPolyline
 90
        9
 70
     0
 43
0.0
 10
4.107591
 20
-3.423609
 42
0.152282
 10
4.002036
 20
-3.456521
 42
0.106939
 10
3.895578
 20
-3.570056
 42
0.074314
 10
3.832265
 20
-3.723287
 42
0.060941
 10
3.807759
 20
-3.923609
 42
0.060941
 10
3.832265
 20
-4.123931
 42
0.074314
 10
3.895578
 20
-4.277162
 42
0.106939
 10
4.002036
 20
-4.390698
 42
0.152282
 10
4.107591
 20
-4.423609
 42
0.152282
  0
LINE
  5
9E
100
AcDbEntity
  8
0
100
AcDbLine
 10
4.107591
 20
-3.423609
 30
0.0
 11
4.231032
 21
-3.423609
 31
0.0
  0
LINE
  5
9F
100
AcDbEntity
  8
0
100
AcDbLine
 10
4.107591
 20
-4.423609
 30
0.0
 11
4.231032
 21
-4.423609
 31
0.0
  0
LINE
  5
A0
100
AcDbEntity
  8
0
100
AcDbLine
 10
6.331032
 20
-5.0
 30
0.0
 11
6.331032
 21
3.0
 31
0.0
  0
ENDBLK
  5
A1
100
AcDbEntity
  8
0
100
AcDbBlockEnd
  0
BLOCK
  5
A2
100
AcDbEntity
  8
0
100
AcDbBlockBegin
  2
K6
 70
     0
 10
0.0
 20
0.0
 30
0.0
  3
K6
  1

  0
LINE
  5
A3
100
AcDbEntity
  8
0
100
AcDbLine
 10
2.5
 20
-23.0
 30
0.0
 11
3.0
 21
-22.5
 31
0.0
  0
LINE
  5
A4
100
AcDbEntity
  8
0
100
AcDbLine
 10
-2.5
 20
-23.0
 30
0.0
 11
-3.0
 21
-22.5
 31
0.0
  0
LINE
  5
A5
100
AcDbEntity
  8
0
100
AcDbLine
 10
-2.5
 20
-13.0
 30
0.0
 11
-3.0
 21
-12.5
 31
0.0
  0
LINE
  5
A6
100
AcDbEntity
  8
0
100
AcDbLine
 10
2.5
 20
-13.0
 30
0.0
 11
3.0
 21
-12.5
 31
0.0
  0
LINE
  5
A7
100
AcDbEntity
  8
0
100
AcDbLine
 10
-2.5
 20
-13.0
 30
0.0
 11
2.5
 21
-13.0
 31
0.0
  0
LINE
  5
A8
100
AcDbEntity
  8
0
100
AcDbLine
 10
2.5
 20
-13.0
 30
0.0
 11
2.5
 21
-23.0
 31
0.0
  0
LINE
  5
A9
100
AcDbEntity
  8
0
100
AcDbLine
 10
-2.5
 20
-13.0
 30
0.0
 11
-2.5
 21
-23.0
 31
0.0
  0
ARC
  5
AA
100
AcDbEntity
  8
0
100
AcDbCircle
 10
3.778588
 20
-6.2
 30
0.0
 40
1.5
100
AcDbArc
 50
189.111997
 51
270.0
  0
ARC
  5
AB
100
AcDbEntity
  8
0
100
AcDbCircle
 10
-3.778588
 20
-6.2
 30
0.0
 40
1.5
100
AcDbArc
 50
270.0
 51
350.888003
  0
LINE
  5
AC
100
AcDbEntity
  8
0
100
AcDbLine
 10
2.297517
 20
-6.437547
 30
0.0
 11
2.131106
 21
-5.4
 31
0.0
  0
LINE
  5
AD
100
AcDbEntity
  8
0
100
AcDbLine
 10
-2.297517
 20
-6.437547
 30
0.0
 11
-2.131106
 21
-5.4
 31
0.0
  0
LINE
  5
AE
100
AcDbEntity
  8
0
100
AcDbLine
 10
5.0
 20
-7.7
 30
0.0
 11
5.0
 21
-10.5
 31
0.0
  0
LINE
  5
AF
100
AcDbEntity
  8
0
100
AcDbLine
 10
-5.0
 20
-7.7
 30
0.0
 11
-5.0
 21
-10.5
 31
0.0
  0
LINE
  5
B0
100
AcDbEntity
  8
0
100
AcDbLine
 10
-5.0
 20
-7.7
 30
0.0
 11
5.0
 21
-7.7
 31
0.0
  0
LINE
  5
B1
100
AcDbEntity
  8
0
100
AcDbLine
 10
-5.0
 20
-10.5
 30
0.0
 11
5.0
 21
-10.5
 31
0.0
  0
LINE
  5
B2
100
AcDbEntity
  8
0
100
AcDbLine
 10
-3.0
 20
-10.5
 30
0.0
 11
-3.0
 21
-22.5
 31
0.0
  0
LINE
  5
B3
100
AcDbEntity
  8
0
100
AcDbLine
 10
3.0
 20
-10.5
 30
0.0
 11
3.0
 21
-22.5
 31
0.0
  0
LINE
  5
B4
100
AcDbEntity
  8
0
100
AcDbLine
 10
-2.5
 20
-23.0
 30
0.0
 11
2.5
 21
-23.0
 31
0.0
  0
ENDBLK
  5
B5
100
AcDbEntity
  8
0
100
AcDbBlockEnd
  0
BLOCK
  5
B6
100
AcDbEntity
  8
0
100
AcDbBlockBegin
  2
H6
 70
     0
 10
0.0
 20
0.0
 30
0.0
  3
H6
  1

  0
ARC
  5
B7
100
AcDbEntity
  8
0
100
AcDbCircle
 10
6.289014
 20
4.5
 30
0.0
 40
0.5
100
AcDbArc
 50
0.0
 51
180.0
  0
LWPOLYLINE
  5
B8
100
AcDbEntity
  8
0
100
AcDbPolyline
 90
       11
 70
     0
 43
0.0
 10
4.888571
 20
-3.295032
 42
0.048497
 10
4.815306
 20
-3.241751
 42
0.133753
 10
4.662023
 20
-3.2
 42
0.133753
 10
4.50874
 20
-3.241751
 42
0.106795
 10
4.363362
 20
-3.375736
 42
0.0826
 10
4.273612
 20
-3.562226
 42
0.071049
 10
4.239653
 20
-3.8
 42
0.071049
 10
4.273612
 20
-4.037774
 42
0.0826
 10
4.363362
 20
-4.224264
 42
0.106795
 10
4.50874
 20
-4.358249
 42
0.133753
 10
4.662023
 20
-4.4
 42
0.133753
  0
LWPOLYLINE
  5
C5
100
AcDbEntity
  8
0
100
AcDbPolyline
 90
        3
 70
     0
 43
0.0
 10
4.662023
 20
-4.4
 42
0.133753
 10
4.815306
 20
-4.358249
 42
0.054783
 10
4.897252
 20
-4.297069
 42
0.0826
  0
ARC
  5
CA
100
AcDbEntity
  8
0
100
AcDbCircle
 10
4.789014
 20
-2.3
 30
0.0
 40
2.0
100
AcDbArc
 50
270.0
 51
0.0
  0
ARC
  5
CB
100
AcDbEntity
  8
0
100
AcDbCircle
 10
4.789014
 20
-2.3
 30
0.0
 40
1.0
100
AcDbArc
 50
270.0
 51
0.0
  0
LINE
  5
CC
100
AcDbEntity
  8
0
100
AcDbLine
 10
4.429964
 20
-4.3
 30
0.0
 11
4.789014
 21
-4.3
 31
0.0
  0
LINE
  5
CD
100
AcDbEntity
  8
0
100
AcDbLine
 10
4.429964
 20
-3.3
 30
0.0
 11
4.789014
 21
-3.3
 31
0.0
  0
LINE
  5
CE
100
AcDbEntity
  8
0
100
AcDbLine
 10
6.789014
 20
4.5
 30
0.0
 11
6.789014
 21
-2.3
 31
0.0
  0
LINE
  5
CF
100
AcDbEntity
  8
0
100
AcDbLine
 10
5.789014
 20
4.5
 30
0.0
 11
5.789014
 21
-2.3
 31
0.0
  0
LWPOLYLINE
  5
D0
100
AcDbEntity
  8
0
100
AcDbPolyline
 90
       16
 70
     1
 43
0.0
 10
-4.612659
 20
-4.4
 42
0.133753
 10
-4.459376
 20
-4.358249
 42
0.106795
 10
-4.313999
 20
-4.224264
 42
0.0826
 10
-4.224248
 20
-4.037774
 42
0.071049
 10
-4.19029
 20
-3.8
 42
0.071049
 10
-4.224248
 20
-3.562226
 42
0.0826
 10
-4.313999
 20
-3.375736
 42
0.106795
 10
-4.459376
 20
-3.241751
 42
0.133753
 10
-4.612659
 20
-3.2
 42
0.133753
 10
-4.765943
 20
-3.241751
 42
0.106795
 10
-4.91132
 20
-3.375736
 42
0.0826
 10
-5.00107
 20
-3.562226
 42
0.071049
 10
-5.035029
 20
-3.8
 42
0.071049
 10
-5.00107
 20
-4.037774
 42
0.0826
 10
-4.91132
 20
-4.224264
 42
0.106795
 10
-4.765943
 20
-4.358249
 42
0.133753
  0
ARC
  5
E2
100
AcDbEntity
  8
0
100
AcDbCircle
 10
6.289014
 20
-5.399999
 30
0.0
 40
0.6
100
AcDbArc
 50
359.999912
 51
180.000088
  0
LINE
  5
E3
100
AcDbEntity
  8
0
100
AcDbLine
 10
6.889014
 20
4.600001
 30
0.0
 11
6.889014
 21
-5.4
 31
0.0
  0
LINE
  5
E4
100
AcDbEntity
  8
0
100
AcDbLine
 10
6.889014
 20
-5.4
 30
0.0
 11
25.0
 21
-5.4
 31
0.0
  0
ARC
  5
E5
100
AcDbEntity
  8
0
100
AcDbCircle
 10
6.289014
 20
4.6
 30
0.0
 40
0.6
100
AcDbArc
 50
326.44269
 51
0.000088
  0
LINE
  5
E6
100
AcDbEntity
  8
0
100
AcDbLine
 10
6.889014
 20
4.6
 30
0.0
 11
25.0
 21
4.6
 31
0.0
  0
LINE
  5
E7
100
AcDbEntity
  8
0
100
AcDbLine
 10
25.0
 20
-5.4
 30
0.0
 11
25.0
 21
4.6
 31
0.0
  0
LINE
  5
E8
100
AcDbEntity
  8
0
100
AcDbLine
 10
-5.678028
 20
-5.4
 30
0.0
 11
5.689014
 21
-5.4
 31
0.0
  0
ARC
  5
E9
100
AcDbEntity
  8
0
100
AcDbCircle
 10
0.0
 20
-0.5
 30
0.0
 40
7.5
100
AcDbArc
 50
39.478023
 51
220.793395
  0
ENDBLK
  5
EA
100
AcDbEntity
  8
0
100
AcDbBlockEnd
  0
BLOCK
  5
EB
100
AcDbEntity
  8
0
100
AcDbBlockBegin
  2
HF6
 70
     0
 10
0.0
 20
0.0
 30
0.0
  3
HF6
  1

  0
CIRCLE
  5
EC
100
AcDbEntity
  8
0
100
AcDbCircle
 10
4.4
 20
-3.8
 30
0.0
 40
0.6
  0
ARC
  5
ED
100
AcDbEntity
  8
0
100
AcDbCircle
 10
0.0
 20
-0.5
 30
0.0
 40
7.5
100
AcDbArc
 50
319.206605
 51
220.793395
  0
LINE
  5
EE
100
AcDbEntity
  8
0
100
AcDbLine
 10
-5.678028
 20
-5.4
 30
0.0
 11
5.678028
 21
-5.4
 31
0.0
  0
ENDBLK
  5
EF
100
AcDbEntity
  8
0
100
AcDbBlockEnd
  0
BLOCK
  5
F0
100
AcDbEntity
  8
0
100
AcDbBlockBegin
  2
HB6
 70
     0
 10
0.0
 20
0.0
 30
0.0
  3
HB6
  1

  0
LINE
  5
F1
100
AcDbEntity
  8
0
100
AcDbLine
 10
-3.92431
 20
-3.645992
 30
0.0
 11
-3.959758
 21
-3.452919
 31
0.0
  0
LINE
  5
F2
100
AcDbEntity
  8
0
100
AcDbLine
 10
-4.896284
 20
-3.860848
 30
0.0
 11
-5.286075
 21
-1.503362
 31
0.0
  0
ARC
  5
F3
100
AcDbEntity
  8
0
100
AcDbCircle
 10
-4.4
 20
-3.8
 30
0.0
 40
0.5
100
AcDbArc
 50
186.989942
 51
17.93976
  0
LINE
  5
F4
100
AcDbEntity
  8
0
100
AcDbLine
 10
5.577236
 20
-3.914748
 30
0.0
 11
4.721562
 21
-5.0116
 31
0.0
  0
LINE
  5
F5
100
AcDbEntity
  8
0
100
AcDbLine
 10
4.785819
 20
-3.303471
 30
0.0
 11
5.577236
 21
-3.914748
 31
0.0
  0
LINE
  5
F6
100
AcDbEntity
  8
0
100
AcDbLine
 10
4.006173
 20
-4.312874
 30
0.0
 11
4.785819
 21
-3.303471
 31
0.0
  0
ARC
  5
F7
100
AcDbEntity
  8
0
100
AcDbCircle
 10
3.934634
 20
-4.243001
 30
0.0
 40
1.1
100
AcDbArc
 50
193.406729
 51
315.675067
  0
ARC
  5
F8
100
AcDbEntity
  8
0
100
AcDbCircle
 10
3.934634
 20
-4.243001
 30
0.0
 40
0.1
100
AcDbArc
 50
135.674983
 51
315.675067
  0
ARC
  5
F9
100
AcDbEntity
  8
0
100
AcDbCircle
 10
0.0
 20
-0.4
 30
0.0
 40
5.4
100
AcDbArc
 50
315.675008
 51
191.790062
  0
ARC
  5
FA
100
AcDbEntity
  8
0
100
AcDbCircle
 10
-4.4
 20
-3.8
 30
0.0
 40
0.6
100
AcDbArc
 50
155.755556
 51
17.93976
  0
CIRCLE
  5
FB
100
AcDbEntity
  8
0
100
AcDbCircle
 10
0.0
 20
-0.4
 30
0.0
 40
2.5
  0
CIRCLE
  5
FC
100
AcDbEntity
  8
0
100
AcDbCircle
 10
0.0
 20
-0.4
 30
0.0
 40
3.0
  0
CIRCLE
  5
FD
100
AcDbEntity
  8
0
100
AcDbCircle
 10
0.0
 20
-0.4
 30
0.0
 40
5.0
  0
LINE
  5
FE
100
AcDbEntity
  8
0
100
AcDbLine
 10
-5.678028
 20
-5.4
 30
0.0
 11
5.678028
 21
-5.4
 31
0.0
  0
ARC
  5
FF
100
AcDbEntity
  8
0
100
AcDbCircle
 10
0.0
 20
-0.5
 30
0.0
 40
7.5
100
AcDbArc
 50
319.206605
 51
220.793395
  0
ENDBLK
  5
100
100
AcDbEntity
  8
0
100
AcDbBlockEnd
  0
BLOCK
  5
101
100
AcDbEntity
  8
0
100
AcDbBlockBegin
  2
K8
 70
     0
 10
0.0
 20
0.0
 30
0.0
  3
K8
  1

  0
ARC
  5
102
100
AcDbEntity
  8
0
100
AcDbCircle
 10
5.291095
 20
-8.75
 30
0.0
 40
1.5
100
AcDbArc
 50
188.56089
 51
270.0
  0
ARC
  5
103
100
AcDbEntity
  8
0
100
AcDbCircle
 10
-5.291095
 20
-8.75
 30
0.0
 40
1.5
100
AcDbArc
 50
270.0
 51
351.43911
  0
LINE
  5
104
100
AcDbEntity
  8
0
100
AcDbLine
 10
3.4
 20
-29.05
 30
0.0
 11
4.0
 21
-28.45
 31
0.0
  0
LINE
  5
105
100
AcDbEntity
  8
0
100
AcDbLine
 10
-3.4
 20
-29.05
 30
0.0
 11
-4.0
 21
-28.45
 31
0.0
  0
LINE
  5
106
100
AcDbEntity
  8
0
100
AcDbLine
 10
-3.4
 20
-15.55
 30
0.0
 11
-4.0
 21
-14.95
 31
0.0
  0
LINE
  5
107
100
AcDbEntity
  8
0
100
AcDbLine
 10
3.4
 20
-15.55
 30
0.0
 11
4.0
 21
-14.95
 31
0.0
  0
LINE
  5
108
100
AcDbEntity
  8
0
100
AcDbLine
 10
3.4
 20
-15.55
 30
0.0
 11
-3.4
 21
-15.55
 31
0.0
  0
LINE
  5
109
100
AcDbEntity
  8
0
100
AcDbLine
 10
3.4
 20
-15.55
 30
0.0
 11
3.4
 21
-29.05
 31
0.0
  0
LINE
  5
10A
100
AcDbEntity
  8
0
100
AcDbLine
 10
-3.4
 20
-15.55
 30
0.0
 11
-3.4
 21
-29.05
 31
0.0
  0
LINE
  5
10B
100
AcDbEntity
  8
0
100
AcDbLine
 10
3.807807
 20
-8.973291
 30
0.0
 11
3.54086
 21
-7.2
 31
0.0
  0
LINE
  5
10C
100
AcDbEntity
  8
0
100
AcDbLine
 10
-3.807807
 20
-8.973291
 30
0.0
 11
-3.54086
 21
-7.2
 31
0.0
  0
LINE
  5
10D
100
AcDbEntity
  8
0
100
AcDbLine
 10
6.5
 20
-10.25
 30
0.0
 11
6.5
 21
-13.05
 31
0.0
  0
LINE
  5
10E
100
AcDbEntity
  8
0
100
AcDbLine
 10
-6.5
 20
-10.25
 30
0.0
 11
-6.5
 21
-13.05
 31
0.0
  0
LINE
  5
10F
100
AcDbEntity
  8
0
100
AcDbLine
 10
6.5
 20
-10.25
 30
0.0
 11
-6.5
 21
-10.25
 31
0.0
  0
LINE
  5
110
100
AcDbEntity
  8
0
100
AcDbLine
 10
6.5
 20
-13.05
 30
0.0
 11
-6.5
 21
-13.05
 31
0.0
  0
LINE
  5
111
100
AcDbEntity
  8
0
100
AcDbLine
 10
4.0
 20
-13.05
 30
0.0
 11
4.0
 21
-28.45
 31
0.0
  0
LINE
  5
112
100
AcDbEntity
  8
0
100
AcDbLine
 10
-4.0
 20
-13.05
 30
0.0
 11
-4.0
 21
-28.45
 31
0.0
  0
LINE
  5
113
100
AcDbEntity
  8
0
100
AcDbLine
 10
3.4
 20
-29.05
 30
0.0
 11
-3.4
 21
-29.05
 31
0.0
  0
ENDBLK
  5
114
100
AcDbEntity
  8
0
100
AcDbBlockEnd
  0
BLOCK
  5
115
100
AcDbEntity
  8
0
100
AcDbBlockBegin
  2
H8
 70
     0
 10
0.0
 20
0.0
 30
0.0
  3
H8
  1

  0
LWPOLYLINE
  5
116
100
AcDbEntity
  8
0
100
AcDbPolyline
 90
       11
 70
     0
 43
0.0
 10
6.44094
 20
-4.7
 42
0.039837
 10
6.361381
 20
-4.65064
 42
0.11948
 10
6.152488
 20
-4.6
 42
0.11948
 10
5.943596
 20
-4.65064
 42
0.104852
 10
5.75447
 20
-4.805025
 42
0.089167
 10
5.634084
 20
-5.025715
 42
0.080553
 10
5.589606
 20
-5.3
 42
0.080553
 10
5.634084
 20
-5.574285
 42
0.089167
 10
5.75447
 20
-5.794975
 42
0.104852
 10
5.943596
 20
-5.94936
 42
0.11948
 10
6.152488
 20
-6.0
 42
0.11948
  0
LWPOLYLINE
  5
123
100
AcDbEntity
  8
0
100
AcDbPolyline
 90
        3
 70
     0
 43
0.0
 10
6.152488
 20
-6.0
 42
0.11948
 10
6.361381
 20
-5.94936
 42
0.039837
 10
6.44094
 20
-5.9
 42
0.089167
  0
ARC
  5
128
100
AcDbEntity
  8
0
100
AcDbCircle
 10
6.447734
 20
-3.7
 30
0.0
 40
2.2
100
AcDbArc
 50
270.0
 51
0.0
  0
ARC
  5
129
100
AcDbEntity
  8
0
100
AcDbCircle
 10
6.447734
 20
-3.7
 30
0.0
 40
1.0
100
AcDbArc
 50
270.0
 51
0.0
  0
LINE
  5
12A
100
AcDbEntity
  8
0
100
AcDbLine
 10
8.647734
 20
5.7
 30
0.0
 11
8.647734
 21
-3.700001
 31
0.0
  0
LINE
  5
12B
100
AcDbEntity
  8
0
100
AcDbLine
 10
7.447734
 20
5.7
 30
0.0
 11
7.447734
 21
-3.7
 31
0.0
  0
LINE
  5
12C
100
AcDbEntity
  8
0
100
AcDbLine
 10
5.864037
 20
-5.9
 30
0.0
 11
6.447734
 21
-5.9
 31
0.0
  0
LINE
  5
12D
100
AcDbEntity
  8
0
100
AcDbLine
 10
5.864037
 20
-4.7
 30
0.0
 11
6.447734
 21
-4.7
 31
0.0
  0
LWPOLYLINE
  5
12E
100
AcDbEntity
  8
0
100
AcDbPolyline
 90
       16
 70
     1
 43
0.0
 10
-6.152488
 20
-6.0
 42
-0.11948
 10
-6.361381
 20
-5.94936
 42
-0.104852
 10
-6.550506
 20
-5.794975
 42
-0.089167
 10
-6.670893
 20
-5.574285
 42
-0.080553
 10
-6.71537
 20
-5.3
 42
-0.080553
 10
-6.670893
 20
-5.025715
 42
-0.089167
 10
-6.550506
 20
-4.805025
 42
-0.104852
 10
-6.361381
 20
-4.65064
 42
-0.11948
 10
-6.152488
 20
-4.6
 42
-0.11948
 10
-5.943596
 20
-4.65064
 42
-0.104852
 10
-5.75447
 20
-4.805025
 42
-0.089167
 10
-5.634084
 20
-5.025715
 42
-0.080553
 10
-5.589606
 20
-5.3
 42
-0.080553
 10
-5.634084
 20
-5.574285
 42
-0.089167
 10
-5.75447
 20
-5.794975
 42
-0.104852
 10
-5.943596
 20
-5.94936
 42
-0.11948
  0
LINE
  5
140
100
AcDbEntity
  8
0
100
AcDbLine
 10
8.747734
 20
-7.2
 30
0.0
 11
29.85
 21
-7.2
 31
0.0
  0
ARC
  5
141
100
AcDbEntity
  8
0
100
AcDbCircle
 10
8.047734
 20
5.7
 30
0.0
 40
0.6
100
AcDbArc
 50
0.0
 51
179.999974
  0
LINE
  5
142
100
AcDbEntity
  8
0
100
AcDbLine
 10
-7.132496
 20
-7.2
 30
0.0
 11
7.347734
 21
-7.2
 31
0.0
  0
LINE
  5
143
100
AcDbEntity
  8
0
100
AcDbLine
 10
8.747734
 20
5.8
 30
0.0
 11
8.747734
 21
-7.2
 31
0.0
  0
ARC
  5
144
100
AcDbEntity
  8
0
100
AcDbCircle
 10
8.047734
 20
-7.2
 30
0.0
 40
0.7
100
AcDbArc
 50
0.0
 51
180.0
  0
ARC
  5
145
100
AcDbEntity
  8
0
100
AcDbCircle
 10
0.0
 20
-0.7
 30
0.0
 40
9.65
100
AcDbArc
 50
39.485462
 51
222.343598
  0
ARC
  5
146
100
AcDbEntity
  8
0
100
AcDbCircle
 10
8.047734
 20
5.8
 30
0.0
 40
0.7
100
AcDbArc
 50
328.997281
 51
0.0
  0
LINE
  5
147
100
AcDbEntity
  8
0
100
AcDbLine
 10
8.747734
 20
5.8
 30
0.0
 11
29.85
 21
5.8
 31
0.0
  0
LINE
  5
148
100
AcDbEntity
  8
0
100
AcDbLine
 10
29.85
 20
-7.2
 30
0.0
 11
29.85
 21
5.8
 31
0.0
  0
ENDBLK
  5
149
100
AcDbEntity
  8
0
100
AcDbBlockEnd
  0
BLOCK
  5
14A
100
AcDbEntity
  8
0
100
AcDbBlockBegin
  2
HF8
 70
     0
 10
0.0
 20
0.0
 30
0.0
  3
HF8
  1

  0
CIRCLE
  5
14B
100
AcDbEntity
  8
0
100
AcDbCircle
 10
5.8
 20
-5.3
 30
0.0
 40
0.7
  0
ARC
  5
14C
100
AcDbEntity
  8
0
100
AcDbCircle
 10
0.0
 20
-0.7
 30
0.0
 40
9.65
100
AcDbArc
 50
317.656402
 51
222.343598
  0
LINE
  5
14D
100
AcDbEntity
  8
0
100
AcDbLine
 10
-7.132496
 20
-7.2
 30
0.0
 11
7.132496
 21
-7.2
 31
0.0
  0
ENDBLK
  5
14E
100
AcDbEntity
  8
0
100
AcDbBlockEnd
  0
BLOCK
  5
14F
100
AcDbEntity
  8
0
100
AcDbBlockBegin
  2
HB8
 70
     0
 10
0.0
 20
0.0
 30
0.0
  3
HB8
  1

  0
LINE
  5
150
100
AcDbEntity
  8
0
100
AcDbLine
 10
7.146727
 20
-5.086841
 30
0.0
 11
5.888421
 21
-6.690534
 31
0.0
  0
LINE
  5
151
100
AcDbEntity
  8
0
100
AcDbLine
 10
6.198754
 20
-4.351078
 30
0.0
 11
7.146727
 21
-5.086841
 31
0.0
  0
LINE
  5
152
100
AcDbEntity
  8
0
100
AcDbLine
 10
5.047218
 20
-5.834743
 30
0.0
 11
6.198754
 21
-4.351078
 31
0.0
  0
ARC
  5
153
100
AcDbEntity
  8
0
100
AcDbCircle
 10
4.977118
 20
-5.763427
 30
0.0
 40
1.3
100
AcDbArc
 50
192.259414
 51
314.507492
  0
ARC
  5
154
100
AcDbEntity
  8
0
100
AcDbCircle
 10
4.977118
 20
-5.763427
 30
0.0
 40
0.1
100
AcDbArc
 50
134.507492
 51
314.507492
  0
LINE
  5
155
100
AcDbEntity
  8
0
100
AcDbLine
 10
-5.306043
 20
-4.454451
 30
0.0
 11
-5.205123
 21
-5.221759
 31
0.0
  0
LINE
  5
156
100
AcDbEntity
  8
0
100
AcDbLine
 10
-6.782422
 20
-2.431691
 30
0.0
 11
-6.394877
 21
-5.378241
 31
0.0
  0
ARC
  5
157
100
AcDbEntity
  8
0
100
AcDbCircle
 10
0.0
 20
-0.7
 30
0.0
 40
7.0
100
AcDbArc
 50
314.507492
 51
194.322791
  0
ARC
  5
158
100
AcDbEntity
  8
0
100
AcDbCircle
 10
-5.8
 20
-5.3
 30
0.0
 40
0.6
100
AcDbArc
 50
187.492821
 51
7.492821
  0
CIRCLE
  5
159
100
AcDbEntity
  8
0
100
AcDbCircle
 10
0.0
 20
-0.7
 30
0.0
 40
3.4
  0
CIRCLE
  5
15A
100
AcDbEntity
  8
0
100
AcDbCircle
 10
0.0
 20
-0.7
 30
0.0
 40
4.0
  0
CIRCLE
  5
15B
100
AcDbEntity
  8
0
100
AcDbCircle
 10
0.0
 20
-0.7
 30
0.0
 40
6.5
  0
ARC
  5
15C
100
AcDbEntity
  8
0
100
AcDbCircle
 10
-5.8
 20
-5.3
 30
0.0
 40
0.7
100
AcDbArc
 50
156.490102
 51
38.49554
  0
LINE
  5
15D
100
AcDbEntity
  8
0
100
AcDbLine
 10
-7.132496
 20
-7.2
 30
0.0
 11
7.132496
 21
-7.2
 31
0.0
  0
ARC
  5
15E
100
AcDbEntity
  8
0
100
AcDbCircle
 10
0.0
 20
-0.7
 30
0.0
 40
9.65
100
AcDbArc
 50
317.656402
 51
222.343598
  0
ENDBLK
  5
15F
100
AcDbEntity
  8
0
100
AcDbBlockEnd
  0
BLOCK
  5
160
100
AcDbEntity
  8
0
100
AcDbBlockBegin
  2
K10
 70
     0
 10
0.0
 20
0.0
 30
0.0
  3
K10
  1

  0
ARC
  5
161
100
AcDbEntity
  8
0
100
AcDbCircle
 10
6.733599
 20
-11.9
 30
0.0
 40
2.0
100
AcDbArc
 50
188.162549
 51
270.0
  0
ARC
  5
162
100
AcDbEntity
  8
0
100
AcDbCircle
 10
-6.733599
 20
-11.9
 30
0.0
 40
2.0
100
AcDbArc
 50
270.0
 51
351.837451
  0
LINE
  5
163
100
AcDbEntity
  8
0
100
AcDbLine
 10
4.0
 20
-36.9
 30
0.0
 11
5.0
 21
-35.9
 31
0.0
  0
LINE
  5
164
100
AcDbEntity
  8
0
100
AcDbLine
 10
-4.0
 20
-36.9
 30
0.0
 11
-5.0
 21
-35.9
 31
0.0
  0
LINE
  5
165
100
AcDbEntity
  8
0
100
AcDbLine
 10
-4.0
 20
-20.4
 30
0.0
 11
-5.0
 21
-19.4
 31
0.0
  0
LINE
  5
166
100
AcDbEntity
  8
0
100
AcDbLine
 10
4.0
 20
-20.4
 30
0.0
 11
5.0
 21
-19.4
 31
0.0
  0
LINE
  5
167
100
AcDbEntity
  8
0
100
AcDbLine
 10
4.0
 20
-20.4
 30
0.0
 11
-4.0
 21
-20.4
 31
0.0
  0
LINE
  5
168
100
AcDbEntity
  8
0
100
AcDbLine
 10
4.354542
 20
-9.4
 30
0.0
 11
4.75386
 21
-12.183964
 31
0.0
  0
LINE
  5
169
100
AcDbEntity
  8
0
100
AcDbLine
 10
-4.75386
 20
-12.183964
 30
0.0
 11
-4.354542
 21
-9.4
 31
0.0
  0
LINE
  5
16A
100
AcDbEntity
  8
0
100
AcDbLine
 10
4.0
 20
-20.4
 30
0.0
 11
4.0
 21
-36.9
 31
0.0
  0
LINE
  5
16B
100
AcDbEntity
  8
0
100
AcDbLine
 10
-4.0
 20
-20.4
 30
0.0
 11
-4.0
 21
-36.9
 31
0.0
  0
LINE
  5
16C
100
AcDbEntity
  8
0
100
AcDbLine
 10
8.0
 20
-13.9
 30
0.0
 11
8.0
 21
-16.9
 31
0.0
  0
LINE
  5
16D
100
AcDbEntity
  8
0
100
AcDbLine
 10
-8.0
 20
-13.9
 30
0.0
 11
-8.0
 21
-16.9
 31
0.0
  0
LINE
  5
16E
100
AcDbEntity
  8
0
100
AcDbLine
 10
8.0
 20
-13.9
 30
0.0
 11
-8.0
 21
-13.9
 31
0.0
  0
LINE
  5
16F
100
AcDbEntity
  8
0
100
AcDbLine
 10
5.0
 20
-16.9
 30
0.0
 11
5.0
 21
-35.9
 31
0.0
  0
LINE
  5
170
100
AcDbEntity
  8
0
100
AcDbLine
 10
-5.0
 20
-16.9
 30
0.0
 11
-5.0
 21
-35.9
 31
0.0
  0
LINE
  5
171
100
AcDbEntity
  8
0
100
AcDbLine
 10
8.0
 20
-16.9
 30
0.0
 11
-8.0
 21
-16.9
 31
0.0
  0
LINE
  5
172
100
AcDbEntity
  8
0
100
AcDbLine
 10
4.0
 20
-36.9
 30
0.0
 11
-4.0
 21
-36.9
 31
0.0
  0
ENDBLK
  5
173
100
AcDbEntity
  8
0
100
AcDbBlockEnd
  0
BLOCK
  5
174
100
AcDbEntity
  8
0
100
AcDbBlockBegin
  2
H10
 70
     0
 10
0.0
 20
0.0
 30
0.0
  3
H10
  1

  0
ARC
  5
175
100
AcDbEntity
  8
0
100
AcDbCircle
 10
10.055487
 20
6.5
 30
0.0
 40
0.75
100
AcDbArc
 50
0.0
 51
180.0
  0
LINE
  5
176
100
AcDbEntity
  8
0
100
AcDbLine
 10
10.905487
 20
-9.4
 30
0.0
 11
35.0
 21
-9.4
 31
0.0
  0
ARC
  5
177
100
AcDbEntity
  8
0
100
AcDbCircle
 10
10.055487
 20
-9.4
 30
0.0
 40
0.85
100
AcDbArc
 50
360.0
 51
180.0
  0
LWPOLYLINE
  5
178
100
AcDbEntity
  8
0
100
AcDbPolyline
 90
       11
 70
     0
 43
0.0
 10
7.959789
 20
-5.8
 42
0.027767
 10
7.898247
 20
-5.75926
 42
0.133087
 10
7.679555
 20
-5.7
 42
0.133087
 10
7.460863
 20
-5.75926
 42
0.106743
 10
7.253905
 20
-5.948959
 42
0.082905
 10
7.125958
 20
-6.213309
 42
0.071455
 10
7.077594
 20
-6.55
 42
0.071455
 10
7.125958
 20
-6.886691
 42
0.082905
 10
7.253905
 20
-7.151041
 42
0.106743
 10
7.460863
 20
-7.34074
 42
0.133087
 10
7.679555
 20
-7.4
 42
0.133087
  0
LWPOLYLINE
  5
185
100
AcDbEntity
  8
0
100
AcDbPolyline
 90
        3
 70
     0
 43
0.0
 10
7.679555
 20
-7.4
 42
0.133087
 10
7.898247
 20
-7.34074
 42
0.027767
 10
7.959789
 20
-7.3
 42
0.082905
  0
ARC
  5
18A
100
AcDbEntity
  8
0
100
AcDbCircle
 10
8.305487
 20
-4.8
 30
0.0
 40
2.5
100
AcDbArc
 50
270.0
 51
0.0
  0
ARC
  5
18B
100
AcDbEntity
  8
0
100
AcDbCircle
 10
8.305487
 20
-4.8
 30
0.0
 40
1.0
100
AcDbArc
 50
270.0
 51
0.0
  0
LINE
  5
18C
100
AcDbEntity
  8
0
100
AcDbLine
 10
7.39932
 20
-7.3
 30
0.0
 11
8.305487
 21
-7.3
 31
0.0
  0
LINE
  5
18D
100
AcDbEntity
  8
0
100
AcDbLine
 10
7.39932
 20
-5.8
 30
0.0
 11
8.305487
 21
-5.8
 31
0.0
  0
LWPOLYLINE
  5
18E
100
AcDbEntity
  8
0
100
AcDbPolyline
 90
       16
 70
     1
 43
0.0
 10
-7.679555
 20
-7.4
 42
-0.133087
 10
-7.898247
 20
-7.34074
 42
-0.106743
 10
-8.105205
 20
-7.151041
 42
-0.082905
 10
-8.233151
 20
-6.886691
 42
-0.071455
 10
-8.281515
 20
-6.55
 42
-0.071455
 10
-8.233151
 20
-6.213309
 42
-0.082905
 10
-8.105205
 20
-5.948959
 42
-0.106743
 10
-7.898247
 20
-5.75926
 42
-0.133087
 10
-7.679555
 20
-5.7
 42
-0.133087
 10
-7.460863
 20
-5.75926
 42
-0.106743
 10
-7.253905
 20
-5.948959
 42
-0.082905
 10
-7.125958
 20
-6.213309
 42
-0.071455
 10
-7.077594
 20
-6.55
 42
-0.071455
 10
-7.125958
 20
-6.886691
 42
-0.082905
 10
-7.253905
 20
-7.151041
 42
-0.106743
 10
-7.460863
 20
-7.34074
 42
-0.133087
  0
LINE
  5
1A0
100
AcDbEntity
  8
0
100
AcDbLine
 10
10.805487
 20
6.5
 30
0.0
 11
10.805487
 21
-4.8
 31
0.0
  0
LINE
  5
1A1
100
AcDbEntity
  8
0
100
AcDbLine
 10
9.305487
 20
6.5
 30
0.0
 11
9.305487
 21
-4.8
 31
0.0
  0
LINE
  5
1A2
100
AcDbEntity
  8
0
100
AcDbLine
 10
10.905487
 20
6.6
 30
0.0
 11
10.905487
 21
-9.4
 31
0.0
  0
ARC
  5
1A3
100
AcDbEntity
  8
0
100
AcDbCircle
 10
10.055487
 20
6.6
 30
0.0
 40
0.85
100
AcDbArc
 50
331.927513
 51
0.0
  0
LINE
  5
1A4
100
AcDbEntity
  8
0
100
AcDbLine
 10
35.0
 20
6.6
 30
0.0
 11
35.0
 21
-9.4
 31
0.0
  0
LINE
  5
1A5
100
AcDbEntity
  8
0
100
AcDbLine
 10
-8.944272
 20
-9.4
 30
0.0
 11
9.205487
 21
-9.4
 31
0.0
  0
LINE
  5
1A6
100
AcDbEntity
  8
0
100
AcDbLine
 10
10.905487
 20
6.6
 30
0.0
 11
35.0
 21
6.6
 31
0.0
  0
ARC
  5
1A7
100
AcDbEntity
  8
0
100
AcDbCircle
 10
0.0
 20
-1.4
 30
0.0
 40
12.0
100
AcDbArc
 50
39.153496
 51
221.810315
  0
ENDBLK
  5
1A8
100
AcDbEntity
  8
0
100
AcDbBlockEnd
  0
BLOCK
  5
1A9
100
AcDbEntity
  8
0
100
AcDbBlockBegin
  2
HF10
 70
     0
 10
0.0
 20
0.0
 30
0.0
  3
HF10
  1

  0
CIRCLE
  5
1AA
100
AcDbEntity
  8
0
100
AcDbCircle
 10
7.15
 20
-6.55
 30
0.0
 40
0.85
  0
ARC
  5
1AB
100
AcDbEntity
  8
0
100
AcDbCircle
 10
0.0
 20
-1.4
 30
0.0
 40
12.0
100
AcDbArc
 50
318.189685
 51
221.810315
  0
LINE
  5
1AC
100
AcDbEntity
  8
0
100
AcDbLine
 10
-8.944272
 20
-9.4
 30
0.0
 11
8.944272
 21
-9.4
 31
0.0
  0
ENDBLK
  5
1AD
100
AcDbEntity
  8
0
100
AcDbBlockEnd
  0
BLOCK
  5
1AE
100
AcDbEntity
  8
0
100
AcDbBlockBegin
  2
HB10
 70
     0
 10
0.0
 20
0.0
 30
0.0
  3
HB10
  1

  0
LINE
  5
1AF
100
AcDbEntity
  8
0
100
AcDbLine
 10
9.00768
 20
-6.478055
 30
0.0
 11
7.664106
 21
-8.355859
 31
0.0
  0
LINE
  5
1B0
100
AcDbEntity
  8
0
100
AcDbLine
 10
7.783673
 20
-5.610987
 30
0.0
 11
9.00768
 21
-6.478055
 31
0.0
  0
LINE
  5
1B1
100
AcDbEntity
  8
0
100
AcDbLine
 10
6.553366
 20
-7.347764
 30
0.0
 11
7.783673
 21
-5.610987
 31
0.0
  0
ARC
  5
1B2
100
AcDbEntity
  8
0
100
AcDbCircle
 10
6.479317
 20
-7.280557
 30
0.0
 40
1.6
100
AcDbArc
 50
195.08374
 51
317.773457
  0
ARC
  5
1B3
100
AcDbEntity
  8
0
100
AcDbCircle
 10
6.479317
 20
-7.280557
 30
0.0
 40
0.1
100
AcDbArc
 50
137.773457
 51
317.773457
  0
LINE
  5
1B4
100
AcDbEntity
  8
0
100
AcDbLine
 10
-6.408472
 20
-6.437586
 30
0.0
 11
-6.471632
 21
-6.102976
 31
0.0
  0
LINE
  5
1B5
100
AcDbEntity
  8
0
100
AcDbLine
 10
-8.429253
 20
-3.3417
 30
0.0
 11
-7.890358
 21
-6.669878
 31
0.0
  0
ARC
  5
1B6
100
AcDbEntity
  8
0
100
AcDbCircle
 10
-7.15
 20
-6.55
 30
0.0
 40
0.75
100
AcDbArc
 50
189.19745
 51
8.620256
  0
ARC
  5
1B7
100
AcDbEntity
  8
0
100
AcDbCircle
 10
0.0
 20
-1.4
 30
0.0
 40
8.65
100
AcDbArc
 50
317.773457
 51
192.971948
  0
CIRCLE
  5
1B8
100
AcDbEntity
  8
0
100
AcDbCircle
 10
0.0
 20
-1.4
 30
0.0
 40
4.25
  0
CIRCLE
  5
1B9
100
AcDbEntity
  8
0
100
AcDbCircle
 10
0.0
 20
-1.4
 30
0.0
 40
5.0
  0
CIRCLE
  5
1BA
100
AcDbEntity
  8
0
100
AcDbCircle
 10
0.0
 20
-1.4
 30
0.0
 40
8.0
  0
ARC
  5
1BB
100
AcDbEntity
  8
0
100
AcDbCircle
 10
-7.15
 20
-6.55
 30
0.0
 40
0.85
100
AcDbArc
 50
161.124963
 51
19.326281
  0
LINE
  5
1BC
100
AcDbEntity
  8
0
100
AcDbLine
 10
-8.944272
 20
-9.4
 30
0.0
 11
8.944272
 21
-9.4
 31
0.0
  0
ARC
  5
1BD
100
AcDbEntity
  8
0
100
AcDbCircle
 10
0.0
 20
-1.4
 30
0.0
 40
12.0
100
AcDbArc
 50
318.189685
 51
221.810315
  0
ENDBLK
  5
1BE
100
AcDbEntity
  8
0
100
AcDbBlockEnd
  0
BLOCK
  5
1BF
100
AcDbEntity
  8
0
100
AcDbBlockBegin
  2
K12
 70
     0
 10
0.0
 20
0.0
 30
0.0
  3
K12
  1

  0
LINE
  5
1C0
100
AcDbEntity
  8
0
100
AcDbLine
 10
5.1
 20
-36.9
 30
0.0
 11
-5.1
 21
-36.9
 31
0.0
  0
LINE
  5
1C1
100
AcDbEntity
  8
0
100
AcDbLine
 10
8.0
 20
-16.9
 30
0.0
 11
-8.0
 21
-16.9
 31
0.0
  0
LINE
  5
1C2
100
AcDbEntity
  8
0
100
AcDbLine
 10
-6.0
 20
-16.9
 30
0.0
 11
-6.0
 21
-35.9
 31
0.0
  0
LINE
  5
1C3
100
AcDbEntity
  8
0
100
AcDbLine
 10
6.0
 20
-16.9
 30
0.0
 11
6.0
 21
-35.9
 31
0.0
  0
LINE
  5
1C4
100
AcDbEntity
  8
0
100
AcDbLine
 10
8.0
 20
-13.9
 30
0.0
 11
-8.0
 21
-13.9
 31
0.0
  0
LINE
  5
1C5
100
AcDbEntity
  8
0
100
AcDbLine
 10
-8.0
 20
-13.9
 30
0.0
 11
-8.0
 21
-16.9
 31
0.0
  0
LINE
  5
1C6
100
AcDbEntity
  8
0
100
AcDbLine
 10
8.0
 20
-13.9
 30
0.0
 11
8.0
 21
-16.9
 31
0.0
  0
LINE
  5
1C7
100
AcDbEntity
  8
0
100
AcDbLine
 10
-5.1
 20
-20.4
 30
0.0
 11
-5.1
 21
-36.9
 31
0.0
  0
LINE
  5
1C8
100
AcDbEntity
  8
0
100
AcDbLine
 10
5.1
 20
-20.4
 30
0.0
 11
5.1
 21
-36.9
 31
0.0
  0
LINE
  5
1C9
100
AcDbEntity
  8
0
100
AcDbLine
 10
-4.75386
 20
-12.183964
 30
0.0
 11
-4.354542
 21
-9.4
 31
0.0
  0
LINE
  5
1CA
100
AcDbEntity
  8
0
100
AcDbLine
 10
4.354542
 20
-9.4
 30
0.0
 11
4.75386
 21
-12.183964
 31
0.0
  0
LINE
  5
1CB
100
AcDbEntity
  8
0
100
AcDbLine
 10
5.1
 20
-20.4
 30
0.0
 11
-5.1
 21
-20.4
 31
0.0
  0
LINE
  5
1CC
100
AcDbEntity
  8
0
100
AcDbLine
 10
5.1
 20
-20.4
 30
0.0
 11
6.0
 21
-19.4
 31
0.0
  0
LINE
  5
1CD
100
AcDbEntity
  8
0
100
AcDbLine
 10
-5.1
 20
-20.4
 30
0.0
 11
-6.0
 21
-19.4
 31
0.0
  0
LINE
  5
1CE
100
AcDbEntity
  8
0
100
AcDbLine
 10
-5.1
 20
-36.9
 30
0.0
 11
-6.0
 21
-35.9
 31
0.0
  0
LINE
  5
1CF
100
AcDbEntity
  8
0
100
AcDbLine
 10
5.1
 20
-36.9
 30
0.0
 11
6.0
 21
-35.9
 31
0.0
  0
ARC
  5
1D0
100
AcDbEntity
  8
0
100
AcDbCircle
 10
-6.733599
 20
-11.9
 30
0.0
 40
2.0
100
AcDbArc
 50
270.0
 51
351.837451
  0
ARC
  5
1D1
100
AcDbEntity
  8
0
100
AcDbCircle
 10
6.733599
 20
-11.9
 30
0.0
 40
2.0
100
AcDbArc
 50
188.162549
 51
270.0
  0
ENDBLK
  5
1D2
100
AcDbEntity
  8
0
100
AcDbBlockEnd
  0
BLOCK
  5
1D3
100
AcDbEntity
  8
0
100
AcDbBlockBegin
  2
HB12
 70
     0
 10
0.0
 20
0.0
 30
0.0
  3
HB12
  1

  0
CIRCLE
  5
1D4
100
AcDbEntity
  8
0
100
AcDbCircle
 10
0.0
 20
-1.4
 30
0.0
 40
5.1
  0
CIRCLE
  5
1D5
100
AcDbEntity
  8
0
100
AcDbCircle
 10
0.0
 20
-1.4
 30
0.0
 40
6.0
  0
ARC
  5
1D6
100
AcDbEntity
  8
0
100
AcDbCircle
 10
0.0
 20
-1.4
 30
0.0
 40
12.0
100
AcDbArc
 50
318.189685
 51
221.810315
  0
LINE
  5
1D7
100
AcDbEntity
  8
0
100
AcDbLine
 10
-8.944272
 20
-9.4
 30
0.0
 11
8.944272
 21
-9.4
 31
0.0
  0
ARC
  5
1D8
100
AcDbEntity
  8
0
100
AcDbCircle
 10
-7.15
 20
-6.55
 30
0.0
 40
0.85
100
AcDbArc
 50
161.124963
 51
19.326281
  0
CIRCLE
  5
1D9
100
AcDbEntity
  8
0
100
AcDbCircle
 10
0.0
 20
-1.4
 30
0.0
 40
8.0
  0
ARC
  5
1DA
100
AcDbEntity
  8
0
100
AcDbCircle
 10
0.0
 20
-1.4
 30
0.0
 40
8.65
100
AcDbArc
 50
317.773457
 51
192.971948
  0
ARC
  5
1DB
100
AcDbEntity
  8
0
100
AcDbCircle
 10
-7.15
 20
-6.55
 30
0.0
 40
0.75
100
AcDbArc
 50
189.19745
 51
8.620256
  0
LINE
  5
1DC
100
AcDbEntity
  8
0
100
AcDbLine
 10
-8.429253
 20
-3.3417
 30
0.0
 11
-7.890358
 21
-6.669878
 31
0.0
  0
LINE
  5
1DD
100
AcDbEntity
  8
0
100
AcDbLine
 10
-6.408472
 20
-6.437586
 30
0.0
 11
-6.471632
 21
-6.102976
 31
0.0
  0
ARC
  5
1DE
100
AcDbEntity
  8
0
100
AcDbCircle
 10
6.479317
 20
-7.280557
 30
0.0
 40
0.1
100
AcDbArc
 50
137.773457
 51
317.773457
  0
ARC
  5
1DF
100
AcDbEntity
  8
0
100
AcDbCircle
 10
6.479317
 20
-7.280557
 30
0.0
 40
1.6
100
AcDbArc
 50
195.08374
 51
317.773457
  0
LINE
  5
1E0
100
AcDbEntity
  8
0
100
AcDbLine
 10
6.553366
 20
-7.347764
 30
0.0
 11
7.783673
 21
-5.610987
 31
0.0
  0
LINE
  5
1E1
100
AcDbEntity
  8
0
100
AcDbLine
 10
7.783673
 20
-5.610987
 30
0.0
 11
9.00768
 21
-6.478055
 31
0.0
  0
LINE
  5
1E2
100
AcDbEntity
  8
0
100
AcDbLine
 10
9.00768
 20
-6.478055
 30
0.0
 11
7.664106
 21
-8.355859
 31
0.0
  0
ENDBLK
  5
1E3
100
AcDbEntity
  8
0
100
AcDbBlockEnd
  0
BLOCK
  5
1E4
100
AcDbEntity
  8
0
100
AcDbBlockBegin
  2
K14
 70
     0
 10
0.0
 20
0.0
 30
0.0
  3
K14
  1

  0
LINE
  5
1E5
100
AcDbEntity
  8
0
100
AcDbLine
 10
6.0
 20
-47.5
 30
0.0
 11
7.0
 21
-46.5
 31
0.0
  0
LINE
  5
1E6
100
AcDbEntity
  8
0
100
AcDbLine
 10
-6.0
 20
-47.5
 30
0.0
 11
-7.0
 21
-46.5
 31
0.0
  0
LINE
  5
1E7
100
AcDbEntity
  8
0
100
AcDbLine
 10
6.0
 20
-26.5
 30
0.0
 11
7.0
 21
-25.5
 31
0.0
  0
LINE
  5
1E8
100
AcDbEntity
  8
0
100
AcDbLine
 10
-6.0
 20
-26.5
 30
0.0
 11
-7.0
 21
-25.5
 31
0.0
  0
LINE
  5
1E9
100
AcDbEntity
  8
0
100
AcDbLine
 10
-6.0
 20
-26.5
 30
0.0
 11
6.0
 21
-26.5
 31
0.0
  0
LINE
  5
1EA
100
AcDbEntity
  8
0
100
AcDbLine
 10
6.0
 20
-26.5
 30
0.0
 11
6.0
 21
-47.5
 31
0.0
  0
LINE
  5
1EB
100
AcDbEntity
  8
0
100
AcDbLine
 10
-6.0
 20
-26.5
 30
0.0
 11
-6.0
 21
-47.5
 31
0.0
  0
LINE
  5
1EC
100
AcDbEntity
  8
0
100
AcDbLine
 10
9.5
 20
-16.2
 30
0.0
 11
-9.5
 21
-16.2
 31
0.0
  0
ARC
  5
1ED
100
AcDbEntity
  8
0
100
AcDbCircle
 10
8.464736
 20
-14.131892
 30
0.0
 40
2.112325
100
AcDbArc
 50
200.622805
 51
281.743885
  0
ARC
  5
1EE
100
AcDbEntity
  8
0
100
AcDbCircle
 10
-8.464736
 20
-14.131892
 30
0.0
 40
2.112325
100
AcDbArc
 50
258.256115
 51
339.377195
  0
LINE
  5
1EF
100
AcDbEntity
  8
0
100
AcDbLine
 10
6.48777
 20
-14.875883
 30
0.0
 11
5.530109
 21
-10.5
 31
0.0
  0
LINE
  5
1F0
100
AcDbEntity
  8
0
100
AcDbLine
 10
-6.48777
 20
-14.875883
 30
0.0
 11
-5.530109
 21
-10.5
 31
0.0
  0
LINE
  5
1F1
100
AcDbEntity
  8
0
100
AcDbLine
 10
7.0
 20
-19.5
 30
0.0
 11
7.0
 21
-46.5
 31
0.0
  0
LINE
  5
1F2
100
AcDbEntity
  8
0
100
AcDbLine
 10
-7.0
 20
-19.5
 30
0.0
 11
-7.0
 21
-46.5
 31
0.0
  0
LINE
  5
1F3
100
AcDbEntity
  8
0
100
AcDbLine
 10
9.5
 20
-16.2
 30
0.0
 11
9.5
 21
-19.5
 31
0.0
  0
LINE
  5
1F4
100
AcDbEntity
  8
0
100
AcDbLine
 10
-9.5
 20
-16.2
 30
0.0
 11
-9.5
 21
-19.5
 31
0.0
  0
LINE
  5
1F5
100
AcDbEntity
  8
0
100
AcDbLine
 10
-9.5
 20
-19.5
 30
0.0
 11
9.5
 21
-19.5
 31
0.0
  0
LINE
  5
1F6
100
AcDbEntity
  8
0
100
AcDbLine
 10
-6.0
 20
-47.5
 30
0.0
 11
6.0
 21
-47.5
 31
0.0
  0
ENDBLK
  5
1F7
100
AcDbEntity
  8
0
100
AcDbBlockEnd
  0
BLOCK
  5
1F8
100
AcDbEntity
  8
0
100
AcDbBlockBegin
  2
H14
 70
     0
 10
0.0
 20
0.0
 30
0.0
  3
H14
  1

  0
LWPOLYLINE
  5
1F9
100
AcDbEntity
  8
0
100
AcDbPolyline
 90
       11
 70
     0
 43
0.0
 10
9.834187
 20
-6.683097
 42
0.014765
 10
9.794496
 20
-6.662743
 42
0.111536
 10
9.516726
 20
-6.6
 42
0.111536
 10
9.238957
 20
-6.662743
 42
0.102972
 10
8.993761
 20
-6.848959
 42
0.092798
 10
8.834878
 20
-7.11952
 42
0.086695
 10
8.777142
 20
-7.45
 42
0.086695
 10
8.834878
 20
-7.78048
 42
0.092798
 10
8.993761
 20
-8.051041
 42
0.102972
 10
9.238957
 20
-8.237257
 42
0.111536
 10
9.516726
 20
-8.3
 42
0.111536
  0
LWPOLYLINE
  5
206
100
AcDbEntity
  8
0
100
AcDbPolyline
 90
        3
 70
     0
 43
0.0
 10
9.516726
 20
-8.3
 42
0.111536
 10
9.794496
 20
-8.237257
 42
0.032458
 10
9.880042
 20
-8.189495
 42
0.092798
  0
ARC
  5
20B
100
AcDbEntity
  8
0
100
AcDbCircle
 10
9.651103
 20
-5.7
 30
0.0
 40
2.5
100
AcDbArc
 50
270.0
 51
0.0
  0
ARC
  5
20C
100
AcDbEntity
  8
0
100
AcDbCircle
 10
9.651103
 20
-5.7
 30
0.0
 40
1.0
100
AcDbArc
 50
270.0
 51
0.0
  0
LINE
  5
20D
100
AcDbEntity
  8
0
100
AcDbLine
 10
9.651103
 20
-8.2
 30
0.0
 11
9.170127
 21
-8.2
 31
0.0
  0
LINE
  5
20E
100
AcDbEntity
  8
0
100
AcDbLine
 10
9.651103
 20
-6.7
 30
0.0
 11
9.170127
 21
-6.7
 31
0.0
  0
LINE
  5
20F
100
AcDbEntity
  8
0
100
AcDbLine
 10
12.151103
 20
11.4
 30
0.0
 11
12.151103
 21
-5.7
 31
0.0
  0
LINE
  5
210
100
AcDbEntity
  8
0
100
AcDbLine
 10
10.651103
 20
11.4
 30
0.0
 11
10.651103
 21
-5.7
 31
0.0
  0
LWPOLYLINE
  5
211
100
AcDbEntity
  8
0
100
AcDbPolyline
 90
       16
 70
     1
 43
0.0
 10
-9.516726
 20
-8.3
 42
-0.111536
 10
-9.794496
 20
-8.237257
 42
-0.102972
 10
-10.039691
 20
-8.051041
 42
-0.092798
 10
-10.198574
 20
-7.78048
 42
-0.086695
 10
-10.25631
 20
-7.45
 42
-0.086695
 10
-10.198574
 20
-7.11952
 42
-0.092798
 10
-10.039691
 20
-6.848959
 42
-0.102972
 10
-9.794496
 20
-6.662743
 42
-0.111536
 10
-9.516726
 20
-6.6
 42
-0.111536
 10
-9.238957
 20
-6.662743
 42
-0.102972
 10
-8.993761
 20
-6.848959
 42
-0.092798
 10
-8.834878
 20
-7.11952
 42
-0.086695
 10
-8.777142
 20
-7.45
 42
-0.086695
 10
-8.834878
 20
-7.78048
 42
-0.092798
 10
-8.993761
 20
-8.051041
 42
-0.102972
 10
-9.238957
 20
-8.237257
 42
-0.111536
  0
ARC
  5
223
100
AcDbEntity
  8
0
100
AcDbCircle
 10
11.401103
 20
11.4
 30
0.0
 40
0.75
100
AcDbArc
 50
0.0
 51
180.0
  0
LINE
  5
224
100
AcDbEntity
  8
0
100
AcDbLine
 10
12.251103
 20
-10.5
 30
0.0
 11
45.0
 21
-10.5
 31
0.0
  0
ARC
  5
225
100
AcDbEntity
  8
0
100
AcDbCircle
 10
11.401103
 20
-10.5
 30
0.0
 40
0.85
100
AcDbArc
 50
360.0
 51
180.0
  0
LINE
  5
226
100
AcDbEntity
  8
0
100
AcDbLine
 10
12.251103
 20
11.5
 30
0.0
 11
12.251103
 21
-10.5
 31
0.0
  0
ARC
  5
227
100
AcDbEntity
  8
0
100
AcDbCircle
 10
0.0
 20
0.5
 30
0.0
 40
15.0
100
AcDbArc
 50
44.759104
 51
227.166572
  0
ARC
  5
228
100
AcDbEntity
  8
0
100
AcDbCircle
 10
11.401103
 20
11.5
 30
0.0
 40
0.85
100
AcDbArc
 50
331.927513
 51
0.0
  0
LINE
  5
229
100
AcDbEntity
  8
0
100
AcDbLine
 10
-10.198039
 20
-10.5
 30
0.0
 11
10.551103
 21
-10.5
 31
0.0
  0
LINE
  5
22A
100
AcDbEntity
  8
0
100
AcDbLine
 10
12.251103
 20
11.5
 30
0.0
 11
45.0
 21
11.5
 31
0.0
  0
LINE
  5
22B
100
AcDbEntity
  8
0
100
AcDbLine
 10
45.0
 20
-10.5
 30
0.0
 11
45.0
 21
11.5
 31
0.0
  0
ENDBLK
  5
22C
100
AcDbEntity
  8
0
100
AcDbBlockEnd
  0
BLOCK
  5
22D
100
AcDbEntity
  8
0
100
AcDbBlockBegin
  2
HF14
 70
     0
 10
0.0
 20
0.0
 30
0.0
  3
HF14
  1

  0
CIRCLE
  5
22E
100
AcDbEntity
  8
0
100
AcDbCircle
 10
8.65
 20
-7.45
 30
0.0
 40
0.85
  0
LINE
  5
22F
100
AcDbEntity
  8
0
100
AcDbLine
 10
-10.198039
 20
-10.5
 30
0.0
 11
10.198039
 21
-10.5
 31
0.0
  0
ARC
  5
230
100
AcDbEntity
  8
0
100
AcDbCircle
 10
0.0
 20
0.5
 30
0.0
 40
15.0
100
AcDbArc
 50
312.833428
 51
227.166572
  0
ENDBLK
  5
231
100
AcDbEntity
  8
0
100
AcDbBlockEnd
  0
BLOCK
  5
232
100
AcDbEntity
  8
0
100
AcDbBlockBegin
  2
HB14
 70
     0
 10
0.0
 20
0.0
 30
0.0
  3
HB14
  1

  0
LINE
  5
233
100
AcDbEntity
  8
0
100
AcDbLine
 10
10.442195
 20
-7.910959
 30
0.0
 11
8.872397
 21
-9.608565
 31
0.0
  0
LINE
  5
234
100
AcDbEntity
  8
0
100
AcDbLine
 10
9.337054
 20
-6.896729
 30
0.0
 11
10.442195
 21
-7.910959
 31
0.0
  0
LINE
  5
235
100
AcDbEntity
  8
0
100
AcDbLine
 10
7.88291
 20
-8.481215
 30
0.0
 11
9.337054
 21
-6.896729
 31
0.0
  0
ARC
  5
236
100
AcDbEntity
  8
0
100
AcDbCircle
 10
7.783961
 20
-8.368481
 30
0.0
 40
1.65
100
AcDbArc
 50
188.703871
 51
311.273775
  0
ARC
  5
237
100
AcDbEntity
  8
0
100
AcDbCircle
 10
7.783961
 20
-8.368481
 30
0.0
 40
0.15
100
AcDbArc
 50
131.273775
 51
311.273775
  0
LINE
  5
238
100
AcDbEntity
  8
0
100
AcDbLine
 10
-11.07886
 20
-3.102964
 30
0.0
 11
-9.352361
 21
-7.713038
 31
0.0
  0
ARC
  5
239
100
AcDbEntity
  8
0
100
AcDbCircle
 10
-8.65
 20
-7.45
 30
0.0
 40
0.75
100
AcDbArc
 50
200.531217
 51
46.202495
  0
ARC
  5
23A
100
AcDbEntity
  8
0
100
AcDbCircle
 10
-8.65
 20
-7.45
 30
0.0
 40
0.85
100
AcDbArc
 50
172.45873
 51
15.283977
  0
ARC
  5
23B
100
AcDbEntity
  8
0
100
AcDbCircle
 10
0.0
 20
0.5
 30
0.0
 40
11.65
100
AcDbArc
 50
311.273775
 51
203.047353
  0
CIRCLE
  5
23C
100
AcDbEntity
  8
0
100
AcDbCircle
 10
0.0
 20
0.5
 30
0.0
 40
6.0
  0
CIRCLE
  5
23D
100
AcDbEntity
  8
0
100
AcDbCircle
 10
0.0
 20
0.5
 30
0.0
 40
7.0
  0
CIRCLE
  5
23E
100
AcDbEntity
  8
0
100
AcDbCircle
 10
0.0
 20
0.5
 30
0.0
 40
11.0
  0
ARC
  5
23F
100
AcDbEntity
  8
0
100
AcDbCircle
 10
0.0
 20
0.5
 30
0.0
 40
15.0
100
AcDbArc
 50
312.833428
 51
227.166572
  0
LINE
  5
240
100
AcDbEntity
  8
0
100
AcDbLine
 10
-10.198039
 20
-10.5
 30
0.0
 11
10.198039
 21
-10.5
 31
0.0
  0
ENDBLK
  5
241
100
AcDbEntity
  8
0
100
AcDbBlockEnd
  0
BLOCK
  5
242
100
AcDbEntity
  8
0
100
AcDbBlockBegin
  2
HB16
 70
     0
 10
0.0
 20
0.0
 30
0.0
  3
HB16
  1

  0
CIRCLE
  5
243
100
AcDbEntity
  8
0
100
AcDbCircle
 10
0.0
 20
0.5
 30
0.0
 40
7.0
  0
CIRCLE
  5
244
100
AcDbEntity
  8
0
100
AcDbCircle
 10
0.0
 20
0.5
 30
0.0
 40
8.0
  0
LINE
  5
245
100
AcDbEntity
  8
0
100
AcDbLine
 10
-10.198039
 20
-10.5
 30
0.0
 11
10.198039
 21
-10.5
 31
0.0
  0
ARC
  5
246
100
AcDbEntity
  8
0
100
AcDbCircle
 10
0.0
 20
0.5
 30
0.0
 40
15.0
100
AcDbArc
 50
312.833428
 51
227.166572
  0
CIRCLE
  5
247
100
AcDbEntity
  8
0
100
AcDbCircle
 10
0.0
 20
0.5
 30
0.0
 40
11.0
  0
ARC
  5
248
100
AcDbEntity
  8
0
100
AcDbCircle
 10
0.0
 20
0.5
 30
0.0
 40
11.65
100
AcDbArc
 50
311.273775
 51
203.047353
  0
ARC
  5
249
100
AcDbEntity
  8
0
100
AcDbCircle
 10
-8.65
 20
-7.45
 30
0.0
 40
0.85
100
AcDbArc
 50
172.45873
 51
15.283977
  0
ARC
  5
24A
100
AcDbEntity
  8
0
100
AcDbCircle
 10
-8.65
 20
-7.45
 30
0.0
 40
0.75
100
AcDbArc
 50
200.531217
 51
46.202495
  0
LINE
  5
24B
100
AcDbEntity
  8
0
100
AcDbLine
 10
-11.07886
 20
-3.102964
 30
0.0
 11
-9.352361
 21
-7.713038
 31
0.0
  0
ARC
  5
24C
100
AcDbEntity
  8
0
100
AcDbCircle
 10
7.783961
 20
-8.368481
 30
0.0
 40
0.15
100
AcDbArc
 50
131.273775
 51
311.273775
  0
ARC
  5
24D
100
AcDbEntity
  8
0
100
AcDbCircle
 10
7.783961
 20
-8.368481
 30
0.0
 40
1.65
100
AcDbArc
 50
188.703871
 51
311.273775
  0
LINE
  5
24E
100
AcDbEntity
  8
0
100
AcDbLine
 10
7.88291
 20
-8.481215
 30
0.0
 11
9.337054
 21
-6.896729
 31
0.0
  0
LINE
  5
24F
100
AcDbEntity
  8
0
100
AcDbLine
 10
9.337054
 20
-6.896729
 30
0.0
 11
10.442195
 21
-7.910959
 31
0.0
  0
LINE
  5
250
100
AcDbEntity
  8
0
100
AcDbLine
 10
10.442195
 20
-7.910959
 30
0.0
 11
8.872397
 21
-9.608565
 31
0.0
  0
ENDBLK
  5
251
100
AcDbEntity
  8
0
100
AcDbBlockEnd
  0
BLOCK
  5
252
100
AcDbEntity
  8
0
100
AcDbBlockBegin
  2
K16
 70
     0
 10
0.0
 20
0.0
 30
0.0
  3
K16
  1

  0
LINE
  5
253
100
AcDbEntity
  8
0
100
AcDbLine
 10
-7.0
 20
-47.5
 30
0.0
 11
7.0
 21
-47.5
 31
0.0
  0
LINE
  5
254
100
AcDbEntity
  8
0
100
AcDbLine
 10
-9.5
 20
-19.5
 30
0.0
 11
9.5
 21
-19.5
 31
0.0
  0
LINE
  5
255
100
AcDbEntity
  8
0
100
AcDbLine
 10
-9.5
 20
-16.2
 30
0.0
 11
-9.5
 21
-19.5
 31
0.0
  0
LINE
  5
256
100
AcDbEntity
  8
0
100
AcDbLine
 10
9.5
 20
-16.2
 30
0.0
 11
9.5
 21
-19.5
 31
0.0
  0
LINE
  5
257
100
AcDbEntity
  8
0
100
AcDbLine
 10
-8.0
 20
-19.5
 30
0.0
 11
-8.0
 21
-46.5
 31
0.0
  0
LINE
  5
258
100
AcDbEntity
  8
0
100
AcDbLine
 10
8.0
 20
-19.5
 30
0.0
 11
8.0
 21
-46.5
 31
0.0
  0
LINE
  5
259
100
AcDbEntity
  8
0
100
AcDbLine
 10
-6.48777
 20
-14.875883
 30
0.0
 11
-5.530109
 21
-10.5
 31
0.0
  0
LINE
  5
25A
100
AcDbEntity
  8
0
100
AcDbLine
 10
6.48777
 20
-14.875883
 30
0.0
 11
5.530109
 21
-10.5
 31
0.0
  0
ARC
  5
25B
100
AcDbEntity
  8
0
100
AcDbCircle
 10
-8.464736
 20
-14.131892
 30
0.0
 40
2.112325
100
AcDbArc
 50
258.256115
 51
339.377195
  0
ARC
  5
25C
100
AcDbEntity
  8
0
100
AcDbCircle
 10
8.464736
 20
-14.131892
 30
0.0
 40
2.112325
100
AcDbArc
 50
200.622805
 51
281.743885
  0
LINE
  5
25D
100
AcDbEntity
  8
0
100
AcDbLine
 10
9.5
 20
-16.2
 30
0.0
 11
-9.5
 21
-16.2
 31
0.0
  0
LINE
  5
25E
100
AcDbEntity
  8
0
100
AcDbLine
 10
-7.0
 20
-26.5
 30
0.0
 11
-7.0
 21
-47.5
 31
0.0
  0
LINE
  5
25F
100
AcDbEntity
  8
0
100
AcDbLine
 10
7.0
 20
-26.5
 30
0.0
 11
7.0
 21
-47.5
 31
0.0
  0
LINE
  5
260
100
AcDbEntity
  8
0
100
AcDbLine
 10
-7.0
 20
-26.5
 30
0.0
 11
7.0
 21
-26.5
 31
0.0
  0
LINE
  5
261
100
AcDbEntity
  8
0
100
AcDbLine
 10
-7.0
 20
-26.5
 30
0.0
 11
-8.0
 21
-25.5
 31
0.0
  0
LINE
  5
262
100
AcDbEntity
  8
0
100
AcDbLine
 10
7.0
 20
-26.5
 30
0.0
 11
8.0
 21
-25.5
 31
0.0
  0
LINE
  5
263
100
AcDbEntity
  8
0
100
AcDbLine
 10
-7.0
 20
-47.5
 30
0.0
 11
-8.0
 21
-46.5
 31
0.0
  0
LINE
  5
264
100
AcDbEntity
  8
0
100
AcDbLine
 10
7.0
 20
-47.5
 30
0.0
 11
8.0
 21
-46.5
 31
0.0
  0
ENDBLK
  5
265
100
AcDbEntity
  8
0
100
AcDbBlockEnd
  0
ENDSEC
  0
SECTION
  2
ENTITIES
  0
LINE
  5
35F
100
AcDbEntity
  8
0
100
AcDbLine
 10
-23.868202
 20
-15.279107
 30
0.0
 11
-23.868202
 21
-19.479107
 31
0.0
  0
LINE
  5
360
102
{ACAD_REACTORS
330
639
102
}
100
AcDbEntity
  8
0
100
AcDbLine
 10
-23.868202
 20
-19.479107
 30
0.0
 11
-25.080637
 21
-17.379107
 31
0.0
  0
LINE
  5
361
102
{ACAD_REACTORS
330
639
102
}
100
AcDbEntity
  8
0
100
AcDbLine
 10
-23.868202
 20
-15.279107
 30
0.0
 11
-25.080637
 21
-17.379107
 31
0.0
  0
LINE
  5
362
102
{ACAD_REACTORS
330
639
102
}
100
AcDbEntity
  8
0
100
AcDbLine
 10
-21.4
 20
-19.879107
 30
0.0
 11
-21.4
 21
-14.879107
 31
0.0
  0
LINE
  5
363
102
{ACAD_REACTORS
330
639
102
}
100
AcDbEntity
  8
0
100
AcDbLine
 10
-23.868202
 20
-19.479107
 30
0.0
 11
-11.3
 21
-19.479107
 31
0.0
  0
LINE
  5
364
102
{ACAD_REACTORS
330
639
102
}
100
AcDbEntity
  8
0
100
AcDbLine
 10
-23.868202
 20
-15.279107
 30
0.0
 11
-11.3
 21
-15.279107
 31
0.0
  0
LINE
  5
365
102
{ACAD_REACTORS
330
639
102
}
100
AcDbEntity
  8
0
100
AcDbLine
 10
-21.4
 20
-19.879107
 30
0.0
 11
-10.9
 21
-19.879107
 31
0.0
  0
LINE
  5
366
102
{ACAD_REACTORS
330
639
102
}
100
AcDbEntity
  8
0
100
AcDbLine
 10
-21.4
 20
-14.879107
 30
0.0
 11
-10.9
 21
-14.879107
 31
0.0
  0
LINE
  5
367
102
{ACAD_REACTORS
330
696
102
}
100
AcDbEntity
  8
0
100
AcDbLine
 10
-52.2
 20
-19.479107
 30
0.0
 11
-51.8
 21
-19.879107
 31
0.0
  0
LINE
  5
368
102
{ACAD_REACTORS
330
696
102
}
100
AcDbEntity
  8
0
100
AcDbLine
 10
-52.2
 20
-15.279107
 30
0.0
 11
-51.8
 21
-14.879107
 31
0.0
  0
LINE
  5
369
102
{ACAD_REACTORS
330
696
102
}
100
AcDbEntity
  8
0
100
AcDbLine
 10
-44.2
 20
-15.279107
 30
0.0
 11
-43.8
 21
-14.879107
 31
0.0
  0
LINE
  5
36A
102
{ACAD_REACTORS
330
696
102
}
100
AcDbEntity
  8
0
100
AcDbLine
 10
-44.2
 20
-19.479107
 30
0.0
 11
-43.8
 21
-19.879107
 31
0.0
  0
LINE
  5
36B
102
{ACAD_REACTORS
330
696
102
}
100
AcDbEntity
  8
0
100
AcDbLine
 10
-44.2
 20
-19.479107
 30
0.0
 11
-52.2
 21
-19.479107
 31
0.0
  0
LINE
  5
36C
102
{ACAD_REACTORS
330
696
102
}
100
AcDbEntity
  8
0
100
AcDbLine
 10
-44.2
 20
-15.279107
 30
0.0
 11
-52.2
 21
-15.279107
 31
0.0
  0
LINE
  5
36D
102
{ACAD_REACTORS
330
696
102
}
100
AcDbEntity
  8
0
100
AcDbLine
 10
-39.5
 20
-21.379107
 30
0.0
 11
-42.0
 21
-21.379107
 31
0.0
  0
LINE
  5
36E
102
{ACAD_REACTORS
330
696
102
}
100
AcDbEntity
  8
0
100
AcDbLine
 10
-39.5
 20
-13.379107
 30
0.0
 11
-42.0
 21
-13.379107
 31
0.0
  0
LINE
  5
36F
102
{ACAD_REACTORS
330
696
102
}
100
AcDbEntity
  8
0
100
AcDbLine
 10
-38.662507
 20
-19.741175
 30
0.0
 11
-36.664102
 21
-19.379107
 31
0.0
  0
LINE
  5
370
102
{ACAD_REACTORS
330
696
102
}
100
AcDbEntity
  8
0
100
AcDbLine
 10
-38.662507
 20
-15.017038
 30
0.0
 11
-36.664102
 21
-15.379107
 31
0.0
  0
LINE
  5
371
102
{ACAD_REACTORS
330
696
102
}
100
AcDbEntity
  8
0
100
AcDbLine
 10
-39.5
 20
-13.379107
 30
0.0
 11
-39.5
 21
-14.030331
 31
0.0
  0
LINE
  5
372
102
{ACAD_REACTORS
330
696
102
}
100
AcDbEntity
  8
0
100
AcDbLine
 10
-42.0
 20
-13.379107
 30
0.0
 11
-42.0
 21
-14.879107
 31
0.0
  0
LINE
  5
373
102
{ACAD_REACTORS
330
696
102
}
100
AcDbEntity
  8
0
100
AcDbLine
 10
-42.0
 20
-19.879107
 30
0.0
 11
-51.8
 21
-19.879107
 31
0.0
  0
LINE
  5
374
102
{ACAD_REACTORS
330
696
102
}
100
AcDbEntity
  8
0
100
AcDbLine
 10
-42.0
 20
-14.879107
 30
0.0
 11
-51.8
 21
-14.879107
 31
0.0
  0
LINE
  5
375
102
{ACAD_REACTORS
330
696
102
}
100
AcDbEntity
  8
0
100
AcDbLine
 10
-52.2
 20
-15.279107
 30
0.0
 11
-52.2
 21
-19.479107
 31
0.0
  0
LINE
  5
376
102
{ACAD_REACTORS
330
639
102
}
100
AcDbEntity
  8
0
100
AcDbLine
 10
-33.2
 20
-13.379107
 30
0.0
 11
-34.3
 21
-13.379107
 31
0.0
  0
LINE
  5
377
102
{ACAD_REACTORS
330
639
330
696
102
}
100
AcDbEntity
  8
0
  6
CENTER
100
AcDbLine
 10
-33.0
 20
-10.0
 30
0.0
 11
-33.0
 21
-25.0
 31
0.0
  0
LINE
  5
378
102
{ACAD_REACTORS
330
639
102
}
100
AcDbEntity
  8
0
100
AcDbLine
 10
-27.121225
 20
-21.379107
 30
0.0
 11
-10.9
 21
-21.379107
 31
0.0
  0
LINE
  5
37C
102
{ACAD_REACTORS
330
639
102
}
100
AcDbEntity
  8
0
100
AcDbLine
 10
-27.121225
 20
-13.379107
 30
0.0
 11
-10.9
 21
-13.379107
 31
0.0
  0
LINE
  5
37F
102
{ACAD_REACTORS
330
639
102
}
100
AcDbEntity
  8
0
100
AcDbLine
 10
-10.9
 20
-21.379107
 30
0.0
 11
-10.9
 21
-13.379107
 31
0.0
  0
LINE
  5
380
102
{ACAD_REACTORS
330
639
330
696
102
}
100
AcDbEntity
  8
0
  6
CENTER
100
AcDbLine
 10
-53.0
 20
-17.379107
 30
0.0
 11
-10.0
 21
-17.379107
 31
0.0
  0
ARC
  5
381
102
{ACAD_REACTORS
330
639
330
696
102
}
100
AcDbEntity
  8
0
100
AcDbCircle
 10
-33.2
 20
-17.379107
 30
0.0
 40
4.0
100
AcDbArc
 50
210.0
 51
150.0
  0
LINE
  5
383
102
{ACAD_REACTORS
330
696
102
}
100
AcDbEntity
  8
0
100
AcDbLine
 10
-39.5
 20
-20.727882
 30
0.0
 11
-39.5
 21
-21.379107
 31
0.0
  0
LINE
  5
384
102
{ACAD_REACTORS
330
696
102
}
100
AcDbEntity
  8
0
100
AcDbLine
 10
-42.0
 20
-19.879107
 30
0.0
 11
-42.0
 21
-21.379107
 31
0.0
  0
LINE
  5
385
102
{ACAD_REACTORS
330
639
102
}
100
AcDbEntity
  8
0
100
AcDbLine
 10
-35.3
 20
-12.379107
 30
0.0
 11
-35.3
 21
-13.974698
 31
0.0
  0
CIRCLE
  5
386
100
AcDbEntity
  8
0
100
AcDbCircle
 10
-34.8
 20
-13.172062
 30
0.0
 40
0.5
  0
LINE
  5
387
102
{ACAD_REACTORS
330
639
102
}
100
AcDbEntity
  8
0
100
AcDbLine
 10
-34.3
 20
-13.53333
 30
0.0
 11
-34.3
 21
-12.379107
 31
0.0
  0
LINE
  5
388
102
{ACAD_REACTORS
330
639
102
}
100
AcDbEntity
  8
0
100
AcDbLine
 10
-34.3
 20
-12.379107
 30
0.0
 11
-35.3
 21
-12.379107
 31
0.0
  0
LINE
  5
389
102
{ACAD_REACTORS
330
639
102
}
100
AcDbEntity
  8
0
100
AcDbLine
 10
-35.3
 20
-13.379107
 30
0.0
 11
-37.6
 21
-13.379107
 31
0.0
  0
LINE
  5
38A
102
{ACAD_REACTORS
330
639
102
}
100
AcDbEntity
  8
0
100
AcDbLine
 10
-33.2
 20
-21.379107
 30
0.0
 11
-34.3
 21
-21.379107
 31
0.0
  0
LINE
  5
38B
102
{ACAD_REACTORS
330
639
102
}
100
AcDbEntity
  8
0
100
AcDbLine
 10
-34.3
 20
-21.224884
 30
0.0
 11
-34.3
 21
-22.379107
 31
0.0
  0
LINE
  5
38C
102
{ACAD_REACTORS
330
639
102
}
100
AcDbEntity
  8
0
100
AcDbLine
 10
-34.3
 20
-22.379107
 30
0.0
 11
-35.3
 21
-22.379107
 31
0.0
  0
LINE
  5
38D
102
{ACAD_REACTORS
330
639
102
}
100
AcDbEntity
  8
0
100
AcDbLine
 10
-35.3
 20
-22.379107
 30
0.0
 11
-35.3
 21
-20.783516
 31
0.0
  0
LINE
  5
38E
102
{ACAD_REACTORS
330
639
102
}
100
AcDbEntity
  8
0
100
AcDbLine
 10
-35.3
 20
-21.379107
 30
0.0
 11
-37.6
 21
-21.379107
 31
0.0
  0
CIRCLE
  5
38F
102
{ACAD_REACTORS
330
696
102
}
100
AcDbEntity
  8
0
100
AcDbCircle
 10
-34.8
 20
-21.582472
 30
0.0
 40
0.5
  0
ARC
  5
3D1
102
{ACAD_REACTORS
330
696
102
}
100
AcDbEntity
  8
0
100
AcDbCircle
 10
-38.5
 20
-14.030331
 30
0.0
 40
1.0
100
AcDbArc
 50
180.0
 51
260.647578
  0
ARC
  5
3D2
102
{ACAD_REACTORS
330
696
102
}
100
AcDbEntity
  8
0
100
AcDbCircle
 10
-38.5
 20
-20.727882
 30
0.0
 40
1.0
100
AcDbArc
 50
99.352422
 51
180.0
  0
LINE
  5
3D3
100
AcDbEntity
  8
0
100
AcDbLine
 10
72.955505
 20
-18.4
 30
0.0
 11
72.955505
 21
-23.4
 31
0.0
  0
LINE
  5
3D4
100
AcDbEntity
  8
0
100
AcDbLine
 10
72.955505
 20
-18.4
 30
0.0
 11
71.512129
 21
-20.9
 31
0.0
  0
LINE
  5
3D5
100
AcDbEntity
  8
0
100
AcDbLine
 10
72.955505
 20
-23.4
 30
0.0
 11
71.512129
 21
-20.9
 31
0.0
  0
LINE
  5
3D6
100
AcDbEntity
  8
0
100
AcDbLine
 10
86.5
 20
-23.4
 30
0.0
 11
72.955505
 21
-23.4
 31
0.0
  0
LINE
  5
3D7
100
AcDbEntity
  8
0
100
AcDbLine
 10
86.5
 20
-18.4
 30
0.0
 11
72.955505
 21
-18.4
 31
0.0
  0
LINE
  5
3D8
100
AcDbEntity
  8
0
100
AcDbLine
 10
87.0
 20
-23.9
 30
0.0
 11
75.5
 21
-23.9
 31
0.0
  0
LINE
  5
3D9
100
AcDbEntity
  8
0
100
AcDbLine
 10
87.0
 20
-17.9
 30
0.0
 11
75.5
 21
-17.9
 31
0.0
  0
LINE
  5
3DA
100
AcDbEntity
  8
0
100
AcDbLine
 10
75.5
 20
-23.9
 30
0.0
 11
75.5
 21
-17.9
 31
0.0
  0
LINE
  5
3DB
102
{ACAD_REACTORS
330
7E9
102
}
100
AcDbEntity
  8
0
100
AcDbLine
 10
39.0
 20
-23.5
 30
0.0
 11
39.5
 21
-24.0
 31
0.0
  0
LINE
  5
3DC
102
{ACAD_REACTORS
330
7E9
102
}
100
AcDbEntity
  8
0
100
AcDbLine
 10
39.0
 20
-18.5
 30
0.0
 11
39.5
 21
-18.0
 31
0.0
  0
LINE
  5
3DD
102
{ACAD_REACTORS
330
7E9
102
}
100
AcDbEntity
  8
0
100
AcDbLine
 10
49.0
 20
-18.5
 30
0.0
 11
49.5
 21
-18.0
 31
0.0
  0
LINE
  5
3DE
102
{ACAD_REACTORS
330
7E9
102
}
100
AcDbEntity
  8
0
100
AcDbLine
 10
49.0
 20
-23.5
 30
0.0
 11
49.5
 21
-24.0
 31
0.0
  0
LINE
  5
3DF
102
{ACAD_REACTORS
330
7E9
102
}
100
AcDbEntity
  8
0
100
AcDbLine
 10
49.0
 20
-23.5
 30
0.0
 11
39.0
 21
-23.5
 31
0.0
  0
LINE
  5
3E0
102
{ACAD_REACTORS
330
7E9
102
}
100
AcDbEntity
  8
0
100
AcDbLine
 10
49.0
 20
-18.5
 30
0.0
 11
39.0
 21
-18.5
 31
0.0
  0
LINE
  5
3E1
100
AcDbEntity
  8
0
100
AcDbLine
 10
59.4
 20
-26.0
 30
0.0
 11
56.6
 21
-26.0
 31
0.0
  0
LINE
  5
3E2
100
AcDbEntity
  8
0
100
AcDbLine
 10
59.4
 20
-27.0
 30
0.0
 11
59.4
 21
-25.270831
 31
0.0
  0
LINE
  5
3E3
100
AcDbEntity
  8
0
100
AcDbLine
 10
60.4
 20
-27.0
 30
0.0
 11
60.4
 21
-25.737088
 31
0.0
  0
LINE
  5
3E4
100
AcDbEntity
  8
0
100
AcDbLine
 10
60.4
 20
-27.0
 30
0.0
 11
59.4
 21
-27.0
 31
0.0
  0
CIRCLE
  5
3E5
100
AcDbEntity
  8
0
100
AcDbCircle
 10
59.9
 20
-26.091084
 30
0.0
 40
0.5
  0
LINE
  5
3E6
100
AcDbEntity
  8
0
100
AcDbLine
 10
59.4
 20
-16.0
 30
0.0
 11
56.6
 21
-16.0
 31
0.0
  0
LINE
  5
3E7
100
AcDbEntity
  8
0
100
AcDbLine
 10
60.4
 20
-15.0
 30
0.0
 11
59.4
 21
-15.0
 31
0.0
  0
CIRCLE
  5
3E8
100
AcDbEntity
  8
0
100
AcDbCircle
 10
59.9
 20
-15.908916
 30
0.0
 40
0.5
  0
LINE
  5
3E9
100
AcDbEntity
  8
0
100
AcDbLine
 10
60.4
 20
-15.0
 30
0.0
 11
60.4
 21
-16.262912
 31
0.0
  0
LINE
  5
3EA
100
AcDbEntity
  8
0
100
AcDbLine
 10
59.4
 20
-15.0
 30
0.0
 11
59.4
 21
-16.729169
 31
0.0
  0
LINE
  5
3EE
100
AcDbEntity
  8
0
100
AcDbLine
 10
68.529931
 20
-25.9
 30
0.0
 11
87.0
 21
-25.9
 31
0.0
  0
ARC
  5
3F0
102
{ACAD_REACTORS
330
7E9
102
}
100
AcDbEntity
  8
0
100
AcDbCircle
 10
55.3
 20
-24.778588
 30
0.0
 40
1.5
100
AcDbArc
 50
99.111997
 51
180.0
  0
ARC
  5
3F1
102
{ACAD_REACTORS
330
7E9
102
}
100
AcDbEntity
  8
0
100
AcDbCircle
 10
55.3
 20
-17.221412
 30
0.0
 40
1.5
100
AcDbArc
 50
180.0
 51
260.888003
  0
LINE
  5
3F2
102
{ACAD_REACTORS
330
7E9
102
}
100
AcDbEntity
  8
0
100
AcDbLine
 10
55.062453
 20
-23.297517
 30
0.0
 11
57.417424
 21
-23.0
 31
0.0
  0
LINE
  5
3F3
102
{ACAD_REACTORS
330
7E9
102
}
100
AcDbEntity
  8
0
100
AcDbLine
 10
55.062453
 20
-18.702483
 30
0.0
 11
57.417424
 21
-19.0
 31
0.0
  0
LINE
  5
3F4
102
{ACAD_REACTORS
330
7E9
102
}
100
AcDbEntity
  8
0
100
AcDbLine
 10
53.8
 20
-26.0
 30
0.0
 11
51.0
 21
-26.0
 31
0.0
  0
LINE
  5
3F5
102
{ACAD_REACTORS
330
7E9
102
}
100
AcDbEntity
  8
0
100
AcDbLine
 10
53.8
 20
-16.0
 30
0.0
 11
51.0
 21
-16.0
 31
0.0
  0
LINE
  5
3F6
102
{ACAD_REACTORS
330
7E9
102
}
100
AcDbEntity
  8
0
100
AcDbLine
 10
53.8
 20
-16.0
 30
0.0
 11
53.8
 21
-17.221413
 31
0.0
  0
LINE
  5
3F7
100
AcDbEntity
  8
0
100
AcDbLine
 10
62.0
 20
-16.0
 30
0.0
 11
60.4
 21
-16.0
 31
0.0
  0
LINE
  5
3F8
102
{ACAD_REACTORS
330
7E9
102
}
100
AcDbEntity
  8
0
100
AcDbLine
 10
51.0
 20
-16.0
 30
0.0
 11
51.0
 21
-18.0
 31
0.0
  0
LINE
  5
3F9
102
{ACAD_REACTORS
330
7E9
102
}
100
AcDbEntity
  8
0
100
AcDbLine
 10
51.0
 20
-18.0
 30
0.0
 11
39.5
 21
-18.0
 31
0.0
  0
LINE
  5
3FA
102
{ACAD_REACTORS
330
7E9
102
}
100
AcDbEntity
  8
0
100
AcDbLine
 10
51.0
 20
-24.0
 30
0.0
 11
39.5
 21
-24.0
 31
0.0
  0
LINE
  5
3FB
102
{ACAD_REACTORS
330
7E9
102
}
100
AcDbEntity
  8
0
100
AcDbLine
 10
39.0
 20
-18.5
 30
0.0
 11
39.0
 21
-23.5
 31
0.0
  0
LINE
  5
3FC
100
AcDbEntity
  8
0
100
AcDbLine
 10
68.311894
 20
-15.9
 30
0.0
 11
87.0
 21
-15.9
 31
0.0
  0
LINE
  5
3FD
100
AcDbEntity
  8
0
100
AcDbLine
 10
87.0
 20
-25.9
 30
0.0
 11
87.0
 21
-15.9
 31
0.0
  0
ARC
  5
400
102
{ACAD_REACTORS
330
7E9
102
}
100
AcDbEntity
  8
0
100
AcDbCircle
 10
62.0
 20
-21.0
 30
0.0
 40
5.0
100
AcDbArc
 50
203.578178
 51
156.421822
  0
LINE
  5
401
102
{ACAD_REACTORS
330
7E9
102
}
100
AcDbEntity
  8
0
  6
CENTER
100
AcDbLine
 10
62.0
 20
-12.0
 30
0.0
 11
62.0
 21
-30.0
 31
0.0
  0
LINE
  5
454
102
{ACAD_REACTORS
330
7E9
102
}
100
AcDbEntity
  8
0
100
AcDbLine
 10
53.8
 20
-24.778588
 30
0.0
 11
53.8
 21
-26.0
 31
0.0
  0
LINE
  5
455
102
{ACAD_REACTORS
330
7E9
102
}
100
AcDbEntity
  8
0
100
AcDbLine
 10
51.0
 20
-24.0
 30
0.0
 11
51.0
 21
-26.0
 31
0.0
  0
LINE
  5
456
102
{ACAD_REACTORS
330
7E9
102
}
100
AcDbEntity
  8
0
  6
CENTER
100
AcDbLine
 10
37.5
 20
-20.9
 30
0.0
 11
88.5
 21
-20.9
 31
0.0
  0
LINE
  5
457
102
{ACAD_REACTORS
330
86E
102
}
100
AcDbEntity
  8
0
100
AcDbLine
 10
192.966963
 20
-35.5
 30
0.0
 11
215.0
 21
-35.5
 31
0.0
  0
ARC
  5
458
100
AcDbEntity
  8
0
100
AcDbCircle
 10
176.25
 20
-34.291095
 30
0.0
 40
1.5
100
AcDbArc
 50
98.56089
 51
180.0
  0
ARC
  5
459
100
AcDbEntity
  8
0
100
AcDbCircle
 10
176.25
 20
-23.708905
 30
0.0
 40
1.5
100
AcDbArc
 50
180.0
 51
261.43911
  0
LINE
  5
45C
102
{ACAD_REACTORS
330
86E
102
}
100
AcDbEntity
  8
0
100
AcDbLine
 10
181.8
 20
-36.9
 30
0.0
 11
181.8
 21
-34.657738
 31
0.0
  0
LINE
  5
45D
102
{ACAD_REACTORS
330
86E
102
}
100
AcDbEntity
  8
0
100
AcDbLine
 10
183.2
 20
-36.9
 30
0.0
 11
181.8
 21
-36.9
 31
0.0
  0
LINE
  5
45E
102
{ACAD_REACTORS
330
86E
102
}
100
AcDbEntity
  8
0
100
AcDbLine
 10
183.2
 20
-36.9
 30
0.0
 11
183.2
 21
-35.245799
 31
0.0
  0
CIRCLE
  5
45F
100
AcDbEntity
  8
0
100
AcDbCircle
 10
182.5
 20
-35.754744
 30
0.0
 40
0.7
  0
LINE
  5
460
102
{ACAD_REACTORS
330
86E
102
}
100
AcDbEntity
  8
0
100
AcDbLine
 10
185.0
 20
-35.5
 30
0.0
 11
183.2
 21
-35.5
 31
0.0
  0
CIRCLE
  5
461
100
AcDbEntity
  8
0
100
AcDbCircle
 10
182.5
 20
-22.245256
 30
0.0
 40
0.7
  0
LINE
  5
462
102
{ACAD_REACTORS
330
86E
102
}
100
AcDbEntity
  8
0
100
AcDbLine
 10
181.8
 20
-22.5
 30
0.0
 11
177.8
 21
-22.5
 31
0.0
  0
LINE
  5
463
102
{ACAD_REACTORS
330
86E
102
}
100
AcDbEntity
  8
0
100
AcDbLine
 10
183.2
 20
-21.1
 30
0.0
 11
181.8
 21
-21.1
 31
0.0
  0
LINE
  5
464
102
{ACAD_REACTORS
330
86E
102
}
100
AcDbEntity
  8
0
100
AcDbLine
 10
183.2
 20
-21.1
 30
0.0
 11
183.2
 21
-22.754201
 31
0.0
  0
LINE
  5
465
102
{ACAD_REACTORS
330
86E
102
}
100
AcDbEntity
  8
0
100
AcDbLine
 10
181.8
 20
-21.1
 30
0.0
 11
181.8
 21
-23.342262
 31
0.0
  0
LINE
  5
466
100
AcDbEntity
  8
0
100
AcDbLine
 10
197.78563
 20
-25.6
 30
0.0
 11
197.78563
 21
-32.4
 31
0.0
  0
LINE
  5
467
102
{ACAD_REACTORS
330
86E
102
}
100
AcDbEntity
  8
0
100
AcDbLine
 10
197.78563
 20
-25.6
 30
0.0
 11
195.822639
 21
-29.0
 31
0.0
  0
LINE
  5
468
102
{ACAD_REACTORS
330
86E
102
}
100
AcDbEntity
  8
0
100
AcDbLine
 10
197.78563
 20
-32.4
 30
0.0
 11
195.822639
 21
-29.0
 31
0.0
  0
LINE
  5
469
102
{ACAD_REACTORS
330
86E
102
}
100
AcDbEntity
  8
0
100
AcDbLine
 10
197.78563
 20
-32.4
 30
0.0
 11
214.4
 21
-32.4
 31
0.0
  0
LINE
  5
46A
102
{ACAD_REACTORS
330
86E
102
}
100
AcDbEntity
  8
0
100
AcDbLine
 10
197.78563
 20
-25.6
 30
0.0
 11
214.4
 21
-25.6
 31
0.0
  0
LINE
  5
46B
102
{ACAD_REACTORS
330
86E
102
}
100
AcDbEntity
  8
0
100
AcDbLine
 10
201.0
 20
-33.0
 30
0.0
 11
215.0
 21
-33.0
 31
0.0
  0
LINE
  5
46C
102
{ACAD_REACTORS
330
86E
102
}
100
AcDbEntity
  8
0
100
AcDbLine
 10
201.0
 20
-25.0
 30
0.0
 11
215.0
 21
-25.0
 31
0.0
  0
LINE
  5
46D
102
{ACAD_REACTORS
330
86E
102
}
100
AcDbEntity
  8
0
100
AcDbLine
 10
201.0
 20
-33.0
 30
0.0
 11
201.0
 21
-25.0
 31
0.0
  0
LINE
  5
46E
100
AcDbEntity
  8
0
100
AcDbLine
 10
155.5
 20
-32.4
 30
0.0
 11
156.1
 21
-33.0
 31
0.0
  0
LINE
  5
46F
100
AcDbEntity
  8
0
100
AcDbLine
 10
155.5
 20
-25.6
 30
0.0
 11
156.1
 21
-25.0
 31
0.0
  0
LINE
  5
470
100
AcDbEntity
  8
0
100
AcDbLine
 10
169.0
 20
-25.6
 30
0.0
 11
169.6
 21
-25.0
 31
0.0
  0
LINE
  5
471
100
AcDbEntity
  8
0
100
AcDbLine
 10
169.0
 20
-32.4
 30
0.0
 11
169.6
 21
-33.0
 31
0.0
  0
LINE
  5
472
100
AcDbEntity
  8
0
100
AcDbLine
 10
169.0
 20
-32.4
 30
0.0
 11
155.5
 21
-32.4
 31
0.0
  0
LINE
  5
473
100
AcDbEntity
  8
0
100
AcDbLine
 10
169.0
 20
-25.6
 30
0.0
 11
155.5
 21
-25.6
 31
0.0
  0
LINE
  5
478
100
AcDbEntity
  8
0
100
AcDbLine
 10
176.026709
 20
-32.807807
 30
0.0
 11
179.4
 21
-32.3
 31
0.0
  0
LINE
  5
479
100
AcDbEntity
  8
0
100
AcDbLine
 10
176.026709
 20
-25.192193
 30
0.0
 11
179.4
 21
-25.7
 31
0.0
  0
LINE
  5
47A
100
AcDbEntity
  8
0
100
AcDbLine
 10
174.75
 20
-35.5
 30
0.0
 11
171.95
 21
-35.5
 31
0.0
  0
LINE
  5
47B
100
AcDbEntity
  8
0
100
AcDbLine
 10
174.75
 20
-22.5
 30
0.0
 11
171.95
 21
-22.5
 31
0.0
  0
LINE
  5
47C
102
{ACAD_REACTORS
330
86E
102
}
100
AcDbEntity
  8
0
100
AcDbLine
 10
185.0
 20
-22.5
 30
0.0
 11
183.2
 21
-22.5
 31
0.0
  0
LINE
  5
47D
100
AcDbEntity
  8
0
100
AcDbLine
 10
174.75
 20
-35.5
 30
0.0
 11
174.75
 21
-34.291095
 31
0.0
  0
LINE
  5
47E
100
AcDbEntity
  8
0
100
AcDbLine
 10
171.95
 20
-35.5
 30
0.0
 11
171.95
 21
-33.0
 31
0.0
  0
LINE
  5
47F
100
AcDbEntity
  8
0
100
AcDbLine
 10
171.95
 20
-33.0
 30
0.0
 11
156.1
 21
-33.0
 31
0.0
  0
LINE
  5
480
100
AcDbEntity
  8
0
100
AcDbLine
 10
171.95
 20
-25.0
 30
0.0
 11
156.1
 21
-25.0
 31
0.0
  0
LINE
  5
481
100
AcDbEntity
  8
0
100
AcDbLine
 10
155.5
 20
-32.4
 30
0.0
 11
155.5
 21
-25.6
 31
0.0
  0
LINE
  5
482
102
{ACAD_REACTORS
330
86E
102
}
100
AcDbEntity
  8
0
  6
CENTER
100
AcDbLine
 10
185.0
 20
-18.0
 30
0.0
 11
185.0
 21
-40.0
 31
0.0
  0
LINE
  5
484
102
{ACAD_REACTORS
330
86E
102
}
100
AcDbEntity
  8
0
100
AcDbLine
 10
192.966963
 20
-22.5
 30
0.0
 11
215.0
 21
-22.5
 31
0.0
  0
LINE
  5
486
102
{ACAD_REACTORS
330
86E
102
}
100
AcDbEntity
  8
0
  6
CENTER
100
AcDbLine
 10
154.0
 20
-29.0
 30
0.0
 11
216.5
 21
-29.0
 31
0.0
  0
ARC
  5
487
102
{ACAD_REACTORS
330
86E
102
}
100
AcDbEntity
  8
0
100
AcDbCircle
 10
185.0
 20
-29.0
 30
0.0
 40
6.5
100
AcDbArc
 50
210.510237
 51
149.489763
  0
LINE
  5
4C0
100
AcDbEntity
  8
0
100
AcDbLine
 10
174.75
 20
-23.708906
 30
0.0
 11
174.75
 21
-22.5
 31
0.0
  0
LINE
  5
4C1
100
AcDbEntity
  8
0
100
AcDbLine
 10
171.95
 20
-25.0
 30
0.0
 11
171.95
 21
-22.5
 31
0.0
  0
LINE
  5
4C4
102
{ACAD_REACTORS
330
9C2
102
}
100
AcDbEntity
  8
0
100
AcDbLine
 10
334.727122
 20
-32.75
 30
0.0
 11
332.273383
 21
-37.0
 31
0.0
  0
LINE
  5
4C5
102
{ACAD_REACTORS
330
9C2
102
}
100
AcDbEntity
  8
0
100
AcDbLine
 10
334.727122
 20
-41.25
 30
0.0
 11
332.273383
 21
-37.0
 31
0.0
  0
LINE
  5
4C6
102
{ACAD_REACTORS
330
9C2
102
}
100
AcDbEntity
  8
0
100
AcDbLine
 10
339.0
 20
-32.0
 30
0.0
 11
339.0
 21
-42.0
 31
0.0
  0
LINE
  5
4C7
102
{ACAD_REACTORS
330
9C2
102
}
100
AcDbEntity
  8
0
100
AcDbLine
 10
334.727122
 20
-41.25
 30
0.0
 11
353.75
 21
-41.25
 31
0.0
  0
LINE
  5
4C8
102
{ACAD_REACTORS
330
9C2
102
}
100
AcDbEntity
  8
0
100
AcDbLine
 10
334.727122
 20
-32.75
 30
0.0
 11
353.75
 21
-32.75
 31
0.0
  0
LINE
  5
4C9
102
{ACAD_REACTORS
330
9C2
102
}
100
AcDbEntity
  8
0
100
AcDbLine
 10
339.0
 20
-42.0
 30
0.0
 11
354.5
 21
-42.0
 31
0.0
  0
LINE
  5
4CA
102
{ACAD_REACTORS
330
9C2
102
}
100
AcDbEntity
  8
0
100
AcDbLine
 10
339.0
 20
-32.0
 30
0.0
 11
354.5
 21
-32.0
 31
0.0
  0
LINE
  5
4CB
102
{ACAD_REACTORS
330
9C2
102
}
100
AcDbEntity
  8
0
100
AcDbLine
 10
319.5
 20
-45.0
 30
0.0
 11
316.7
 21
-45.0
 31
0.0
  0
LINE
  5
4CD
102
{ACAD_REACTORS
330
9C2
102
}
100
AcDbEntity
  8
0
100
AcDbLine
 10
315.1
 20
-46.6
 30
0.0
 11
315.1
 21
-43.681317
 31
0.0
  0
LINE
  5
4CE
102
{ACAD_REACTORS
330
9C2
102
}
100
AcDbEntity
  8
0
100
AcDbLine
 10
316.7
 20
-46.6
 30
0.0
 11
316.7
 21
-44.493998
 31
0.0
  0
LINE
  5
4CF
102
{ACAD_REACTORS
330
9C2
102
}
100
AcDbEntity
  8
0
100
AcDbLine
 10
316.7
 20
-46.6
 30
0.0
 11
315.1
 21
-46.6
 31
0.0
  0
CIRCLE
  5
4D0
102
{ACAD_REACTORS
330
96F
102
}
100
AcDbEntity
  8
0
100
AcDbCircle
 10
315.9
 20
-45.025445
 30
0.0
 40
0.8
  0
CIRCLE
  5
4D1
102
{ACAD_REACTORS
330
96F
102
}
100
AcDbEntity
  8
0
100
AcDbCircle
 10
315.9
 20
-28.974555
 30
0.0
 40
0.8
  0
LINE
  5
4D2
102
{ACAD_REACTORS
330
9C2
102
}
100
AcDbEntity
  8
0
100
AcDbLine
 10
315.1
 20
-29.0
 30
0.0
 11
311.0
 21
-29.0
 31
0.0
  0
LINE
  5
4D3
102
{ACAD_REACTORS
330
9C2
102
}
100
AcDbEntity
  8
0
100
AcDbLine
 10
316.7
 20
-27.4
 30
0.0
 11
315.1
 21
-27.4
 31
0.0
  0
LINE
  5
4D4
102
{ACAD_REACTORS
330
9C2
102
}
100
AcDbEntity
  8
0
100
AcDbLine
 10
316.7
 20
-27.4
 30
0.0
 11
316.7
 21
-29.506002
 31
0.0
  0
LINE
  5
4D5
102
{ACAD_REACTORS
330
9C2
102
}
100
AcDbEntity
  8
0
100
AcDbLine
 10
315.1
 20
-27.4
 30
0.0
 11
315.1
 21
-30.318683
 31
0.0
  0
ARC
  5
4D6
102
{ACAD_REACTORS
330
96F
102
}
100
AcDbEntity
  8
0
100
AcDbCircle
 10
308.5
 20
-43.733599
 30
0.0
 40
2.0
100
AcDbArc
 50
98.162549
 51
180.0
  0
ARC
  5
4D7
102
{ACAD_REACTORS
330
96F
102
}
100
AcDbEntity
  8
0
100
AcDbCircle
 10
308.5
 20
-30.266401
 30
0.0
 40
2.0
100
AcDbArc
 50
180.0
 51
261.837451
  0
LINE
  5
4D8
102
{ACAD_REACTORS
330
9C2
102
}
100
AcDbEntity
  8
0
100
AcDbLine
 10
354.5
 20
-29.0
 30
0.0
 11
354.5
 21
-45.0
 31
0.0
  0
LINE
  5
4D9
102
{ACAD_REACTORS
330
9C2
102
}
100
AcDbEntity
  8
0
100
AcDbLine
 10
329.297959
 20
-45.0
 30
0.0
 11
354.5
 21
-45.0
 31
0.0
  0
LINE
  5
4DA
102
{ACAD_REACTORS
330
96F
102
}
100
AcDbEntity
  8
0
100
AcDbLine
 10
283.5
 20
-41.0
 30
0.0
 11
284.5
 21
-42.0
 31
0.0
  0
LINE
  5
4DB
102
{ACAD_REACTORS
330
96F
102
}
100
AcDbEntity
  8
0
100
AcDbLine
 10
283.5
 20
-33.0
 30
0.0
 11
284.5
 21
-32.0
 31
0.0
  0
LINE
  5
4DC
102
{ACAD_REACTORS
330
96F
102
}
100
AcDbEntity
  8
0
100
AcDbLine
 10
300.0
 20
-33.0
 30
0.0
 11
301.0
 21
-32.0
 31
0.0
  0
LINE
  5
4DD
102
{ACAD_REACTORS
330
96F
102
}
100
AcDbEntity
  8
0
100
AcDbLine
 10
300.0
 20
-41.0
 30
0.0
 11
301.0
 21
-42.0
 31
0.0
  0
LINE
  5
4DE
102
{ACAD_REACTORS
330
96F
102
}
100
AcDbEntity
  8
0
100
AcDbLine
 10
312.571797
 20
-41.0
 30
0.0
 11
308.216036
 21
-41.75386
 31
0.0
  0
LINE
  5
4DF
102
{ACAD_REACTORS
330
96F
102
}
100
AcDbEntity
  8
0
100
AcDbLine
 10
308.216036
 20
-32.24614
 30
0.0
 11
312.571797
 21
-33.0
 31
0.0
  0
LINE
  5
4E0
102
{ACAD_REACTORS
330
96F
102
}
100
AcDbEntity
  8
0
100
AcDbLine
 10
300.0
 20
-41.0
 30
0.0
 11
283.5
 21
-41.0
 31
0.0
  0
LINE
  5
4E1
102
{ACAD_REACTORS
330
96F
102
}
100
AcDbEntity
  8
0
100
AcDbLine
 10
300.0
 20
-33.0
 30
0.0
 11
283.5
 21
-33.0
 31
0.0
  0
LINE
  5
4E2
102
{ACAD_REACTORS
330
96F
102
}
100
AcDbEntity
  8
0
100
AcDbLine
 10
306.5
 20
-45.0
 30
0.0
 11
303.5
 21
-45.0
 31
0.0
  0
LINE
  5
4E3
102
{ACAD_REACTORS
330
96F
102
}
100
AcDbEntity
  8
0
100
AcDbLine
 10
306.5
 20
-29.0
 30
0.0
 11
303.5
 21
-29.0
 31
0.0
  0
LINE
  5
4E4
102
{ACAD_REACTORS
330
9C2
102
}
100
AcDbEntity
  8
0
100
AcDbLine
 10
319.5
 20
-29.0
 30
0.0
 11
316.7
 21
-29.0
 31
0.0
  0
LINE
  5
4E5
102
{ACAD_REACTORS
330
96F
102
}
100
AcDbEntity
  8
0
100
AcDbLine
 10
303.5
 20
-42.0
 30
0.0
 11
284.5
 21
-42.0
 31
0.0
  0
LINE
  5
4E6
102
{ACAD_REACTORS
330
96F
102
}
100
AcDbEntity
  8
0
100
AcDbLine
 10
303.5
 20
-32.0
 30
0.0
 11
284.5
 21
-32.0
 31
0.0
  0
LINE
  5
4E7
102
{ACAD_REACTORS
330
96F
330
9C2
102
}
100
AcDbEntity
  8
0
  6
CENTER
100
AcDbLine
 10
319.5
 20
-23.5
 30
0.0
 11
319.5
 21
-50.5
 31
0.0
  0
LINE
  5
4E8
102
{ACAD_REACTORS
330
96F
102
}
100
AcDbEntity
  8
0
100
AcDbLine
 10
303.5
 20
-45.0
 30
0.0
 11
303.5
 21
-42.0
 31
0.0
  0
LINE
  5
4E9
102
{ACAD_REACTORS
330
96F
102
}
100
AcDbEntity
  8
0
100
AcDbLine
 10
283.5
 20
-41.0
 30
0.0
 11
283.5
 21
-33.0
 31
0.0
  0
LINE
  5
4EB
102
{ACAD_REACTORS
330
9C2
102
}
100
AcDbEntity
  8
0
100
AcDbLine
 10
329.297959
 20
-29.0
 30
0.0
 11
354.5
 21
-29.0
 31
0.0
  0
LINE
  5
4EC
102
{ACAD_REACTORS
330
96F
330
9C2
102
}
100
AcDbEntity
  8
0
  6
CENTER
100
AcDbLine
 10
282.0
 20
-37.0
 30
0.0
 11
356.0
 21
-37.0
 31
0.0
  0
ARC
  5
4EE
102
{ACAD_REACTORS
330
96F
330
9C2
102
}
100
AcDbEntity
  8
0
100
AcDbCircle
 10
319.5
 20
-37.0
 30
0.0
 40
8.0
100
AcDbArc
 50
210.0
 51
150.0
  0
LINE
  5
54C
102
{ACAD_REACTORS
330
96F
102
}
100
AcDbEntity
  8
0
100
AcDbLine
 10
303.5
 20
-32.0
 30
0.0
 11
303.5
 21
-29.0
 31
0.0
  0
LINE
  5
54D
102
{ACAD_REACTORS
330
96F
102
}
100
AcDbEntity
  8
0
100
AcDbLine
 10
306.5
 20
-29.0
 30
0.0
 11
306.5
 21
-30.266401
 31
0.0
  0
LINE
  5
54E
102
{ACAD_REACTORS
330
96F
102
}
100
AcDbEntity
  8
0
100
AcDbLine
 10
306.5
 20
-43.733599
 30
0.0
 11
306.5
 21
-45.0
 31
0.0
  0
LINE
  5
576
102
{ACAD_REACTORS
330
696
102
}
100
AcDbEntity
  8
0
100
AcDbLine
 10
-51.8
 20
-14.879107
 30
0.0
 11
-51.8
 21
-19.879107
 31
0.0
  0
LINE
  5
577
100
AcDbEntity
  8
0
100
AcDbLine
 10
-11.3
 20
-19.479107
 30
0.0
 11
-11.3
 21
-15.279107
 31
0.0
  0
LINE
  5
578
102
{ACAD_REACTORS
330
639
102
}
100
AcDbEntity
  8
0
100
AcDbLine
 10
-10.9
 20
-14.879107
 30
0.0
 11
-11.3
 21
-15.279107
 31
0.0
  0
LINE
  5
579
102
{ACAD_REACTORS
330
639
102
}
100
AcDbEntity
  8
0
100
AcDbLine
 10
-10.9
 20
-19.879107
 30
0.0
 11
-11.3
 21
-19.479107
 31
0.0
  0
LINE
  5
57D
102
{ACAD_REACTORS
330
7E9
102
}
100
AcDbEntity
  8
0
100
AcDbLine
 10
39.5
 20
-18.0
 30
0.0
 11
39.5
 21
-24.0
 31
0.0
  0
LINE
  5
57E
100
AcDbEntity
  8
0
100
AcDbLine
 10
86.5
 20
-23.4
 30
0.0
 11
86.5
 21
-18.4
 31
0.0
  0
LINE
  5
57F
100
AcDbEntity
  8
0
100
AcDbLine
 10
87.0
 20
-23.9
 30
0.0
 11
86.5
 21
-23.4
 31
0.0
  0
LINE
  5
580
100
AcDbEntity
  8
0
100
AcDbLine
 10
87.0
 20
-17.9
 30
0.0
 11
86.5
 21
-18.4
 31
0.0
  0
LINE
  5
584
100
AcDbEntity
  8
0
100
AcDbLine
 10
156.1
 20
-25.0
 30
0.0
 11
156.1
 21
-33.0
 31
0.0
  0
LINE
  5
585
100
AcDbEntity
  8
0
100
AcDbLine
 10
214.4
 20
-32.4
 30
0.0
 11
214.4
 21
-25.6
 31
0.0
  0
LINE
  5
586
102
{ACAD_REACTORS
330
86E
102
}
100
AcDbEntity
  8
0
100
AcDbLine
 10
215.0
 20
-33.0
 30
0.0
 11
214.4
 21
-32.4
 31
0.0
  0
LINE
  5
587
102
{ACAD_REACTORS
330
86E
102
}
100
AcDbEntity
  8
0
100
AcDbLine
 10
214.4
 20
-25.6
 30
0.0
 11
215.0
 21
-25.0
 31
0.0
  0
LINE
  5
58B
102
{ACAD_REACTORS
330
96F
102
}
100
AcDbEntity
  8
0
100
AcDbLine
 10
284.5
 20
-32.0
 30
0.0
 11
284.5
 21
-42.0
 31
0.0
  0
LINE
  5
58C
100
AcDbEntity
  8
0
100
AcDbLine
 10
353.75
 20
-32.75
 30
0.0
 11
353.75
 21
-41.25
 31
0.0
  0
LINE
  5
58D
102
{ACAD_REACTORS
330
9C2
102
}
100
AcDbEntity
  8
0
100
AcDbLine
 10
354.5
 20
-42.0
 30
0.0
 11
353.75
 21
-41.25
 31
0.0
  0
LINE
  5
58E
102
{ACAD_REACTORS
330
9C2
102
}
100
AcDbEntity
  8
0
100
AcDbLine
 10
353.75
 20
-32.75
 30
0.0
 11
354.5
 21
-32.0
 31
0.0
  0
LINE
  5
58F
100
AcDbEntity
  8
0
100
AcDbLine
 10
334.727122
 20
-32.75
 30
0.0
 11
334.727122
 21
-41.25
 31
0.0
  0
LINE
  5
591
100
AcDbEntity
  8
0
100
AcDbLine
 10
62.0
 20
-26.0
 30
0.0
 11
60.4
 21
-26.0
 31
0.0
  0
ARC
  5
59E
102
{ACAD_REACTORS
330
639
102
}
100
AcDbEntity
  8
0
100
AcDbCircle
 10
-27.121225
 20
-11.379107
 30
0.0
 40
2.0
100
AcDbArc
 50
225.584691
 51
270.0
  0
ARC
  5
59F
102
{ACAD_REACTORS
330
639
102
}
100
AcDbEntity
  8
0
100
AcDbCircle
 10
-27.121225
 20
-23.379107
 30
0.0
 40
2.0
100
AcDbArc
 50
90.0
 51
134.415309
  0
ARC
  5
5A4
102
{ACAD_REACTORS
330
639
102
}
100
AcDbEntity
  8
0
100
AcDbCircle
 10
-33.0
 20
-17.379107
 30
0.0
 40
6.4
100
AcDbArc
 50
45.584691
 51
135.951374
  0
LINE
  5
5A5
102
{ACAD_REACTORS
330
639
102
}
100
AcDbEntity
  8
0
100
AcDbLine
 10
-37.6
 20
-12.929388
 30
0.0
 11
-37.6
 21
-15.209542
 31
0.0
  0
ARC
  5
5A6
102
{ACAD_REACTORS
330
639
102
}
100
AcDbEntity
  8
0
100
AcDbCircle
 10
-33.0
 20
-17.379107
 30
0.0
 40
6.4
100
AcDbArc
 50
224.048626
 51
314.415309
  0
LINE
  5
5A9
100
AcDbEntity
  8
0
  6
CENTER
100
AcDbLine
 10
-33.0
 20
7.379107
 30
0.0
 11
-33.0
 21
-7.620893
 31
0.0
  0
ARC
  5
5AA
100
AcDbEntity
  8
0
100
AcDbCircle
 10
-33.0
 20
0.0
 30
0.0
 40
6.4
100
AcDbArc
 50
224.048626
 51
314.415309
  0
LINE
  5
5AF
100
AcDbEntity
  8
0
  6
CENTER
100
AcDbLine
 10
-53.0
 20
0.0
 30
0.0
 11
-10.0
 21
0.0
 31
0.0
  0
LINE
  5
5B0
100
AcDbEntity
  8
0
100
AcDbLine
 10
-39.5
 20
4.0
 30
0.0
 11
-42.0
 21
4.0
 31
0.0
  0
LINE
  5
5B1
100
AcDbEntity
  8
0
100
AcDbLine
 10
-39.5
 20
-4.0
 30
0.0
 11
-42.0
 21
-4.0
 31
0.0
  0
LINE
  5
5B2
100
AcDbEntity
  8
0
100
AcDbLine
 10
-51.8
 20
2.5
 30
0.0
 11
-51.8
 21
-2.5
 31
0.0
  0
LINE
  5
5B3
100
AcDbEntity
  8
0
100
AcDbLine
 10
-52.2
 20
2.1
 30
0.0
 11
-51.8
 21
2.5
 31
0.0
  0
LINE
  5
5B4
100
AcDbEntity
  8
0
100
AcDbLine
 10
-44.2
 20
2.1
 30
0.0
 11
-43.8
 21
2.5
 31
0.0
  0
LINE
  5
5B5
100
AcDbEntity
  8
0
100
AcDbLine
 10
-42.0
 20
-2.5
 30
0.0
 11
-51.8
 21
-2.5
 31
0.0
  0
LINE
  5
5B6
100
AcDbEntity
  8
0
100
AcDbLine
 10
-44.2
 20
-2.1
 30
0.0
 11
-52.2
 21
-2.1
 31
0.0
  0
LINE
  5
5B7
100
AcDbEntity
  8
0
100
AcDbLine
 10
-44.2
 20
2.1
 30
0.0
 11
-52.2
 21
2.1
 31
0.0
  0
LINE
  5
5B8
100
AcDbEntity
  8
0
100
AcDbLine
 10
-52.2
 20
2.1
 30
0.0
 11
-52.2
 21
-2.1
 31
0.0
  0
LINE
  5
5B9
100
AcDbEntity
  8
0
100
AcDbLine
 10
-52.2
 20
-2.1
 30
0.0
 11
-51.8
 21
-2.5
 31
0.0
  0
LINE
  5
5BB
100
AcDbEntity
  8
0
100
AcDbLine
 10
-44.2
 20
-2.1
 30
0.0
 11
-43.8
 21
-2.5
 31
0.0
  0
LINE
  5
5BC
100
AcDbEntity
  8
0
100
AcDbLine
 10
-42.0
 20
2.5
 30
0.0
 11
-51.8
 21
2.5
 31
0.0
  0
LINE
  5
5BD
100
AcDbEntity
  8
0
100
AcDbLine
 10
-42.0
 20
4.0
 30
0.0
 11
-42.0
 21
-4.0
 31
0.0
  0
LINE
  5
5C0
100
AcDbEntity
  8
0
100
AcDbLine
 10
-27.121225
 20
4.0
 30
0.0
 11
-10.9
 21
4.0
 31
0.0
  0
LINE
  5
5C1
100
AcDbEntity
  8
0
100
AcDbLine
 10
-27.121225
 20
-4.0
 30
0.0
 11
-10.9
 21
-4.0
 31
0.0
  0
ARC
  5
5C2
100
AcDbEntity
  8
0
100
AcDbCircle
 10
-38.5
 20
3.348776
 30
0.0
 40
1.0
100
AcDbArc
 50
180.0
 51
260.647578
  0
LINE
  5
5C3
100
AcDbEntity
  8
0
100
AcDbLine
 10
-37.6
 20
4.449719
 30
0.0
 11
-37.6
 21
-4.449719
 31
0.0
  0
LINE
  5
5C5
100
AcDbEntity
  8
0
100
AcDbLine
 10
-38.662507
 20
-2.362068
 30
0.0
 11
-37.6
 21
-2.169565
 31
0.0
  0
ARC
  5
5C8
100
AcDbEntity
  8
0
100
AcDbCircle
 10
-38.5
 20
-3.348776
 30
0.0
 40
1.0
100
AcDbArc
 50
99.352422
 51
180.0
  0
LINE
  5
5CA
100
AcDbEntity
  8
0
100
AcDbLine
 10
-38.662507
 20
2.362068
 30
0.0
 11
-37.6
 21
2.169565
 31
0.0
  0
ARC
  5
5CD
100
AcDbEntity
  8
0
100
AcDbCircle
 10
-27.121225
 20
-6.0
 30
0.0
 40
2.0
100
AcDbArc
 50
90.0
 51
134.415309
  0
ARC
  5
5CF
100
AcDbEntity
  8
0
100
AcDbCircle
 10
-33.0
 20
0.0
 30
0.0
 40
6.4
100
AcDbArc
 50
45.584691
 51
135.951374
  0
LINE
  5
5D1
100
AcDbEntity
  8
0
100
AcDbLine
 10
-39.5
 20
4.0
 30
0.0
 11
-39.5
 21
-4.0
 31
0.0
  0
ARC
  5
5D7
100
AcDbEntity
  8
0
100
AcDbCircle
 10
-27.121225
 20
6.0
 30
0.0
 40
2.0
100
AcDbArc
 50
225.584691
 51
270.0
  0
LINE
  5
5D9
100
AcDbEntity
  8
0
100
AcDbLine
 10
-10.9
 20
-4.0
 30
0.0
 11
-10.9
 21
4.0
 31
0.0
  0
LINE
  5
5DF
102
{ACAD_REACTORS
330
639
102
}
100
AcDbEntity
  8
0
100
AcDbLine
 10
-37.6
 20
-19.548671
 30
0.0
 11
-37.6
 21
-21.828826
 31
0.0
  0
HATCH
  5
639
100
AcDbEntity
  8
0
100
AcDbHatch
 10
0.0
 20
0.0
 30
0.0
210
0.0
220
0.0
230
1.0
  2
ANSI31
 70
     0
 71
     1
 91
        6
 92
        7
 72
     1
 73
     1
 93
       11
 10
-33.0
 20
-21.37410354015568
 42
0.0
 10
-33.0
 20
-23.77910666906804
 42
0.1962615682814115
 10
-28.52093304176792
 20
-21.95053524049664
 42
-0.1962615682814108
 10
-27.1212246173204
 20
-21.37910666906808
 42
0.0
 10
-10.9
 20
-21.37910666906808
 42
0.0
 10
-10.9
 20
-19.87910666906807
 42
0.0
 10
-21.40000000000001
 20
-19.87910666906808
 42
0.0
 10
-21.4
 20
-19.47910666906807
 42
0.0
 10
-23.86820154079007
 20
-19.47910666906807
 42
0.0
 10
-25.08063710608828
 20
-17.37910666906805
 42
0.0
 10
-29.2
 20
-17.37910666906805
 42
-0.3996375341443298
 97
       11
330
363
330
360
330
380
330
381
330
377
330
5A6
330
59F
330
378
330
37F
330
365
330
362
 92
        7
 72
     1
 73
     1
 93
        9
 10
-33.0
 20
-21.37410354015568
 42
-0.0125058660989459
 10
-33.2
 20
-21.37910666906805
 42
0.0
 10
-34.29999999999999
 20
-21.37910666906805
 42
0.0
 10
-34.29999999999999
 20
-22.37910666906806
 42
0.0
 10
-35.29999999999999
 20
-22.37910666906806
 42
0.0
 10
-35.29999999999999
 20
-21.37910666906806
 42
0.0
 10
-37.60000000000001
 20
-21.37910666906806
 42
0.0
 10
-37.60000000000001
 20
-21.82882576132544
 42
0.2032313571302706
 10
-33.0
 20
-23.77910666906804
 42
0.0
 97
        9
330
381
330
38A
330
38B
330
38C
330
38D
330
38E
330
5DF
330
5A6
330
377
 92
        7
 72
     1
 73
     1
 93
        9
 10
-33.0
 20
-10.97910666906805
 42
0.2032313571302704
 10
-37.60000000000001
 20
-12.92938757681065
 42
0.0
 10
-37.60000000000001
 20
-13.37910666906805
 42
0.0
 10
-35.29999999999999
 20
-13.37910666906805
 42
0.0
 10
-35.29999999999999
 20
-12.37910666906805
 42
0.0
 10
-34.29999999999999
 20
-12.37910666906805
 42
0.0
 10
-34.3
 20
-13.37910666906805
 42
0.0
 10
-33.2
 20
-13.37910666906805
 42
-0.0125058660989459
 10
-33.0
 20
-13.38410979798042
 42
0.0
 97
        9
330
5A4
330
5A5
330
389
330
385
330
388
330
387
330
376
330
381
330
377
 92
        7
 72
     1
 73
     1
 93
       11
 10
-29.20000000000001
 20
-17.37910666906805
 42
0.0
 10
-25.08063710608827
 20
-17.37910666906804
 42
0.0
 10
-23.86820154079007
 20
-15.27910666906808
 42
0.0
 10
-21.40000000000001
 20
-15.27910666906808
 42
0.0
 10
-21.4
 20
-14.87910666906805
 42
0.0
 10
-10.9
 20
-14.87910666906805
 42
0.0
 10
-10.9
 20
-13.37910666906805
 42
0.0
 10
-27.12122461732036
 20
-13.37910666906805
 42
-0.1962615682814126
 10
-28.52093304176788
 20
-12.80767809763948
 42
0.1962615682814131
 10
-33.0
 20
-10.97910666906804
 42
0.0
 10
-33.0
 20
-13.38410979798041
 42
-0.399637534144329
 97
       11
330
37C
330
59E
330
5A4
330
377
330
381
330
380
330
361
330
364
330
362
330
366
330
37F
 92
       22
 72
     0
 73
     1
 93
        4
 10
-21.4
 20
-19.47910666906807
 10
-21.4
 20
-19.87910666906808
 10
-10.9
 20
-19.87910666906807
 10
-11.3
 20
-19.47910666906807
 97
        4
330
363
330
362
330
365
330
579
 92
       23
 72
     0
 73
     1
 93
        4
 10
-11.3
 20
-15.27910666906808
 10
-10.9
 20
-14.87910666906805
 10
-21.40000000000001
 20
-14.87910666906805
 10
-21.40000000000001
 20
-15.27910666906808
 97
        4
330
366
330
362
330
364
330
578
 75
     0
 76
     1
 52
0.0
 41
10.0
 77
     0
 78
     1
 53
45.0
 43
0.0
 44
1.0
 45
-0.8838834764831842
 46
0.8838834764831844
 79
     0
 47
0.044832
 98
        6
 10
-28.142812
 20
-19.86675
 10
-33.614636
 20
-22.96015
 10
-33.435233
 20
-12.334994
 10
-29.35379
 20
-14.397261
 10
-18.230737
 20
-19.64259
 10
-18.275588
 20
-15.114571
  0
HATCH
  5
696
100
AcDbEntity
  8
0
100
AcDbHatch
 10
0.0
 20
0.0
 30
0.0
210
0.0
220
0.0
230
1.0
  2
ANSI31
 70
     0
 71
     1
 91
       10
 92
        7
 72
     1
 73
     1
 93
       14
 10
-44.19999999999999
 20
-19.47910666906805
 42
0.0
 10
-43.79999999999999
 20
-19.87910666906805
 42
0.0
 10
-42.0
 20
-19.87910666906805
 42
0.0
 10
-42.0
 20
-21.37910666906805
 42
0.0
 10
-39.5
 20
-21.37910666906805
 42
0.0
 10
-39.5
 20
-20.72788240106996
 42
-0.367173447067955
 10
-38.66250666537076
 20
-19.74117495521274
 42
0.0
 10
-36.66410161513775
 20
-19.37910666906806
 42
0.1695768492503913
 10
-34.66614003643069
 20
-21.10072370922345
 42
-0.0463765957636393
 10
-34.57964056586449
 20
-21.1336495052894
 42
0.100881124610109
 10
-33.0
 20
-21.37410354015568
 42
0.0
 10
-33.0
 20
-17.37910666906805
 42
0.0
 10
-51.8
 20
-17.37910666906805
 42
0.0
 10
-51.79999999999999
 20
-19.47910666906805
 42
0.0
 97
       13
330
380
330
576
330
36B
330
36A
330
373
330
384
330
36D
330
383
330
3D2
330
36F
330
381
330
38F
330
377
 92
       22
 72
     0
 73
     1
 93
        4
 10
-43.8
 20
-19.87910666906805
 10
-44.2
 20
-19.47910666906806
 10
-51.79999999999999
 20
-19.47910666906805
 10
-51.79999999999999
 20
-19.87910666906805
 97
        4
330
36B
330
576
330
373
330
36A
 92
        7
 72
     0
 73
     1
 93
        3
 10
-51.8
 20
-19.47910666906804
 10
-52.2
 20
-19.47910666906805
 10
-51.8
 20
-19.87910666906805
 97
        3
330
36B
330
367
330
576
 92
        7
 72
     0
 73
     1
 93
        4
 10
-52.2
 20
-17.37910666906805
 10
-51.79999999999999
 20
-17.37910666906805
 10
-51.79999999999999
 20
-15.27910666906804
 10
-52.20000000000001
 20
-15.27910666906804
 97
        4
330
36C
330
375
330
380
330
576
 92
        7
 72
     0
 73
     1
 93
        4
 10
-52.2
 20
-19.47910666906804
 10
-51.79999999999999
 20
-19.47910666906805
 10
-51.79999999999999
 20
-17.37910666906805
 10
-52.2
 20
-17.37910666906805
 97
        4
330
380
330
375
330
36B
330
576
 92
        7
 72
     0
 73
     1
 93
        3
 10
-51.79999999999999
 20
-14.87910666906805
 10
-52.2
 20
-15.27910666906804
 10
-51.79999999999999
 20
-15.27910666906804
 97
        3
330
368
330
36C
330
576
 92
       22
 72
     0
 73
     1
 93
        4
 10
-44.19999999999999
 20
-15.27910666906804
 10
-43.79999999999999
 20
-14.87910666906805
 10
-51.79999999999999
 20
-14.87910666906805
 10
-51.79999999999999
 20
-15.27910666906804
 97
        4
330
374
330
576
330
36C
330
369
 92
        7
 72
     1
 73
     1
 93
       12
 10
-43.79999999999999
 20
-14.87910666906805
 42
0.0
 10
-44.2
 20
-15.27910666906804
 42
0.0
 10
-51.79999999999999
 20
-15.27910666906804
 42
0.0
 10
-51.79999999999999
 20
-17.37910666906805
 42
0.0
 10
-33.0
 20
-17.37910666906804
 42
0.0
 10
-33.0
 20
-13.38410979798041
 42
0.2813980054399563
 10
-36.66410161513775
 20
-15.37910666906804
 42
0.0
 10
-38.6625066653708
 20
-15.01703838292335
 42
-0.3671734470679457
 10
-39.5
 20
-14.03033093706613
 42
0.0
 10
-39.5
 20
-13.37910666906805
 42
0.0
 10
-42.0
 20
-13.37910666906805
 42
0.0
 10
-42.0
 20
-14.87910666906805
 42
0.0
 97
       12
330
381
330
370
330
3D1
330
371
330
36E
330
372
330
374
330
369
330
36C
330
576
330
380
330
377
 92
        7
 72
     1
 73
     1
 93
        3
 10
-29.2
 20
-17.37910666906805
 42
0.3996375341443295
 10
-33.0
 20
-13.38410979798041
 42
0.0
 10
-33.0
 20
-17.37910666906805
 42
0.0
 97
        3
330
377
330
380
330
381
 92
        7
 72
     1
 73
     1
 93
        3
 10
-33.0
 20
-17.37910666906805
 42
0.0
 10
-33.0
 20
-21.37410354015568
 42
0.3996375341443298
 10
-29.2
 20
-17.37910666906805
 42
0.0
 97
        3
330
380
330
377
330
381
 75
     0
 76
     1
 52
90.0
 41
10.0
 77
     0
 78
     1
 53
135.0
 43
0.0
 44
1.0
 45
-0.8838834764831844
 46
-0.8838834764831842
 79
     0
 47
0.044832
 98
       10
 10
-45.500157
 20
-18.476962
 10
-46.038368
 20
-19.777086
 10
-51.824151
 20
-19.597759
 10
-52.003554
 20
-16.459527
 10
-52.003554
 20
-18.163139
 10
-51.869001
 20
-15.114571
 10
-50.92713
 20
-15.114571
 10
-42.809095
 20
-15.876713
 10
-31.59634
 20
-16.369863
 10
-31.506639
 20
-18.521793
  0
LINE
  5
697
100
AcDbEntity
  8
0
100
AcDbLine
 10
-42.0
 20
2.0
 30
0.0
 11
-39.5
 21
2.0
 31
0.0
  0
LINE
  5
698
100
AcDbEntity
  8
0
100
AcDbLine
 10
-42.0
 20
-2.0
 30
0.0
 11
-39.5
 21
-2.0
 31
0.0
  0
CIRCLE
  5
69B
100
AcDbEntity
  8
0
100
AcDbCircle
 10
-62.0
 20
0.0
 30
0.0
 40
4.031909
  0
ARC
  5
69C
100
AcDbEntity
  8
0
100
AcDbCircle
 10
-62.0
 20
0.0
 30
0.0
 40
2.5
100
AcDbArc
 50
0.0
 51
270.0
  0
CIRCLE
  5
69D
100
AcDbEntity
  8
0
100
AcDbCircle
 10
-62.0
 20
0.0
 30
0.0
 40
2.1
  0
LINE
  5
6A2
100
AcDbEntity
  8
0
100
AcDbLine
 10
-64.94587
 20
-2.884409
 30
0.0
 11
-64.981683
 21
-2.714011
 31
0.0
  0
CIRCLE
  5
6A8
100
AcDbEntity
  8
0
100
AcDbCircle
 10
-62.0
 20
0.0
 30
0.0
 40
6.4
  0
ARC
  5
6AE
100
AcDbEntity
  8
0
100
AcDbCircle
 10
62.0
 20
-21.0
 30
0.0
 40
7.5
100
AcDbArc
 50
223.94552
 51
313.421584
  0
LINE
  5
6AF
100
AcDbEntity
  8
0
100
AcDbLine
 10
56.6
 20
-15.795195
 30
0.0
 11
56.6
 21
-18.89673
 31
0.0
  0
LINE
  5
6B0
100
AcDbEntity
  8
0
  6
CENTER
100
AcDbLine
 10
62.0
 20
8.9
 30
0.0
 11
62.0
 21
-9.1
 31
0.0
  0
ARC
  5
6B1
100
AcDbEntity
  8
0
100
AcDbCircle
 10
62.0
 20
-0.1
 30
0.0
 40
7.5
100
AcDbArc
 50
223.94552
 51
313.421584
  0
LINE
  5
6B2
100
AcDbEntity
  8
0
  6
CENTER
100
AcDbLine
 10
37.5
 20
0.0
 30
0.0
 11
88.5
 21
0.0
 31
0.0
  0
LINE
  5
6B4
100
AcDbEntity
  8
0
100
AcDbLine
 10
51.0
 20
2.9
 30
0.0
 11
39.5
 21
2.9
 31
0.0
  0
LINE
  5
6B5
100
AcDbEntity
  8
0
100
AcDbLine
 10
51.0
 20
-3.1
 30
0.0
 11
39.5
 21
-3.1
 31
0.0
  0
LINE
  5
6B6
100
AcDbEntity
  8
0
100
AcDbLine
 10
49.0
 20
-2.6
 30
0.0
 11
39.0
 21
-2.6
 31
0.0
  0
LINE
  5
6B7
100
AcDbEntity
  8
0
100
AcDbLine
 10
49.0
 20
2.4
 30
0.0
 11
39.0
 21
2.4
 31
0.0
  0
LINE
  5
6B8
100
AcDbEntity
  8
0
100
AcDbLine
 10
39.5
 20
2.9
 30
0.0
 11
39.5
 21
-3.1
 31
0.0
  0
LINE
  5
6B9
100
AcDbEntity
  8
0
100
AcDbLine
 10
39.0
 20
2.4
 30
0.0
 11
39.0
 21
-2.6
 31
0.0
  0
LINE
  5
6BA
100
AcDbEntity
  8
0
100
AcDbLine
 10
39.0
 20
-2.6
 30
0.0
 11
39.5
 21
-3.1
 31
0.0
  0
LINE
  5
6BB
100
AcDbEntity
  8
0
100
AcDbLine
 10
39.0
 20
2.4
 30
0.0
 11
39.5
 21
2.9
 31
0.0
  0
LINE
  5
6BC
100
AcDbEntity
  8
0
100
AcDbLine
 10
56.6
 20
5.104805
 30
0.0
 11
56.6
 21
-5.304805
 31
0.0
  0
ARC
  5
6BD
100
AcDbEntity
  8
0
100
AcDbCircle
 10
55.3
 20
-3.878588
 30
0.0
 40
1.5
100
AcDbArc
 50
99.111997
 51
180.0
  0
LINE
  5
6C0
100
AcDbEntity
  8
0
100
AcDbLine
 10
53.8
 20
-5.1
 30
0.0
 11
51.0
 21
-5.1
 31
0.0
  0
LINE
  5
6C1
100
AcDbEntity
  8
0
100
AcDbLine
 10
49.0
 20
-2.6
 30
0.0
 11
49.5
 21
-3.1
 31
0.0
  0
LINE
  5
6C8
100
AcDbEntity
  8
0
100
AcDbLine
 10
55.062453
 20
-2.397517
 30
0.0
 11
56.6
 21
-2.20327
 31
0.0
  0
ARC
  5
6C9
100
AcDbEntity
  8
0
100
AcDbCircle
 10
55.3
 20
3.678588
 30
0.0
 40
1.5
100
AcDbArc
 50
180.0
 51
260.888003
  0
LINE
  5
6CA
100
AcDbEntity
  8
0
100
AcDbLine
 10
51.0
 20
4.9
 30
0.0
 11
51.0
 21
-5.1
 31
0.0
  0
LINE
  5
6CB
100
AcDbEntity
  8
0
100
AcDbLine
 10
49.0
 20
2.4
 30
0.0
 11
49.5
 21
2.9
 31
0.0
  0
LINE
  5
6CC
100
AcDbEntity
  8
0
100
AcDbLine
 10
53.8
 20
4.9
 30
0.0
 11
51.0
 21
4.9
 31
0.0
  0
LINE
  5
6CD
100
AcDbEntity
  8
0
100
AcDbLine
 10
53.8
 20
4.9
 30
0.0
 11
53.8
 21
-5.1
 31
0.0
  0
LINE
  5
6CE
100
AcDbEntity
  8
0
100
AcDbLine
 10
55.062453
 20
2.197517
 30
0.0
 11
56.6
 21
2.00327
 31
0.0
  0
LINE
  5
6D5
100
AcDbEntity
  8
0
100
AcDbLine
 10
68.311894
 20
5.0
 30
0.0
 11
87.0
 21
5.0
 31
0.0
  0
LINE
  5
6D6
100
AcDbEntity
  8
0
100
AcDbLine
 10
68.529931
 20
-5.0
 30
0.0
 11
87.0
 21
-5.0
 31
0.0
  0
LINE
  5
6E0
100
AcDbEntity
  8
0
100
AcDbLine
 10
87.0
 20
-5.0
 30
0.0
 11
87.0
 21
5.0
 31
0.0
  0
ARC
  5
6E3
100
AcDbEntity
  8
0
100
AcDbCircle
 10
68.529931
 20
-27.9
 30
0.0
 40
2.0
100
AcDbArc
 50
90.0
 51
133.421584
  0
ARC
  5
6E4
100
AcDbEntity
  8
0
100
AcDbCircle
 10
62.0
 20
-21.0
 30
0.0
 40
7.5
100
AcDbArc
 50
48.362934
 51
136.05448
  0
ARC
  5
6E5
100
AcDbEntity
  8
0
100
AcDbCircle
 10
68.311894
 20
-13.9
 30
0.0
 40
2.0
100
AcDbArc
 50
228.362934
 51
270.0
  0
ARC
  5
6E6
100
AcDbEntity
  8
0
100
AcDbCircle
 10
68.529931
 20
-7.0
 30
0.0
 40
2.0
100
AcDbArc
 50
90.0
 51
133.421584
  0
ARC
  5
6E7
100
AcDbEntity
  8
0
100
AcDbCircle
 10
62.0
 20
-0.1
 30
0.0
 40
7.5
100
AcDbArc
 50
48.362934
 51
136.05448
  0
ARC
  5
6E8
100
AcDbEntity
  8
0
100
AcDbCircle
 10
68.311894
 20
7.0
 30
0.0
 40
2.0
100
AcDbArc
 50
228.362934
 51
270.0
  0
HATCH
  5
763
100
AcDbEntity
  8
0
100
AcDbHatch
 10
0.0
 20
0.0
 30
0.0
210
0.0
220
0.0
230
1.0
  2
ANSI31
 70
     0
 71
     0
 91
        6
 92
        7
 72
     1
 73
     1
 93
       11
 10
71.51212901116259
 20
-20.89999999999997
 42
0.0
 10
66.99899989997999
 20
-20.89999999999997
 42
-0.4200840252084064
 10
61.99999999999997
 20
-26.0
 42
0.0
 10
61.99999999999997
 20
-28.5
 42
0.1917624113063195
 10
67.15520875283615
 20
-26.44736842105263
 42
-0.1917624113063183
 10
68.52993108692579
 20
-25.9
 42
0.0
 10
87.00000000000001
 20
-25.9
 42
0.0
 10
87.00000000000001
 20
-23.89999999999997
 42
0.0
 10
75.49999999999998
 20
-23.89999999999997
 42
0.0
 10
75.49999999999998
 20
-23.39999999999997
 42
0.0
 10
72.95550468413665
 20
-23.39999999999997
 42
0.0
 97
        0
 92
        7
 72
     1
 73
     1
 93
        8
 10
61.99999999999998
 20
-26.00000000000001
 42
0.0
 10
60.4
 20
-26.00000000000001
 42
0.0
 10
60.39999999999999
 20
-27.0
 42
0.0
 10
59.39999999999999
 20
-27.0
 42
0.0
 10
59.39999999999999
 20
-26.0
 42
0.0
 10
56.60000000000001
 20
-26.0
 42
0.0
 10
56.60000000000001
 20
-26.20480547186925
 42
0.2036998668853033
 10
61.99999999999997
 20
-28.5
 42
0.0
 97
        0
 92
        7
 72
     1
 73
     1
 93
        8
 10
61.99999999999997
 20
-13.5
 42
0.2036998668853033
 10
56.60000000000001
 20
-15.79519452813075
 42
0.0
 10
56.60000000000001
 20
-16.00000000000001
 42
0.0
 10
59.39999999999999
 20
-16.00000000000001
 42
0.0
 10
59.39999999999999
 20
-15.00000000000001
 42
0.0
 10
60.39999999999999
 20
-15.00000000000001
 42
0.0
 10
60.39999999999999
 20
-16.0
 42
0.0
 10
61.99999999999997
 20
-16.0
 42
0.0
 97
        0
 92
        7
 72
     1
 73
     1
 93
       11
 10
87.00000000000001
 20
-15.9
 42
0.0
 10
68.3118935352238
 20
-15.9
 42
-0.1837015296791057
 10
66.98307384359774
 20
-15.39473684210526
 42
0.1837015296791064
 10
61.99999999999997
 20
-13.5
 42
0.0
 10
61.99999999999997
 20
-15.99999999999999
 42
-0.4083673673510222
 10
66.99899989997999
 20
-20.89999999999997
 42
0.0
 10
71.51212901116263
 20
-20.89999999999997
 42
0.0
 10
72.95550468413664
 20
-18.4
 42
0.0
 10
75.5
 20
-18.4
 42
0.0
 10
75.50000000000003
 20
-17.9
 42
0.0
 10
87.00000000000001
 20
-17.9
 42
0.0
 97
        0
 92
       22
 72
     0
 73
     1
 93
        4
 10
86.99999999999999
 20
-17.9
 10
75.5
 20
-17.9
 10
75.49999999999998
 20
-18.4
 10
86.5
 20
-18.4
 97
        0
 92
       23
 72
     0
 73
     1
 93
        4
 10
86.5
 20
-23.39999999999997
 10
75.49999999999998
 20
-23.39999999999997
 10
75.5
 20
-23.89999999999997
 10
87.00000000000001
 20
-23.89999999999997
 97
        0
 75
     0
 76
     1
 52
0.0
 41
10.0
 77
     0
 78
     1
 53
45.0
 43
0.0
 44
9.0
 45
-0.8838834764831842
 46
0.8838834764831844
 79
     0
 47
0.103362
 98
        6
 10
70.297464
 20
-23.242217
 10
60.887471
 20
-27.583437
 10
61.404505
 20
-15.179951
 10
66.678237
 20
-16.420299
 10
77.329108
 20
-18.17746
 10
80.638116
 20
-23.655666
  0
LINE
  5
764
100
AcDbEntity
  8
0
100
AcDbLine
 10
56.6
 20
-23.10327
 30
0.0
 11
56.6
 21
-26.204805
 31
0.0
  0
HATCH
  5
7E9
100
AcDbEntity
  8
0
100
AcDbHatch
 10
0.0
 20
0.0
 30
0.0
210
0.0
220
0.0
230
1.0
  2
ANSI31
 70
     0
 71
     1
 91
       10
 92
       22
 72
     0
 73
     1
 93
        4
 10
39.50000000000001
 20
-23.5
 10
39.50000000000001
 20
-24.0
 10
49.49999999999999
 20
-23.99999999999999
 10
48.99999999999999
 20
-23.5
 97
        4
330
3DF
330
57D
330
3FA
330
3DE
 92
        7
 72
     0
 73
     1
 93
        3
 10
39.50000000000002
 20
-23.5
 10
38.99999999999998
 20
-23.5
 10
39.50000000000001
 20
-24.00000000000003
 97
        3
330
3DF
330
3DB
330
57D
 92
        7
 72
     0
 73
     1
 93
        4
 10
39.49999999999999
 20
-20.89999999999997
 10
38.99999999999999
 20
-20.89999999999997
 10
38.99999999999998
 20
-23.5
 10
39.50000000000001
 20
-23.5
 97
        4
330
456
330
3FB
330
3DF
330
57D
 92
        7
 72
     1
 73
     1
 93
       12
 10
39.50000000000001
 20
-23.5
 42
0.0
 10
48.99999999999998
 20
-23.5
 42
0.0
 10
49.49999999999998
 20
-24.0
 42
0.0
 10
50.99999999999999
 20
-24.0
 42
0.0
 10
51.0
 20
-26.0
 42
0.0
 10
53.80000000000001
 20
-26.0
 42
0.0
 10
53.80000000000001
 20
-24.77858769441958
 42
-0.3683643871983694
 10
55.06245277228434
 20
-23.29751669186616
 42
0.0
 10
57.41742430504417
 20
-23.00000000000001
 42
0.2982166266986041
 10
61.99999999999997
 20
-25.99999999999998
 42
0.0
 10
61.99999999999996
 20
-20.89999999999997
 42
0.0
 10
39.50000000000001
 20
-20.89999999999997
 42
0.0
 97
       12
330
456
330
57D
330
3DF
330
3DE
330
3FA
330
455
330
3F4
330
454
330
3F0
330
3F2
330
400
330
401
 92
        7
 72
     1
 73
     1
 93
       12
 10
39.50000000000001
 20
-20.89999999999997
 42
0.0
 10
61.99999999999997
 20
-20.89999999999997
 42
0.0
 10
61.99999999999997
 20
-15.99999999999999
 42
0.298216626698606
 10
57.41742430504416
 20
-19.0
 42
0.0
 10
55.06245277228425
 20
-18.70248330813382
 42
-0.3683643871983528
 10
53.80000000000001
 20
-17.22141230558041
 42
0.0
 10
53.80000000000001
 20
-16.0
 42
0.0
 10
51.0
 20
-16.0
 42
0.0
 10
50.99999999999999
 20
-18.0
 42
0.0
 10
49.49999999999999
 20
-18.0
 42
0.0
 10
48.99999999999999
 20
-18.5
 42
0.0
 10
39.49999999999998
 20
-18.5
 42
0.0
 97
       12
330
400
330
3F3
330
3F1
330
3F6
330
3F5
330
3F8
330
3F9
330
3DD
330
3E0
330
57D
330
456
330
401
 92
        7
 72
     0
 73
     1
 93
        4
 10
39.49999999999998
 20
-18.5
 10
38.99999999999998
 20
-18.5
 10
38.99999999999998
 20
-20.89999999999997
 10
39.5
 20
-20.89999999999997
 97
        4
330
3E0
330
3FB
330
456
330
57D
 92
        7
 72
     0
 73
     1
 93
        3
 10
39.49999999999998
 20
-18.0
 10
38.99999999999998
 20
-18.5
 10
39.49999999999999
 20
-18.5
 97
        3
330
3DC
330
3E0
330
57D
 92
       22
 72
     0
 73
     1
 93
        4
 10
48.99999999999998
 20
-18.5
 10
49.49999999999999
 20
-18.0
 10
39.49999999999998
 20
-18.0
 10
39.49999999999999
 20
-18.5
 97
        4
330
3F9
330
57D
330
3E0
330
3DD
 92
        7
 72
     1
 73
     1
 93
        3
 10
61.99999999999998
 20
-20.89999999999997
 42
0.0
 10
61.99999999999997
 20
-25.99999999999999
 42
0.4200840252084056
 10
66.99899989997999
 20
-20.89999999999997
 42
0.0
 97
        3
330
456
330
401
330
400
 92
        7
 72
     1
 73
     1
 93
        3
 10
66.99899989997999
 20
-20.89999999999997
 42
0.4083673673510226
 10
61.99999999999997
 20
-15.99999999999998
 42
0.0
 10
61.99999999999997
 20
-20.89999999999997
 42
0.0
 97
        3
330
401
330
456
330
400
 75
     0
 76
     1
 52
90.0
 41
10.0
 77
     0
 78
     1
 53
135.0
 43
0.0
 44
9.0
 45
-0.8838834764831844
 46
-0.8838834764831842
 79
     0
 47
0.029883
 98
       10
 10
41.880278
 20
-23.695368
 10
39.369051
 20
-23.635603
 10
39.339155
 20
-21.812751
 10
40.146336
 20
-22.021931
 10
39.57832
 20
-20.049665
 10
39.339155
 20
-19.332476
 10
39.398946
 20
-18.376227
 10
40.176231
 20
-18.316461
 10
63.793738
 20
-22.171345
 10
63.584469
 20
-19.810602
  0
LINE
  5
7EA
100
AcDbEntity
  8
0
100
AcDbLine
 10
51.0
 20
-2.6
 30
0.0
 11
53.8
 21
-2.6
 31
0.0
  0
LINE
  5
7EB
100
AcDbEntity
  8
0
100
AcDbLine
 10
51.0
 20
2.4
 30
0.0
 11
53.8
 21
2.4
 31
0.0
  0
CIRCLE
  5
7F6
100
AcDbEntity
  8
0
100
AcDbCircle
 10
26.0
 20
0.1
 30
0.0
 40
2.5
  0
ARC
  5
7F7
100
AcDbEntity
  8
0
100
AcDbCircle
 10
26.0
 20
0.1
 30
0.0
 40
3.0
100
AcDbArc
 50
358.089787
 51
270.0
  0
CIRCLE
  5
7F8
100
AcDbEntity
  8
0
100
AcDbCircle
 10
26.0
 20
0.1
 30
0.0
 40
5.0
  0
CIRCLE
  5
7FB
100
AcDbEntity
  8
0
100
AcDbCircle
 10
26.0
 20
0.1
 30
0.0
 40
7.5
  0
ARC
  5
7FF
102
{ACAD_REACTORS
330
86E
102
}
100
AcDbEntity
  8
0
100
AcDbCircle
 10
185.0
 20
-29.0
 30
0.0
 40
9.65
100
AcDbArc
 50
46.854022
 51
138.254872
  0
LINE
  5
801
102
{ACAD_REACTORS
330
86E
102
}
100
AcDbEntity
  8
0
100
AcDbLine
 10
181.8
 20
-35.5
 30
0.0
 11
177.8
 21
-35.5
 31
0.0
  0
ARC
  5
802
102
{ACAD_REACTORS
330
86E
102
}
100
AcDbEntity
  8
0
100
AcDbCircle
 10
192.966963
 20
-37.5
 30
0.0
 40
2.0
100
AcDbArc
 50
90.0
 51
133.145978
  0
ARC
  5
803
102
{ACAD_REACTORS
330
86E
102
}
100
AcDbEntity
  8
0
100
AcDbCircle
 10
192.966963
 20
-20.5
 30
0.0
 40
2.0
100
AcDbArc
 50
226.854022
 51
270.0
  0
LINE
  5
805
102
{ACAD_REACTORS
330
86E
102
}
100
AcDbEntity
  8
0
100
AcDbLine
 10
215.0
 20
-35.5
 30
0.0
 11
215.0
 21
-22.5
 31
0.0
  0
LINE
  5
806
100
AcDbEntity
  8
0
100
AcDbLine
 10
177.8
 20
-22.574854
 30
0.0
 11
177.8
 21
-25.45914
 31
0.0
  0
ARC
  5
807
102
{ACAD_REACTORS
330
86E
102
}
100
AcDbEntity
  8
0
100
AcDbCircle
 10
185.0
 20
-29.0
 30
0.0
 40
9.65
100
AcDbArc
 50
221.745128
 51
313.145978
  0
LINE
  5
809
100
AcDbEntity
  8
0
  6
CENTER
100
AcDbLine
 10
154.0
 20
0.0
 30
0.0
 11
216.5
 21
0.0
 31
0.0
  0
LINE
  5
80A
100
AcDbEntity
  8
0
100
AcDbLine
 10
171.95
 20
-4.0
 30
0.0
 11
156.1
 21
-4.0
 31
0.0
  0
LINE
  5
80B
100
AcDbEntity
  8
0
100
AcDbLine
 10
171.95
 20
4.0
 30
0.0
 11
156.1
 21
4.0
 31
0.0
  0
LINE
  5
80C
100
AcDbEntity
  8
0
100
AcDbLine
 10
169.0
 20
3.4
 30
0.0
 11
155.5
 21
3.4
 31
0.0
  0
LINE
  5
80D
100
AcDbEntity
  8
0
100
AcDbLine
 10
169.0
 20
-3.4
 30
0.0
 11
155.5
 21
-3.4
 31
0.0
  0
LINE
  5
80E
100
AcDbEntity
  8
0
100
AcDbLine
 10
156.1
 20
4.0
 30
0.0
 11
156.1
 21
-4.0
 31
0.0
  0
LINE
  5
80F
100
AcDbEntity
  8
0
100
AcDbLine
 10
155.5
 20
-3.4
 30
0.0
 11
155.5
 21
3.4
 31
0.0
  0
LINE
  5
810
100
AcDbEntity
  8
0
100
AcDbLine
 10
155.5
 20
-3.4
 30
0.0
 11
156.1
 21
-4.0
 31
0.0
  0
LINE
  5
811
100
AcDbEntity
  8
0
100
AcDbLine
 10
155.5
 20
3.4
 30
0.0
 11
156.1
 21
4.0
 31
0.0
  0
LINE
  5
812
100
AcDbEntity
  8
0
  6
CENTER
100
AcDbLine
 10
185.0
 20
11.0
 30
0.0
 11
185.0
 21
-11.0
 31
0.0
  0
LINE
  5
813
100
AcDbEntity
  8
0
100
AcDbLine
 10
169.0
 20
3.4
 30
0.0
 11
169.0
 21
-3.4
 31
0.0
  0
LINE
  5
814
100
AcDbEntity
  8
0
100
AcDbLine
 10
177.8
 20
6.425146
 30
0.0
 11
177.8
 21
-6.425146
 31
0.0
  0
LINE
  5
819
100
AcDbEntity
  8
0
100
AcDbLine
 10
215.0
 20
-6.5
 30
0.0
 11
215.0
 21
6.5
 31
0.0
  0
LINE
  5
81B
100
AcDbEntity
  8
0
100
AcDbLine
 10
192.966963
 20
-6.5
 30
0.0
 11
215.0
 21
-6.5
 31
0.0
  0
ARC
  5
81E
100
AcDbEntity
  8
0
100
AcDbCircle
 10
185.0
 20
0.0
 30
0.0
 40
9.65
100
AcDbArc
 50
221.745128
 51
313.145978
  0
LINE
  5
81F
100
AcDbEntity
  8
0
100
AcDbLine
 10
176.026709
 20
-3.807807
 30
0.0
 11
177.8
 21
-3.54086
 31
0.0
  0
LINE
  5
822
100
AcDbEntity
  8
0
100
AcDbLine
 10
174.75
 20
-6.5
 30
0.0
 11
171.95
 21
-6.5
 31
0.0
  0
LINE
  5
823
100
AcDbEntity
  8
0
100
AcDbLine
 10
169.0
 20
-3.4
 30
0.0
 11
169.6
 21
-4.0
 31
0.0
  0
ARC
  5
824
100
AcDbEntity
  8
0
100
AcDbCircle
 10
176.25
 20
-5.291095
 30
0.0
 40
1.5
100
AcDbArc
 50
98.56089
 51
180.0
  0
ARC
  5
82B
100
AcDbEntity
  8
0
100
AcDbCircle
 10
192.966963
 20
-8.5
 30
0.0
 40
2.0
100
AcDbArc
 50
90.0
 51
133.145978
  0
LINE
  5
82D
100
AcDbEntity
  8
0
100
AcDbLine
 10
192.966963
 20
6.5
 30
0.0
 11
215.0
 21
6.5
 31
0.0
  0
ARC
  5
830
100
AcDbEntity
  8
0
100
AcDbCircle
 10
185.0
 20
0.0
 30
0.0
 40
9.65
100
AcDbArc
 50
46.854022
 51
138.254872
  0
ARC
  5
831
100
AcDbEntity
  8
0
100
AcDbCircle
 10
176.25
 20
5.291095
 30
0.0
 40
1.5
100
AcDbArc
 50
180.0
 51
261.43911
  0
LINE
  5
832
100
AcDbEntity
  8
0
100
AcDbLine
 10
171.95
 20
-6.5
 30
0.0
 11
171.95
 21
6.5
 31
0.0
  0
LINE
  5
833
100
AcDbEntity
  8
0
100
AcDbLine
 10
176.026709
 20
3.807807
 30
0.0
 11
177.8
 21
3.54086
 31
0.0
  0
LINE
  5
834
100
AcDbEntity
  8
0
100
AcDbLine
 10
169.0
 20
3.4
 30
0.0
 11
169.6
 21
4.0
 31
0.0
  0
LINE
  5
835
100
AcDbEntity
  8
0
100
AcDbLine
 10
174.75
 20
6.5
 30
0.0
 11
171.95
 21
6.5
 31
0.0
  0
LINE
  5
836
100
AcDbEntity
  8
0
100
AcDbLine
 10
174.75
 20
-6.5
 30
0.0
 11
174.75
 21
6.5
 31
0.0
  0
ARC
  5
83E
100
AcDbEntity
  8
0
100
AcDbCircle
 10
192.966963
 20
8.5
 30
0.0
 40
2.0
100
AcDbArc
 50
226.854022
 51
270.0
  0
LINE
  5
840
100
AcDbEntity
  8
0
100
AcDbLine
 10
177.8
 20
-32.54086
 30
0.0
 11
177.8
 21
-35.425146
 31
0.0
  0
HATCH
  5
86E
100
AcDbEntity
  8
0
100
AcDbHatch
 10
0.0
 20
0.0
 30
0.0
210
0.0
220
0.0
230
1.0
  2
ANSI31
 70
     0
 71
     1
 91
        6
 92
        7
 72
     1
 73
     1
 93
       11
 10
215.0
 20
-35.5
 42
0.0
 10
215.0
 20
-33.0
 42
0.0
 10
201.0
 20
-33.0
 42
0.0
 10
201.0
 20
-32.40000000000003
 42
0.0
 10
197.7856300049406
 20
-32.40000000000004
 42
0.0
 10
195.8226390896959
 20
-29.0
 42
0.0
 10
191.5
 20
-29.0
 42
-0.414213562373095
 10
185.0
 20
-35.49999999999999
 42
0.0
 10
185.0
 20
-38.65
 42
0.19051592121984
 10
191.5992440589795
 20
-36.04077253218876
 42
-0.1905159212198227
 10
192.9669630349337
 20
-35.5
 42
0.0
 97
       11
330
46B
330
46D
330
469
330
468
330
486
330
487
330
482
330
807
330
802
330
457
330
805
 92
        7
 72
     1
 73
     1
 93
        7
 10
185.0
 20
-38.65
 42
0.0
 10
185.0
 20
-35.50000000000002
 42
0.0
 10
183.1999999999999
 20
-35.50000000000001
 42
0.0
 10
183.1999999999999
 20
-36.89999999999999
 42
0.0
 10
181.7999999999999
 20
-36.89999999999999
 42
0.0
 10
181.7999999999999
 20
-35.49999999999998
 42
0.0
 10
177.8675039432187
 20
-35.49999999999998
 42
0.2109900934091979
 97
        7
330
460
330
45E
330
45D
330
45C
330
801
330
807
330
482
 92
        7
 72
     1
 73
     1
 93
        7
 10
185.0
 20
-19.35
 42
0.210990093409198
 10
177.8675039432187
 20
-22.50000000000002
 42
0.0
 10
181.7999999999999
 20
-22.50000000000002
 42
0.0
 10
181.7999999999999
 20
-21.10000000000004
 42
0.0
 10
183.1999999999999
 20
-21.10000000000004
 42
0.0
 10
183.1999999999999
 20
-22.50000000000001
 42
0.0
 10
185.0
 20
-22.50000000000002
 42
0.0
 97
        7
330
7FF
330
462
330
465
330
463
330
464
330
47C
330
482
 92
        7
 72
     1
 73
     1
 93
       11
 10
191.5
 20
-29.0
 42
0.0
 10
195.822639089696
 20
-29.0
 42
0.0
 10
197.7856300049406
 20
-25.60000000000002
 42
0.0
 10
201.0
 20
-25.60000000000002
 42
0.0
 10
201.0
 20
-25.0
 42
0.0
 10
214.9999999999999
 20
-25.0
 42
0.0
 10
214.9999999999999
 20
-22.49999999999999
 42
0.0
 10
192.9669630349339
 20
-22.5
 42
-0.1905159212198457
 10
191.5992440589795
 20
-21.95922746781122
 42
0.1905159212198384
 10
185.0
 20
-19.34999999999998
 42
0.0
 10
185.0
 20
-22.5
 42
-0.4142135623730951
 97
       11
330
482
330
487
330
486
330
467
330
46A
330
46D
330
46C
330
805
330
484
330
803
330
7FF
 92
       22
 72
     0
 73
     1
 93
        4
 10
201.0
 20
-25.0
 10
201.0
 20
-25.60000000000002
 10
214.4
 20
-25.60000000000002
 10
214.9999999999999
 20
-25.0
 97
        4
330
46C
330
46D
330
46A
330
587
 92
       22
 72
     0
 73
     1
 93
        4
 10
214.9999999999999
 20
-32.99999999999999
 10
214.3999999999999
 20
-32.40000000000003
 10
201.0
 20
-32.40000000000003
 10
201.0
 20
-33.0
 97
        4
330
469
330
46D
330
46B
330
586
 75
     0
 76
     1
 52
0.0
 41
15.0
 77
     0
 78
     1
 53
45.0
 43
0.0
 44
20.0
 45
-1.325825214724776
 46
1.325825214724776
 79
     0
 47
0.052242
 98
        6
 10
201.318338
 20
-34.299819
 10
183.444068
 20
-37.852251
 10
184.332555
 20
-21.082683
 10
188.095559
 20
-21.918549
 10
202.886256
 20
-25.209772
 10
204.192854
 20
-32.889294
  0
HATCH
  5
8AA
100
AcDbEntity
  8
0
100
AcDbHatch
 10
0.0
 20
0.0
 30
0.0
210
0.0
220
0.0
230
1.0
  2
ANSI31
 70
     0
 71
     0
 91
       12
 92
        7
 72
     0
 73
     1
 93
        4
 10
169.5999999999999
 20
-25.00000000000007
 10
156.1
 20
-24.99999999999998
 10
156.1
 20
-25.60000000000001
 10
168.9999999999999
 20
-25.60000000000005
 97
        0
 92
        7
 72
     0
 73
     1
 93
        3
 10
156.1
 20
-25.00000000000001
 10
155.4999999999998
 20
-25.6
 10
156.1
 20
-25.6
 97
        0
 92
        7
 72
     0
 73
     1
 93
        4
 10
156.1
 20
-25.60000000000002
 10
155.4999999999999
 20
-25.60000000000001
 10
155.4999999999999
 20
-29.0
 10
156.1
 20
-29.0
 97
        0
 92
        7
 72
     0
 73
     1
 93
        4
 10
156.1
 20
-29.0
 10
155.4999999999999
 20
-29.0
 10
155.5
 20
-32.40000000000003
 10
156.1
 20
-32.40000000000003
 97
        0
 92
        7
 72
     0
 73
     1
 93
        3
 10
156.1
 20
-32.40000000000002
 10
155.4999999999999
 20
-32.40000000000003
 10
156.1
 20
-33.00000000000001
 97
        0
 92
        7
 72
     0
 73
     1
 93
        4
 10
168.9999999999999
 20
-32.40000000000005
 10
156.1
 20
-32.40000000000003
 10
156.1
 20
-32.99999999999999
 10
169.6
 20
-33.00000000000002
 97
        0
 92
        7
 72
     0
 73
     1
 93
        4
 10
168.9999999999999
 20
-29.0
 10
156.1
 20
-29.0
 10
156.1
 20
-32.40000000000003
 10
168.9999999999999
 20
-32.40000000000005
 97
        0
 92
        7
 72
     1
 73
     1
 93
       11
 10
185.0
 20
-22.5
 42
0.2655644370746386
 10
179.3999999999999
 20
-25.70000000000001
 42
0.0
 10
176.0267094332069
 20
-25.19219281790217
 42
-0.3710977681753765
 10
174.75
 20
-23.70890548134823
 42
0.0
 10
174.75
 20
-22.50000000000008
 42
0.0
 10
171.95
 20
-22.50000000000003
 42
0.0
 10
171.95
 20
-25.00000000000007
 42
0.0
 10
169.6
 20
-25.00000000000006
 42
0.0
 10
168.9999999999999
 20
-25.59999999999997
 42
0.0
 10
168.9999999999999
 20
-28.99999999999999
 42
0.0
 10
185.0
 20
-28.99999999999998
 42
0.0
 97
        0
 92
        7
 72
     1
 73
     1
 93
       11
 10
185.0
 20
-29.0
 42
0.0
 10
168.9999999999999
 20
-28.99999999999999
 42
0.0
 10
168.9999999999999
 20
-32.40000000000007
 42
0.0
 10
169.5999999999999
 20
-33.00000000000002
 42
0.0
 10
171.95
 20
-33.00000000000002
 42
0.0
 10
171.95
 20
-35.50000000000002
 42
0.0
 10
174.7499999999999
 20
-35.50000000000001
 42
0.0
 10
174.75
 20
-34.29109451865176
 42
-0.3710977681753673
 10
176.0267094332069
 20
-32.80780718209787
 42
0.0
 10
179.4
 20
-32.30000000000002
 42
0.2655644370746369
 10
185.0
 20
-35.50000000000001
 42
0.0
 97
        0
 92
        7
 72
     1
 73
     1
 93
        3
 10
191.4999999999999
 20
-29.0
 42
0.0
 10
185.0
 20
-29.0
 42
0.0
 10
185.0
 20
-35.5
 42
0.4142135623730938
 97
        0
 92
        7
 72
     1
 73
     1
 93
        3
 10
185.0
 20
-22.49999999999998
 42
0.0
 10
185.0
 20
-29.0
 42
0.0
 10
191.5
 20
-29.0
 42
0.4142135623730958
 97
        0
 92
        7
 72
     0
 73
     1
 93
        4
 10
168.9999999999999
 20
-25.60000000000005
 10
156.1
 20
-25.60000000000001
 10
156.1
 20
-29.0
 10
168.9999999999999
 20
-29.0
 97
        0
 75
     0
 76
     1
 52
90.0
 41
15.0
 77
     0
 78
     1
 53
135.0
 43
0.0
 44
20.0
 45
-1.325825214724776
 46
-1.325825214724776
 79
     0
 47
0.052242
 98
       12
 10
165.360742
 20
-25.470981
 10
156.005496
 20
-25.523222
 10
155.848705
 20
-26.72478
 10
156.005496
 20
-31.948945
 10
155.900968
 20
-32.680328
 10
157.050775
 20
-32.941536
 10
158.096054
 20
-31.79222
 10
172.259584
 20
-28.030822
 10
171.632417
 20
-30.433937
 10
186.736696
 20
-31.008595
 10
187.102544
 20
-27.403922
 10
162.381698
 20
-26.829263
  0
LINE
  5
8AB
100
AcDbEntity
  8
0
100
AcDbLine
 10
172.0
 20
-3.5
 30
0.0
 11
174.75
 21
-3.5
 31
0.0
  0
LINE
  5
8AC
100
AcDbEntity
  8
0
100
AcDbLine
 10
172.0
 20
3.5
 30
0.0
 11
174.75
 21
3.5
 31
0.0
  0
LINE
  5
8AD
100
AcDbEntity
  8
0
100
AcDbLine
 10
49.0
 20
2.4
 30
0.0
 11
49.0
 21
-2.6
 31
0.0
  0
LINE
  5
8AE
100
AcDbEntity
  8
0
100
AcDbLine
 10
-44.2
 20
2.1
 30
0.0
 11
-44.2
 21
-2.1
 31
0.0
  0
CIRCLE
  5
8BC
100
AcDbEntity
  8
0
100
AcDbCircle
 10
137.0
 20
0.0
 30
0.0
 40
3.4
  0
ARC
  5
8BD
100
AcDbEntity
  8
0
100
AcDbCircle
 10
137.0
 20
0.0
 30
0.0
 40
4.0
100
AcDbArc
 50
0.0
 51
270.0
  0
CIRCLE
  5
8BE
100
AcDbEntity
  8
0
100
AcDbCircle
 10
137.0
 20
0.0
 30
0.0
 40
6.5
  0
CIRCLE
  5
8C2
100
AcDbEntity
  8
0
100
AcDbCircle
 10
137.0
 20
0.0
 30
0.0
 40
9.65
  0
LINE
  5
8C4
102
{ACAD_REACTORS
330
9C2
102
}
100
AcDbEntity
  8
0
100
AcDbLine
 10
315.1
 20
-45.0
 30
0.0
 11
311.0
 21
-45.0
 31
0.0
  0
ARC
  5
8C6
102
{ACAD_REACTORS
330
9C2
102
}
100
AcDbEntity
  8
0
100
AcDbCircle
 10
319.5
 20
-37.0
 30
0.0
 40
12.0
100
AcDbArc
 50
224.900528
 51
314.415309
  0
ARC
  5
8C7
102
{ACAD_REACTORS
330
9C2
102
}
100
AcDbEntity
  8
0
100
AcDbCircle
 10
329.297959
 20
-47.0
 30
0.0
 40
2.0
100
AcDbArc
 50
90.0
 51
134.415309
  0
ARC
  5
8C8
102
{ACAD_REACTORS
330
9C2
102
}
100
AcDbEntity
  8
0
100
AcDbCircle
 10
319.5
 20
-37.0
 30
0.0
 40
12.0
100
AcDbArc
 50
45.584691
 51
135.099472
  0
ARC
  5
8C9
102
{ACAD_REACTORS
330
9C2
102
}
100
AcDbEntity
  8
0
100
AcDbCircle
 10
329.297959
 20
-27.0
 30
0.0
 40
2.0
100
AcDbArc
 50
225.584691
 51
270.0
  0
LINE
  5
8CA
102
{ACAD_REACTORS
330
9C2
102
}
100
AcDbEntity
  8
0
100
AcDbLine
 10
311.0
 20
-45.470537
 30
0.0
 11
311.0
 21
-41.272034
 31
0.0
  0
LINE
  5
8CB
100
AcDbEntity
  8
0
  6
CENTER
100
AcDbLine
 10
282.0
 20
0.0
 30
0.0
 11
356.0
 21
0.0
 31
0.0
  0
ARC
  5
8CC
100
AcDbEntity
  8
0
100
AcDbCircle
 10
308.5
 20
-6.733599
 30
0.0
 40
2.0
100
AcDbArc
 50
98.162549
 51
180.0
  0
ARC
  5
8CD
100
AcDbEntity
  8
0
100
AcDbCircle
 10
308.5
 20
6.733599
 30
0.0
 40
2.0
100
AcDbArc
 50
180.0
 51
261.837451
  0
LINE
  5
8D0
100
AcDbEntity
  8
0
100
AcDbLine
 10
306.5
 20
-8.0
 30
0.0
 11
303.5
 21
-8.0
 31
0.0
  0
LINE
  5
8D1
100
AcDbEntity
  8
0
100
AcDbLine
 10
303.5
 20
5.0
 30
0.0
 11
284.5
 21
5.0
 31
0.0
  0
LINE
  5
8D2
100
AcDbEntity
  8
0
100
AcDbLine
 10
300.0
 20
4.0
 30
0.0
 11
283.5
 21
4.0
 31
0.0
  0
LINE
  5
8D3
100
AcDbEntity
  8
0
100
AcDbLine
 10
303.5
 20
-5.0
 30
0.0
 11
284.5
 21
-5.0
 31
0.0
  0
LINE
  5
8D4
100
AcDbEntity
  8
0
100
AcDbLine
 10
300.0
 20
-4.0
 30
0.0
 11
283.5
 21
-4.0
 31
0.0
  0
LINE
  5
8D5
100
AcDbEntity
  8
0
100
AcDbLine
 10
284.5
 20
5.0
 30
0.0
 11
284.5
 21
-5.0
 31
0.0
  0
LINE
  5
8D6
100
AcDbEntity
  8
0
100
AcDbLine
 10
283.5
 20
-4.0
 30
0.0
 11
283.5
 21
4.0
 31
0.0
  0
LINE
  5
8D7
100
AcDbEntity
  8
0
100
AcDbLine
 10
283.5
 20
-4.0
 30
0.0
 11
284.5
 21
-5.0
 31
0.0
  0
LINE
  5
8D8
100
AcDbEntity
  8
0
100
AcDbLine
 10
283.5
 20
4.0
 30
0.0
 11
284.5
 21
5.0
 31
0.0
  0
LINE
  5
8D9
100
AcDbEntity
  8
0
100
AcDbLine
 10
300.0
 20
-4.0
 30
0.0
 11
301.0
 21
-5.0
 31
0.0
  0
LINE
  5
8DA
100
AcDbEntity
  8
0
100
AcDbLine
 10
303.5
 20
-8.0
 30
0.0
 11
303.5
 21
8.0
 31
0.0
  0
LINE
  5
8DB
100
AcDbEntity
  8
0
100
AcDbLine
 10
300.0
 20
4.0
 30
0.0
 11
301.0
 21
5.0
 31
0.0
  0
LINE
  5
8DC
100
AcDbEntity
  8
0
100
AcDbLine
 10
306.5
 20
8.0
 30
0.0
 11
306.5
 21
-8.0
 31
0.0
  0
LINE
  5
8DD
100
AcDbEntity
  8
0
100
AcDbLine
 10
306.5
 20
8.0
 30
0.0
 11
303.5
 21
8.0
 31
0.0
  0
LINE
  5
8DE
100
AcDbEntity
  8
0
  6
CENTER
100
AcDbLine
 10
319.5
 20
13.5
 30
0.0
 11
319.5
 21
-13.5
 31
0.0
  0
LINE
  5
8DF
100
AcDbEntity
  8
0
100
AcDbLine
 10
311.0
 20
-8.470537
 30
0.0
 11
311.0
 21
8.470537
 31
0.0
  0
LINE
  5
8E1
100
AcDbEntity
  8
0
100
AcDbLine
 10
354.5
 20
8.0
 30
0.0
 11
354.5
 21
-8.0
 31
0.0
  0
LINE
  5
8E2
100
AcDbEntity
  8
0
100
AcDbLine
 10
329.297959
 20
-8.0
 30
0.0
 11
354.5
 21
-8.0
 31
0.0
  0
ARC
  5
8E3
100
AcDbEntity
  8
0
100
AcDbCircle
 10
319.5
 20
0.0
 30
0.0
 40
12.0
100
AcDbArc
 50
224.900528
 51
314.415309
  0
ARC
  5
8EA
100
AcDbEntity
  8
0
100
AcDbCircle
 10
329.297959
 20
-10.0
 30
0.0
 40
2.0
100
AcDbArc
 50
90.0
 51
134.415309
  0
LINE
  5
8EB
100
AcDbEntity
  8
0
100
AcDbLine
 10
329.297959
 20
8.0
 30
0.0
 11
354.5
 21
8.0
 31
0.0
  0
ARC
  5
8F0
100
AcDbEntity
  8
0
100
AcDbCircle
 10
319.5
 20
0.0
 30
0.0
 40
12.0
100
AcDbArc
 50
45.584691
 51
135.099472
  0
LINE
  5
8F3
100
AcDbEntity
  8
0
100
AcDbLine
 10
311.0
 20
-4.272034
 30
0.0
 11
308.216036
 21
-4.75386
 31
0.0
  0
LINE
  5
8F5
100
AcDbEntity
  8
0
100
AcDbLine
 10
308.216036
 20
4.75386
 30
0.0
 11
311.0
 21
4.272034
 31
0.0
  0
ARC
  5
8FC
100
AcDbEntity
  8
0
100
AcDbCircle
 10
329.297959
 20
10.0
 30
0.0
 40
2.0
100
AcDbArc
 50
225.584691
 51
270.0
  0
CIRCLE
  5
90B
100
AcDbEntity
  8
0
100
AcDbCircle
 10
262.5
 20
0.0
 30
0.0
 40
4.25
  0
ARC
  5
90C
100
AcDbEntity
  8
0
100
AcDbCircle
 10
262.5
 20
0.0
 30
0.0
 40
5.0
100
AcDbArc
 50
0.0
 51
270.0
  0
CIRCLE
  5
90D
100
AcDbEntity
  8
0
100
AcDbCircle
 10
262.5
 20
0.0
 30
0.0
 40
8.0
  0
CIRCLE
  5
911
100
AcDbEntity
  8
0
100
AcDbCircle
 10
262.5
 20
0.0
 30
0.0
 40
12.0
  0
LINE
  5
912
102
{ACAD_REACTORS
330
9C2
102
}
100
AcDbEntity
  8
0
100
AcDbLine
 10
311.0
 20
-32.727966
 30
0.0
 11
311.0
 21
-28.529463
 31
0.0
  0
HATCH
  5
96F
100
AcDbEntity
  8
0
100
AcDbHatch
 10
0.0
 20
0.0
 30
0.0
210
0.0
220
0.0
230
1.0
  2
ANSI31
 70
     0
 71
     1
 91
       10
 92
        7
 72
     0
 73
     1
 93
        3
 10
284.5
 20
-42.0
 10
284.5
 20
-41.0
 10
283.4999999999999
 20
-41.0
 97
        3
330
4E0
330
4DA
330
58B
 92
       22
 72
     0
 73
     1
 93
        4
 10
301.0
 20
-42.0
 10
300.0
 20
-41.0
 10
284.5
 20
-41.0
 10
284.5
 20
-42.0
 97
        4
330
4E0
330
58B
330
4E5
330
4DD
 92
        7
 72
     0
 73
     1
 93
        4
 10
283.4999999999999
 20
-41.0
 10
284.5
 20
-41.0
 10
284.5
 20
-37.0
 10
283.4999999999999
 20
-37.0
 97
        4
330
4EC
330
4E9
330
4E0
330
58B
 92
        7
 72
     0
 73
     1
 93
        4
 10
284.5
 20
-33.0
 10
283.4999999999999
 20
-33.0
 10
283.4999999999999
 20
-37.0
 10
284.5
 20
-37.0
 97
        4
330
4E1
330
4E9
330
4EC
330
58B
 92
        7
 72
     0
 73
     1
 93
        3
 10
284.5
 20
-32.0
 10
283.4999999999999
 20
-33.0
 10
284.5
 20
-33.0
 97
        3
330
4DB
330
4E1
330
58B
 92
       22
 72
     0
 73
     1
 93
        4
 10
300.0
 20
-33.0
 10
301.0
 20
-32.0
 10
284.5
 20
-32.0
 10
284.5
 20
-33.0
 97
        4
330
4E6
330
58B
330
4E1
330
4DC
 92
        7
 72
     1
 73
     1
 93
       14
 10
319.5
 20
-36.99999999999999
 42
0.0
 10
319.5
 20
-29.0
 42
0.1033703445327359
 10
316.2963258298367
 20
-29.66948352355517
 42
-0.0483560532693292
 10
316.1554697529055
 20
-29.73266779166728
 42
0.1551988578364581
 10
312.5717967697245
 20
-32.99999999999995
 42
0.0
 10
308.216036115041
 20
-32.24613972146929
 42
-0.3730764935062088
 10
306.4999999999999
 20
-30.26640122559691
 42
0.0
 10
306.4999999999999
 20
-29.0
 42
0.0
 10
303.5
 20
-29.0
 42
0.0
 10
303.5000000000001
 20
-32.0
 42
0.0
 10
301.0
 20
-32.0
 42
0.0
 10
300.0
 20
-33.0
 42
0.0
 10
284.5
 20
-33.0
 42
0.0
 10
284.5
 20
-37.0
 42
0.0
 97
       13
330
4EE
330
4D1
330
4DF
330
4D7
330
54D
330
4E3
330
54C
330
4E6
330
4DC
330
4E1
330
58B
330
4EC
330
4E7
 92
        7
 72
     1
 73
     1
 93
       14
 10
300.0
 20
-41.0
 42
0.0
 10
301.0
 20
-42.0
 42
0.0
 10
303.5
 20
-42.0
 42
0.0
 10
303.5
 20
-45.0
 42
0.0
 10
306.4999999999999
 20
-45.0
 42
0.0
 10
306.4999999999999
 20
-43.733598774403
 42
-0.3730764935062587
 10
308.2160361150414
 20
-41.75386027853057
 42
0.0
 10
312.5717967697245
 20
-41.00000000000004
 42
0.155198857836442
 10
316.155469752905
 20
-44.26733220833251
 42
-0.0483560532696243
 10
316.2963258298371
 20
-44.330516476445
 42
0.1033703445327222
 10
319.5
 20
-45.0
 42
0.0
 10
319.5
 20
-37.0
 42
0.0
 10
284.5
 20
-37.0
 42
0.0
 10
284.5
 20
-41.0
 42
0.0
 97
       13
330
4EC
330
58B
330
4E0
330
4DD
330
4E5
330
4E8
330
4E2
330
54E
330
4D6
330
4DE
330
4EE
330
4D0
330
4E7
 92
        7
 72
     1
 73
     1
 93
        3
 10
319.5
 20
-45.0
 42
0.4142135623730952
 10
327.4999999999999
 20
-37.0
 42
0.0
 10
319.5
 20
-37.0
 42
0.0
 97
        3
330
4EC
330
4E7
330
4EE
 92
        7
 72
     1
 73
     1
 93
        3
 10
327.4999999999999
 20
-37.0
 42
0.4142135623730946
 10
319.5
 20
-29.00000000000001
 42
0.0
 10
319.5
 20
-37.00000000000001
 42
0.0
 97
        3
330
4E7
330
4EC
330
4EE
 75
     0
 76
     1
 52
90.0
 41
15.0
 77
     0
 78
     1
 53
135.0
 43
0.0
 44
37.0
 45
-1.325825214724776
 46
-1.325825214724776
 79
     0
 47
0.12088
 98
       10
 10
284.20885
 20
-41.45687
 10
286.38561
 20
-41.577749
 10
283.846056
 20
-38.9184
 10
284.329781
 20
-35.171136
 10
284.329781
 20
-32.753545
 10
286.022817
 20
-32.632666
 10
289.046095
 20
-35.292015
 10
296.422891
 20
-39.281039
 10
321.455632
 20
-40.610713
 10
321.939356
 20
-34.687618
  0
HATCH
  5
9C2
100
AcDbEntity
  8
0
100
AcDbHatch
 10
0.0
 20
0.0
 30
0.0
210
0.0
220
0.0
230
1.0
  2
ANSI31
 70
     0
 71
     1
 91
        6
 92
        7
 72
     1
 73
     1
 93
       11
 10
354.4999999999999
 20
-45.00000000000006
 42
0.0
 10
354.4999999999999
 20
-42.0
 42
0.0
 10
339.0
 20
-42.0
 42
0.0
 10
339.0
 20
-41.25
 42
0.0
 10
334.7271221377165
 20
-41.25
 42
0.0
 10
332.2733834936606
 20
-37.0
 42
0.0
 10
327.4999999999999
 20
-37.0
 42
-0.4142135623730948
 10
319.5
 20
-44.99999999999999
 42
0.0
 10
319.5
 20
-48.99999999999997
 42
0.1962615682814119
 10
327.8982505466851
 20
-45.57142857142857
 42
-0.1962615682814096
 10
329.2979589711326
 20
-45.00000000000001
 42
0.0
 97
       11
330
4C9
330
4C6
330
4C7
330
4C5
330
4EC
330
4EE
330
4E7
330
8C6
330
8C7
330
4D9
330
4D8
 92
        7
 72
     1
 73
     1
 93
        8
 10
319.5
 20
-48.99999999999998
 42
0.0
 10
319.5
 20
-44.99999999999999
 42
0.0
 10
316.7
 20
-45.0
 42
0.0
 10
316.7
 20
-46.60000000000002
 42
0.0
 10
315.0999999999999
 20
-46.60000000000001
 42
0.0
 10
315.0999999999999
 20
-44.99999999999994
 42
0.0
 10
310.9999999999999
 20
-44.99999999999994
 42
0.0
 10
310.9999999999999
 20
-45.47053717304868
 42
0.199363607849091
 97
        8
330
4CB
330
4CE
330
4CF
330
4CD
330
8C4
330
8CA
330
8C6
330
4E7
 92
        7
 72
     1
 73
     1
 93
        8
 10
319.5
 20
-24.99999999999996
 42
0.1993636078490911
 10
310.9999999999999
 20
-28.52946282695126
 42
0.0
 10
310.9999999999999
 20
-29.0
 42
0.0
 10
315.1
 20
-29.0
 42
0.0
 10
315.1
 20
-27.39999999999997
 42
0.0
 10
316.6999999999999
 20
-27.39999999999997
 42
0.0
 10
316.7
 20
-29.0
 42
0.0
 10
319.5
 20
-29.0
 42
0.0
 97
        8
330
8C8
330
912
330
4D2
330
4D5
330
4D3
330
4D4
330
4E4
330
4E7
 92
        7
 72
     1
 73
     1
 93
       11
 10
327.4999999999999
 20
-37.0
 42
0.0
 10
332.2733834936605
 20
-37.0
 42
0.0
 10
334.7271221377165
 20
-32.75
 42
0.0
 10
339.0
 20
-32.75
 42
0.0
 10
339.0
 20
-32.0
 42
0.0
 10
354.4999999999999
 20
-32.0
 42
0.0
 10
354.4999999999999
 20
-29.0
 42
0.0
 10
329.2979589711327
 20
-29.0
 42
-0.196261568281411
 10
327.8982505466852
 20
-28.42857142857143
 42
0.196261568281414
 10
319.5
 20
-24.99999999999996
 42
0.0
 10
319.5
 20
-29.0
 42
-0.4142135623730952
 97
       11
330
8C8
330
4E7
330
4EE
330
4EC
330
4C4
330
4C8
330
4C6
330
4CA
330
4D8
330
4EB
330
8C9
 92
       23
 72
     0
 73
     1
 93
        4
 10
353.7499999999999
 20
-32.75
 10
354.4999999999999
 20
-32.0
 10
339.0
 20
-32.0
 10
339.0
 20
-32.75
 97
        4
330
4CA
330
4C6
330
4C8
330
58E
 92
       22
 72
     0
 73
     1
 93
        4
 10
339.0
 20
-41.25
 10
339.0
 20
-42.0
 10
354.4999999999999
 20
-42.0
 10
353.75
 20
-41.25
 97
        4
330
4C7
330
4C6
330
4C9
330
58D
 75
     0
 76
     1
 52
0.0
 41
15.0
 77
     0
 78
     1
 53
45.0
 43
0.0
 44
37.0
 45
-1.325825214724776
 46
1.325825214724776
 79
     0
 47
0.12088
 98
        6
 10
332.460362
 20
-42.665665
 10
318.190492
 20
-47.984364
 10
318.553285
 20
-27.072208
 10
322.181219
 20
-28.764521
 10
342.98137
 20
-32.511786
 10
346.488371
 20
-41.577749
  0
LINE
  5
9C3
100
AcDbEntity
  8
0
100
AcDbLine
 10
300.0
 20
4.0
 30
0.0
 11
300.0
 21
-4.0
 31
0.0
  0
CIRCLE
  5
9C7
100
AcDbEntity
  8
0
100
AcDbCircle
 10
376.5
 20
0.0
 30
0.0
 40
12.0
  0
ARC
  5
9C8
100
AcDbEntity
  8
0
100
AcDbCircle
 10
376.5
 20
0.0
 30
0.0
 40
4.25
100
AcDbArc
 50
0.0
 51
270.0
  0
CIRCLE
  5
9C9
100
AcDbEntity
  8
0
100
AcDbCircle
 10
376.5
 20
0.0
 30
0.0
 40
5.0
  0
CIRCLE
  5
9CA
100
AcDbEntity
  8
0
100
AcDbCircle
 10
376.5
 20
0.0
 30
0.0
 40
8.0
  0
LINE
  5
9CB
100
AcDbEntity
  8
0
  6
CENTER
100
AcDbLine
 10
262.5
 20
-13.5
 30
0.0
 11
262.5
 21
13.5
 31
0.0
  0
LINE
  5
9CC
100
AcDbEntity
  8
0
  6
CENTER
100
AcDbLine
 10
276.0
 20
0.0
 30
0.0
 11
249.0
 21
0.0
 31
0.0
  0
LINE
  5
9CD
100
AcDbEntity
  8
0
  6
CENTER
100
AcDbLine
 10
137.0
 20
-11.0
 30
0.0
 11
137.0
 21
11.0
 31
0.0
  0
LINE
  5
9CE
100
AcDbEntity
  8
0
  6
CENTER
100
AcDbLine
 10
148.0
 20
0.0
 30
0.0
 11
126.0
 21
0.0
 31
0.0
  0
LINE
  5
9CF
100
AcDbEntity
  8
0
  6
CENTER
100
AcDbLine
 10
26.0
 20
-9.0
 30
0.0
 11
26.0
 21
9.0
 31
0.0
  0
LINE
  5
9D0
100
AcDbEntity
  8
0
  6
CENTER
100
AcDbLine
 10
35.0
 20
0.0
 30
0.0
 11
17.0
 21
0.0
 31
0.0
  0
LINE
  5
9D1
100
AcDbEntity
  8
0
  6
CENTER
100
AcDbLine
 10
-62.0
 20
-7.5
 30
0.0
 11
-62.0
 21
7.5
 31
0.0
  0
LINE
  5
9D2
100
AcDbEntity
  8
0
  6
CENTER
100
AcDbLine
 10
-54.5
 20
0.0
 30
0.0
 11
-69.5
 21
0.0
 31
0.0
  0
LINE
  5
9D3
100
AcDbEntity
  8
0
  6
CENTER
100
AcDbLine
 10
376.5
 20
-13.5
 30
0.0
 11
376.5
 21
13.5
 31
0.0
  0
LINE
  5
9D4
100
AcDbEntity
  8
0
  6
CENTER
100
AcDbLine
 10
363.0
 20
0.0
 30
0.0
 11
390.0
 21
0.0
 31
0.0
  0
LINE
  5
9D9
100
AcDbEntity
  8
0
100
AcDbLine
 10
303.5
 20
4.5
 30
0.0
 11
306.5
 21
4.5
 31
0.0
  0
LINE
  5
9DA
100
AcDbEntity
  8
0
100
AcDbLine
 10
303.5
 20
-4.5
 30
0.0
 11
306.5
 21
-4.5
 31
0.0
  0
LINE
  5
9DB
100
AcDbEntity
  8
0
100
AcDbLine
 10
369.885622
 20
4.5
 30
0.0
 11
369.885622
 21
-4.5
 31
0.0
  0
LINE
  5
9DC
100
AcDbEntity
  8
0
100
AcDbLine
 10
383.114378
 20
4.5
 30
0.0
 11
383.114378
 21
-4.5
 31
0.0
  0
LINE
  5
9DD
100
AcDbEntity
  8
0
  6
CENTER
100
AcDbLine
 10
233.0
 20
-11.0
 30
0.0
 11
233.0
 21
11.0
 31
0.0
  0
ARC
  5
9DE
100
AcDbEntity
  8
0
100
AcDbCircle
 10
233.0
 20
0.0
 30
0.0
 40
3.4
100
AcDbArc
 50
0.0
 51
270.0
  0
CIRCLE
  5
9DF
100
AcDbEntity
  8
0
100
AcDbCircle
 10
233.0
 20
0.0
 30
0.0
 40
4.0
  0
CIRCLE
  5
9E0
100
AcDbEntity
  8
0
100
AcDbCircle
 10
233.0
 20
0.0
 30
0.0
 40
6.5
  0
CIRCLE
  5
9E1
100
AcDbEntity
  8
0
100
AcDbCircle
 10
233.0
 20
0.0
 30
0.0
 40
9.65
  0
LINE
  5
9E2
100
AcDbEntity
  8
0
  6
CENTER
100
AcDbLine
 10
222.0
 20
0.0
 30
0.0
 11
244.0
 21
0.0
 31
0.0
  0
LINE
  5
9E4
100
AcDbEntity
  8
0
100
AcDbLine
 10
227.522774
 20
3.5
 30
0.0
 11
227.522774
 21
-3.5
 31
0.0
  0
LINE
  5
9E5
100
AcDbEntity
  8
0
100
AcDbLine
 10
238.477226
 20
3.5
 30
0.0
 11
238.477226
 21
-3.5
 31
0.0
  0
LINE
  5
9EC
100
AcDbEntity
  8
0
  6
CENTER
100
AcDbLine
 10
90.0
 20
0.0
 30
0.0
 11
108.0
 21
0.0
 31
0.0
  0
CIRCLE
  5
9ED
100
AcDbEntity
  8
0
100
AcDbCircle
 10
99.0
 20
0.1
 30
0.0
 40
7.5
  0
CIRCLE
  5
9EE
100
AcDbEntity
  8
0
100
AcDbCircle
 10
99.0
 20
0.1
 30
0.0
 40
5.0
  0
CIRCLE
  5
9EF
100
AcDbEntity
  8
0
100
AcDbCircle
 10
99.0
 20
0.1
 30
0.0
 40
3.0
  0
LINE
  5
9F0
100
AcDbEntity
  8
0
  6
CENTER
100
AcDbLine
 10
99.0
 20
-9.0
 30
0.0
 11
99.0
 21
9.0
 31
0.0
  0
ARC
  5
9F1
100
AcDbEntity
  8
0
100
AcDbCircle
 10
99.0
 20
0.1
 30
0.0
 40
2.5
100
AcDbArc
 50
357.707557
 51
270.0
  0
LINE
  5
9F3
100
AcDbEntity
  8
0
100
AcDbLine
 10
94.560405
 20
2.4
 30
0.0
 11
94.560405
 21
-2.2
 31
0.0
  0
LINE
  5
9F4
100
AcDbEntity
  8
0
100
AcDbLine
 10
103.439595
 20
2.4
 30
0.0
 11
103.439595
 21
-2.2
 31
0.0
  0
LINE
  5
9F5
100
AcDbEntity
  8
0
  6
CENTER
100
AcDbLine
 10
-1.5
 20
-7.5
 30
0.0
 11
-1.5
 21
7.5
 31
0.0
  0
CIRCLE
  5
9F6
100
AcDbEntity
  8
0
100
AcDbCircle
 10
-1.5
 20
0.0
 30
0.0
 40
6.4
  0
LINE
  5
9F7
100
AcDbEntity
  8
0
  6
CENTER
100
AcDbLine
 10
-9.0
 20
0.0
 30
0.0
 11
6.0
 21
0.0
 31
0.0
  0
CIRCLE
  5
9F8
100
AcDbEntity
  8
0
100
AcDbCircle
 10
-1.5
 20
0.0
 30
0.0
 40
4.031909
  0
ARC
  5
9F9
100
AcDbEntity
  8
0
100
AcDbCircle
 10
-1.5
 20
0.0
 30
0.0
 40
2.1
100
AcDbArc
 50
0.0
 51
270.0
  0
CIRCLE
  5
9FA
100
AcDbEntity
  8
0
100
AcDbCircle
 10
-1.5
 20
0.0
 30
0.0
 40
2.5
  0
LINE
  5
9FB
100
AcDbEntity
  8
0
100
AcDbLine
 10
1.44587
 20
-2.884409
 30
0.0
 11
1.481683
 21
-2.714011
 31
0.0
  0
LINE
  5
9FD
100
AcDbEntity
  8
0
100
AcDbLine
 10
-5.000898
 20
2.0
 30
0.0
 11
-5.000898
 21
-2.0
 31
0.0
  0
LINE
  5
9FE
100
AcDbEntity
  8
0
100
AcDbLine
 10
2.000898
 20
2.0
 30
0.0
 11
2.000898
 21
-2.0
 31
0.0
  0
ENDSEC
  0
SECTION
  2
OBJECTS
  0
DICTIONARY
  5
C
100
AcDbDictionary
  3
ACAD_GROUP
350
D
  3
ACAD_MLINESTYLE
350
1A
  3
ACDBVARIABLEDICTIONARY
350
5E0
  3
CONTENTDICTIONARY
350
8AF
  0
DICTIONARY
  5
D
102
{ACAD_REACTORS
330
C
102
}
100
AcDbDictionary
  0
DICTIONARY
  5
1A
102
{ACAD_REACTORS
330
C
102
}
100
AcDbDictionary
  3
STANDARD
350
1B
  0
DICTIONARY
  5
5E0
102
{ACAD_REACTORS
330
C
102
}
100
AcDbDictionary
  3
SORTENTS
350
5E1
  0
DICTIONARY
  5
8AF
102
{ACAD_REACTORS
330
C
102
}
100
AcDbDictionary
  0
MLINESTYLE
  5
1B
102
{ACAD_REACTORS
330
1A
102
}
100
AcDbMlineStyle
  2
STANDARD
 70
     0
  3

 62
   256
 51
90.0
 52
90.0
 71
     2
 49
0.5
 62
   256
  6
BYLAYER
 49
-0.5
 62
   256
  6
BYLAYER
  0
DICTIONARYVAR
  5
5E1
102
{ACAD_REACTORS
330
5E0
102
}
100
DictionaryVariables
280
     0
  1
96
  0
ENDSEC
  0
EOF
