  0
SECTION
  2
HEADER
  9
$ACADVER
  1
AC1009
  9
$INSBASE
 10
0.0
 20
0.0
 30
0.0
  9
$EXTMIN
 10
-74.479624
 20
100.377473
 30
0.0
  9
$EXTMAX
 10
329.505324
 20
208.703048
 30
0.0
  9
$LIMMIN
 10
0.0
 20
0.0
  9
$LIMMAX
 10
12.0
 20
9.0
  9
$ORTHOMODE
 70
     1
  9
$REGENMODE
 70
     1
  9
$FILLMODE
 70
     1
  9
$QTEXTMODE
 70
     0
  9
$MIRRTEXT
 70
     1
  9
$DRAGMODE
 70
     2
  9
$LTSCALE
 40
7.0
  9
$OSMODE
 70
     0
  9
$ATTMODE
 70
     1
  9
$TEXTSIZE
 40
0.2
  9
$TRACEWID
 40
0.05
  9
$TEXTSTYLE
  7
STANDARD
  9
$CLAYER
  8
0
  9
$CELTYPE
  6
BYLAYER
  9
$CECOLOR
 62
   256
  9
$DIMSCALE
 40
1.0
  9
$DIMASZ
 40
2.5
  9
$DIMEXO
 40
0.0
  9
$DIMDLI
 40
5.0
  9
$DIMRND
 40
0.0
  9
$DIMDLE
 40
0.0
  9
$DIMEXE
 40
1.0
  9
$DIMTP
 40
0.0
  9
$DIMTM
 40
0.0
  9
$DIMTXT
 40
2.5
  9
$DIMCEN
 40
0.09
  9
$DIMTSZ
 40
0.0
  9
$DIMTOL
 70
     0
  9
$DIMLIM
 70
     0
  9
$DIMTIH
 70
     0
  9
$DIMTOH
 70
     0
  9
$DIMSE1
 70
     0
  9
$DIMSE2
 70
     0
  9
$DIMTAD
 70
     1
  9
$DIMZIN
 70
     0
  9
$DIMBLK
  1

  9
$DIMASO
 70
     0
  9
$DIMSHO
 70
     0
  9
$DIMPOST
  1

  9
$DIMAPOST
  1

  9
$DIMALT
 70
     0
  9
$DIMALTD
 70
     2
  9
$DIMALTF
 40
25.4
  9
$DIMLFAC
 40
1.0
  9
$DIMTOFL
 70
     1
  9
$DIMTVP
 40
0.0
  9
$DIMTIX
 70
     0
  9
$DIMSOXD
 70
     0
  9
$DIMSAH
 70
     0
  9
$DIMBLK1
  1

  9
$DIMBLK2
  1

  9
$DIMSTYLE
  2
*UNNAMED
  9
$DIMCLRD
 70
     0
  9
$DIMCLRE
 70
     0
  9
$DIMCLRT
 70
     0
  9
$DIMTFAC
 40
1.0
  9
$DIMGAP
 40
0.09
  9
$LUNITS
 70
     2
  9
$LUPREC
 70
     4
  9
$SKETCHINC
 40
0.1
  9
$FILLETRAD
 40
2.595459
  9
$AUNITS
 70
     0
  9
$AUPREC
 70
     0
  9
$MENU
  1
wiberger
  9
$ELEVATION
 40
0.0
  9
$PELEVATION
 40
0.0
  9
$THICKNESS
 40
0.0
  9
$LIMCHECK
 70
     0
  9
$BLIPMODE
 70
     1
  9
$CHAMFERA
 40
2.0
  9
$CHAMFERB
 40
2.0
  9
$SKPOLY
 70
     0
  9
$TDCREATE
 40
2450189.579181018
  9
$TDUPDATE
 40
2450198.486030208
  9
$TDINDWG
 40
0.0375451389
  9
$TDUSRTIMER
 40
0.0375451389
  9
$USRTIMER
 70
     1
  9
$ANGBASE
 50
0.0
  9
$ANGDIR
 70
     0
  9
$PDMODE
 70
     0
  9
$PDSIZE
 40
0.0
  9
$PLINEWID
 40
0.0
  9
$COORDS
 70
     2
  9
$SPLFRAME
 70
     0
  9
$SPLINETYPE
 70
     6
  9
$SPLINESEGS
 70
     8
  9
$ATTDIA
 70
     0
  9
$ATTREQ
 70
     1
  9
$HANDLING
 70
     0
  9
$HANDSEED
  5
0
  9
$SURFTAB1
 70
     6
  9
$SURFTAB2
 70
     6
  9
$SURFTYPE
 70
     6
  9
$SURFU
 70
     6
  9
$SURFV
 70
     6
  9
$UCSNAME
  2

  9
$UCSORG
 10
0.0
 20
0.0
 30
0.0
  9
$UCSXDIR
 10
1.0
 20
0.0
 30
0.0
  9
$UCSYDIR
 10
0.0
 20
1.0
 30
0.0
  9
$PUCSNAME
  2

  9
$PUCSORG
 10
0.0
 20
0.0
 30
0.0
  9
$PUCSXDIR
 10
1.0
 20
0.0
 30
0.0
  9
$PUCSYDIR
 10
0.0
 20
1.0
 30
0.0
  9
$USERI1
 70
     0
  9
$USERI2
 70
     0
  9
$USERI3
 70
     0
  9
$USERI4
 70
     0
  9
$USERI5
 70
     0
  9
$USERR1
 40
0.0
  9
$USERR2
 40
0.0
  9
$USERR3
 40
0.0
  9
$USERR4
 40
0.0
  9
$USERR5
 40
0.0
  9
$WORLDVIEW
 70
     1
  9
$SHADEDGE
 70
     3
  9
$SHADEDIF
 70
    70
  9
$TILEMODE
 70
     1
  9
$MAXACTVP
 70
    16
  9
$PINSBASE
 10
0.0
 20
0.0
 30
0.0
  9
$PLIMCHECK
 70
     0
  9
$PEXTMIN
 10
1.000000E+20
 20
1.000000E+20
 30
1.000000E+20
  9
$PEXTMAX
 10
-1.000000E+20
 20
-1.000000E+20
 30
-1.000000E+20
  9
$PLIMMIN
 10
0.0
 20
0.0
  9
$PLIMMAX
 10
12.0
 20
9.0
  9
$UNITMODE
 70
     0
  9
$VISRETAIN
 70
     0
  9
$PLINEGEN
 70
     0
  9
$PSLTSCALE
 70
     0
  9
$TREEDEPTH
 70
  3020
  9
$DWGCODEPAGE
  3
undefined
  0
ENDSEC
  0
SECTION
  2
TABLES
  0
TABLE
  2
VPORT
 70
     2
  0
VPORT
  2
*ACTIVE
 70
     0
 10
0.0
 20
0.0
 11
1.0
 21
1.0
 12
189.208376
 22
145.373642
 13
0.0
 23
0.0
 14
1.0
 24
1.0
 15
0.0
 25
0.0
 16
0.0
 26
0.0
 36
1.0
 17
0.0
 27
0.0
 37
0.0
 40
323.052537
 41
1.767507
 42
50.0
 43
0.0
 44
0.0
 50
0.0
 51
0.0
 71
     0
 72
   100
 73
     1
 74
     0
 75
     0
 76
     0
 77
     0
 78
     0
  0
ENDTAB
  0
TABLE
  2
LTYPE
 70
     3
  0
LTYPE
  2
CONTINUOUS
 70
    64
  3
Solid line
 72
    65
 73
     0
 40
0.0
  0
LTYPE
  2
DASHED
 70
     0
  3
__ __ __ __ __ __ __ __ __ __ __ __ __ __ __
 72
    65
 73
     2
 40
0.75
 49
0.5
 49
-0.25
  0
LTYPE
  2
CENTER
 70
    64
  3
____ _ ____ _ ____ _ ____ _ ____ _ ____ _ ____
 72
    65
 73
     4
 40
2.0
 49
1.25
 49
-0.25
 49
0.25
 49
-0.25
  0
ENDTAB
  0
TABLE
  2
LAYER
 70
     1
  0
LAYER
  2
0
 70
    64
 62
     7
  6
CONTINUOUS
  0
ENDTAB
  0
TABLE
  2
STYLE
 70
     1
  0
STYLE
  2
STANDARD
 70
     0
 40
0.0
 41
1.0
 50
0.0
 71
     0
 42
0.2
  3
txt
  4

  0
ENDTAB
  0
TABLE
  2
VIEW
 70
     3
  0
VIEW
  2
1
 70
     0
 40
138.077465
 10
237.677628
 20
-43.904337
 41
159.424968
 11
0.0
 21
0.0
 31
1.0
 12
0.0
 22
0.0
 32
0.0
 42
50.0
 43
0.0
 44
0.0
 50
0.0
 71
     0
  0
VIEW
  2
2
 70
     0
 40
45.874421
 10
58.267764
 20
85.770388
 41
81.302192
 11
0.0
 21
0.0
 31
1.0
 12
0.0
 22
0.0
 32
0.0
 42
50.0
 43
0.0
 44
0.0
 50
0.0
 71
     0
  0
VIEW
  2
3
 70
     0
 40
69.947137
 10
58.267764
 20
28.313811
 41
71.309744
 11
0.0
 21
0.0
 31
1.0
 12
0.0
 22
0.0
 32
0.0
 42
50.0
 43
0.0
 44
0.0
 50
0.0
 71
     0
  0
ENDTAB
  0
TABLE
  2
UCS
 70
     0
  0
ENDTAB
  0
TABLE
  2
APPID
 70
     1
  0
APPID
  2
ACAD
 70
    64
  0
ENDTAB
  0
TABLE
  2
DIMSTYLE
 70
     0
  0
ENDTAB
  0
ENDSEC
  0
SECTION
  2
BLOCKS
  0
BLOCK
  8
0
  2
*X0
 70
    65
 10
0.0
 20
0.0
 30
0.0
  3
*X
  0
LINE
  8
0
 62
     0
 10
-110.601005
 20
35.770098
 30
0.0
 11
-104.601005
 21
41.770098
 31
0.0
  0
LINE
  8
0
 62
     0
 10
-112.335661
 20
36.156763
 30
0.0
 11
-105.137379
 21
43.355046
 31
0.0
  0
LINE
  8
0
 62
     0
 10
-114.142678
 20
36.471066
 30
0.0
 11
-107.101005
 21
43.512739
 31
0.0
  0
LINE
  8
0
 62
     0
 10
-115.949696
 20
36.785369
 30
0.0
 11
-107.101005
 21
45.634059
 31
0.0
  0
LINE
  8
0
 62
     0
 10
-117.496499
 20
37.359886
 30
0.0
 11
-107.101005
 21
47.75538
 31
0.0
  0
LINE
  8
0
 62
     0
 10
-117.831269
 20
39.146436
 30
0.0
 11
-107.101005
 21
49.8767
 31
0.0
  0
LINE
  8
0
 62
     0
 10
-117.581094
 20
41.517932
 30
0.0
 11
-107.846322
 21
51.252704
 31
0.0
  0
LINE
  8
0
 62
     0
 10
-117.330919
 20
43.889427
 30
0.0
 11
-110.305292
 21
50.915054
 31
0.0
  0
LINE
  8
0
 62
     0
 10
-117.080744
 20
46.260923
 30
0.0
 11
-112.764262
 21
50.577405
 31
0.0
  0
LINE
  8
0
 62
     0
 10
-116.830569
 20
48.632418
 30
0.0
 11
-115.223231
 21
50.239755
 31
0.0
  0
LINE
  8
0
 62
     0
 10
-110.601005
 20
33.648778
 30
0.0
 11
-104.601005
 21
39.648778
 31
0.0
  0
LINE
  8
0
 62
     0
 10
-110.601005
 20
31.527458
 30
0.0
 11
-104.601005
 21
37.527458
 31
0.0
  0
LINE
  8
0
 62
     0
 10
-110.601005
 20
29.406137
 30
0.0
 11
-104.601005
 21
35.406137
 31
0.0
  0
LINE
  8
0
 62
     0
 10
-110.601005
 20
27.284817
 30
0.0
 11
-104.601005
 21
33.284817
 31
0.0
  0
LINE
  8
0
 62
     0
 10
-110.601005
 20
25.163497
 30
0.0
 11
-104.601005
 21
31.163497
 31
0.0
  0
LINE
  8
0
 62
     0
 10
-110.194571
 20
23.448611
 30
0.0
 11
-104.601005
 21
29.042176
 31
0.0
  0
LINE
  8
0
 62
     0
 10
-109.133911
 20
22.387951
 30
0.0
 11
-104.601005
 21
26.920856
 31
0.0
  0
LINE
  8
0
 62
     0
 10
-107.045495
 20
22.355046
 30
0.0
 11
-104.601005
 21
24.799535
 31
0.0
  0
LINE
  8
0
 62
     0
 10
-104.924175
 20
22.355046
 30
0.0
 11
-104.601005
 21
22.678215
 31
0.0
  0
LINE
  8
0
 62
     0
 10
-104.601005
 20
30.354793
 30
0.0
 11
-117.40771
 21
43.161498
 31
0.0
  0
LINE
  8
0
 62
     0
 10
-104.601005
 20
28.233473
 30
0.0
 11
-110.601005
 21
34.233473
 31
0.0
  0
LINE
  8
0
 62
     0
 10
-112.564013
 20
36.196481
 30
0.0
 11
-117.610139
 21
41.242607
 31
0.0
  0
LINE
  8
0
 62
     0
 10
-104.601005
 20
26.112153
 30
0.0
 11
-110.601005
 21
32.112153
 31
0.0
  0
LINE
  8
0
 62
     0
 10
-115.131995
 20
36.643143
 30
0.0
 11
-117.812568
 21
39.323715
 31
0.0
  0
LINE
  8
0
 62
     0
 10
-104.601005
 20
23.990832
 30
0.0
 11
-110.601005
 21
29.990832
 31
0.0
  0
LINE
  8
0
 62
     0
 10
-105.086539
 20
22.355046
 30
0.0
 11
-110.601005
 21
27.869512
 31
0.0
  0
LINE
  8
0
 62
     0
 10
-107.207859
 20
22.355046
 30
0.0
 11
-110.601005
 21
25.748192
 31
0.0
  0
LINE
  8
0
 62
     0
 10
-104.601005
 20
32.476114
 30
0.0
 11
-117.205281
 21
45.08039
 31
0.0
  0
LINE
  8
0
 62
     0
 10
-104.601005
 20
34.597434
 30
0.0
 11
-117.002852
 21
46.999281
 31
0.0
  0
LINE
  8
0
 62
     0
 10
-104.601005
 20
36.718754
 30
0.0
 11
-116.799748
 21
48.917497
 31
0.0
  0
LINE
  8
0
 62
     0
 10
-104.601005
 20
38.840075
 30
0.0
 11
-115.868014
 21
50.107083
 31
0.0
  0
LINE
  8
0
 62
     0
 10
-104.601005
 20
40.961395
 30
0.0
 11
-106.994656
 21
43.355046
 31
0.0
  0
LINE
  8
0
 62
     0
 10
-107.101005
 20
43.461395
 30
0.0
 11
-114.041617
 21
50.402007
 31
0.0
  0
LINE
  8
0
 62
     0
 10
-104.601005
 20
43.082716
 30
0.0
 11
-104.873336
 21
43.355046
 31
0.0
  0
LINE
  8
0
 62
     0
 10
-107.101005
 20
45.582716
 30
0.0
 11
-112.176414
 21
50.658124
 31
0.0
  0
LINE
  8
0
 62
     0
 10
-107.101005
 20
47.704036
 30
0.0
 11
-110.311211
 21
50.914241
 31
0.0
  0
LINE
  8
0
 62
     0
 10
-107.101005
 20
49.825356
 30
0.0
 11
-108.446008
 21
51.170359
 31
0.0
  0
ENDBLK
  8
0
  0
BLOCK
  8
0
  2
*X1
 70
    65
 10
0.0
 20
0.0
 30
0.0
  3
*X
  0
LINE
  8
0
 62
     0
 10
-104.043229
 20
-42.524939
 30
0.0
 11
-98.473302
 21
-36.955012
 31
0.0
  0
LINE
  8
0
 62
     0
 10
-105.803964
 20
-42.164354
 30
0.0
 11
-98.473302
 21
-34.833692
 31
0.0
  0
LINE
  8
0
 62
     0
 10
-107.217249
 20
-41.456319
 30
0.0
 11
-98.473302
 21
-32.712372
 31
0.0
  0
LINE
  8
0
 62
     0
 10
-107.164824
 20
-39.282573
 30
0.0
 11
-98.473302
 21
-30.591051
 31
0.0
  0
LINE
  8
0
 62
     0
 10
-106.971976
 20
-36.968405
 30
0.0
 11
-98.473302
 21
-28.469731
 31
0.0
  0
LINE
  8
0
 62
     0
 10
-106.779129
 20
-34.654237
 30
0.0
 11
-100.930771
 21
-28.805879
 31
0.0
  0
LINE
  8
0
 62
     0
 10
-106.586282
 20
-32.34007
 30
0.0
 11
-103.412677
 21
-29.166465
 31
0.0
  0
LINE
  8
0
 62
     0
 10
-106.185302
 20
-29.817769
 30
0.0
 11
-106.078782
 21
-29.71125
 31
0.0
  0
LINE
  8
0
 62
     0
 10
-102.282494
 20
-42.885524
 30
0.0
 11
-98.473302
 21
-39.076333
 31
0.0
  0
LINE
  8
0
 62
     0
 10
-101.973302
 20
-44.697653
 30
0.0
 11
-97.724494
 21
-40.448844
 31
0.0
  0
LINE
  8
0
 62
     0
 10
-101.973302
 20
-46.818973
 30
0.0
 11
-97.473302
 21
-42.318973
 31
0.0
  0
LINE
  8
0
 62
     0
 10
-101.973302
 20
-48.940294
 30
0.0
 11
-97.473302
 21
-44.440294
 31
0.0
  0
LINE
  8
0
 62
     0
 10
-101.973302
 20
-51.061614
 30
0.0
 11
-97.473302
 21
-46.561614
 31
0.0
  0
LINE
  8
0
 62
     0
 10
-101.106257
 20
-52.315889
 30
0.0
 11
-97.473302
 21
-48.682934
 31
0.0
  0
LINE
  8
0
 62
     0
 10
-99.617892
 20
-52.948844
 30
0.0
 11
-97.473302
 21
-50.804255
 31
0.0
  0
LINE
  8
0
 62
     0
 10
-97.496572
 20
-52.948844
 30
0.0
 11
-97.473302
 21
-52.925575
 31
0.0
  0
LINE
  8
0
 62
     0
 10
-97.473302
 20
-44.655161
 30
0.0
 11
-106.832598
 21
-35.295865
 31
0.0
  0
LINE
  8
0
 62
     0
 10
-97.473302
 20
-46.776481
 30
0.0
 11
-106.995776
 21
-37.254007
 31
0.0
  0
LINE
  8
0
 62
     0
 10
-97.473302
 20
-48.897801
 30
0.0
 11
-101.973302
 21
-44.397801
 31
0.0
  0
LINE
  8
0
 62
     0
 10
-103.795414
 20
-42.57569
 30
0.0
 11
-107.158955
 21
-39.212149
 31
0.0
  0
LINE
  8
0
 62
     0
 10
-97.473302
 20
-51.019122
 30
0.0
 11
-101.973302
 21
-46.519122
 31
0.0
  0
LINE
  8
0
 62
     0
 10
-106.463045
 20
-42.029379
 30
0.0
 11
-107.295523
 21
-41.196901
 31
0.0
  0
LINE
  8
0
 62
     0
 10
-97.6649
 20
-52.948844
 30
0.0
 11
-101.973302
 21
-48.640442
 31
0.0
  0
LINE
  8
0
 62
     0
 10
-99.78622
 20
-52.948844
 30
0.0
 11
-101.973302
 21
-50.761762
 31
0.0
  0
LINE
  8
0
 62
     0
 10
-97.473302
 20
-42.53384
 30
0.0
 11
-106.669419
 21
-33.337723
 31
0.0
  0
LINE
  8
0
 62
     0
 10
-98.473302
 20
-39.41252
 30
0.0
 11
-106.506241
 21
-31.379581
 31
0.0
  0
LINE
  8
0
 62
     0
 10
-98.473302
 20
-37.2912
 30
0.0
 11
-106.064937
 21
-29.699565
 31
0.0
  0
LINE
  8
0
 62
     0
 10
-98.473302
 20
-35.169879
 30
0.0
 11
-104.341738
 21
-29.301444
 31
0.0
  0
LINE
  8
0
 62
     0
 10
-98.473302
 20
-33.048559
 30
0.0
 11
-102.489518
 21
-29.032343
 31
0.0
  0
LINE
  8
0
 62
     0
 10
-98.473302
 20
-30.927239
 30
0.0
 11
-100.637299
 21
-28.763242
 31
0.0
  0
LINE
  8
0
 62
     0
 10
-98.473302
 20
-28.805918
 30
0.0
 11
-98.78508
 21
-28.494141
 31
0.0
  0
ENDBLK
  8
0
  0
BLOCK
  8
0
  2
*X2
 70
    65
 10
0.0
 20
0.0
 30
0.0
  3
*X
  0
LINE
  8
0
 62
     0
 10
89.129069
 20
-32.493297
 30
0.0
 11
99.937177
 21
-21.68519
 31
0.0
  0
LINE
  8
0
 62
     0
 10
86.613782
 20
-32.180157
 30
0.0
 11
99.937177
 21
-18.856762
 31
0.0
  0
LINE
  8
0
 62
     0
 10
84.978178
 20
-30.987334
 30
0.0
 11
99.937177
 21
-16.028335
 31
0.0
  0
LINE
  8
0
 62
     0
 10
84.948362
 20
-28.188723
 30
0.0
 11
99.849935
 21
-13.28715
 31
0.0
  0
LINE
  8
0
 62
     0
 10
85.163179
 20
-25.145479
 30
0.0
 11
96.715152
 21
-13.593506
 31
0.0
  0
LINE
  8
0
 62
     0
 10
85.377996
 20
-22.102235
 30
0.0
 11
93.580368
 21
-13.899863
 31
0.0
  0
LINE
  8
0
 62
     0
 10
85.592813
 20
-19.05899
 30
0.0
 11
90.445584
 21
-14.206219
 31
0.0
  0
LINE
  8
0
 62
     0
 10
85.842391
 20
-15.980986
 30
0.0
 11
87.284847
 21
-14.538529
 31
0.0
  0
LINE
  8
0
 62
     0
 10
91.644356
 20
-32.806437
 30
0.0
 11
99.937177
 21
-24.513617
 31
0.0
  0
LINE
  8
0
 62
     0
 10
94.159643
 20
-33.119577
 30
0.0
 11
99.937177
 21
-27.342044
 31
0.0
  0
LINE
  8
0
 62
     0
 10
95.437177
 20
-34.670471
 30
0.0
 11
101.829024
 21
-28.278624
 31
0.0
  0
LINE
  8
0
 62
     0
 10
95.437177
 20
-37.498898
 30
0.0
 11
101.937177
 21
-30.998898
 31
0.0
  0
LINE
  8
0
 62
     0
 10
95.437177
 20
-40.327325
 30
0.0
 11
101.937177
 21
-33.827325
 31
0.0
  0
LINE
  8
0
 62
     0
 10
95.437177
 20
-43.155752
 30
0.0
 11
101.937177
 21
-36.655752
 31
0.0
  0
LINE
  8
0
 62
     0
 10
95.437177
 20
-45.984179
 30
0.0
 11
101.937177
 21
-39.484179
 31
0.0
  0
LINE
  8
0
 62
     0
 10
96.704168
 20
-47.545615
 30
0.0
 11
101.937177
 21
-42.312607
 31
0.0
  0
LINE
  8
0
 62
     0
 10
98.799587
 20
-48.278624
 30
0.0
 11
101.937177
 21
-45.141034
 31
0.0
  0
LINE
  8
0
 62
     0
 10
101.628014
 20
-48.278624
 30
0.0
 11
101.937177
 21
-47.969461
 31
0.0
  0
LINE
  8
0
 62
     0
 10
101.937177
 20
-39.71178
 30
0.0
 11
85.308741
 21
-23.083345
 31
0.0
  0
LINE
  8
0
 62
     0
 10
101.937177
 20
-42.540207
 30
0.0
 11
95.437177
 21
-36.040207
 31
0.0
  0
LINE
  8
0
 62
     0
 10
92.282903
 20
-32.885933
 30
0.0
 11
85.122252
 21
-25.725282
 31
0.0
  0
LINE
  8
0
 62
     0
 10
101.937177
 20
-45.368634
 30
0.0
 11
95.437177
 21
-38.868634
 31
0.0
  0
LINE
  8
0
 62
     0
 10
89.05228
 20
-32.483738
 30
0.0
 11
84.935762
 21
-28.367219
 31
0.0
  0
LINE
  8
0
 62
     0
 10
101.937177
 20
-48.197061
 30
0.0
 11
95.437177
 21
-41.697061
 31
0.0
  0
LINE
  8
0
 62
     0
 10
99.190312
 20
-48.278624
 30
0.0
 11
95.437177
 21
-44.525489
 31
0.0
  0
LINE
  8
0
 62
     0
 10
101.937177
 20
-36.883353
 30
0.0
 11
85.495231
 21
-20.441407
 31
0.0
  0
LINE
  8
0
 62
     0
 10
101.937177
 20
-34.054926
 30
0.0
 11
85.681721
 21
-17.79947
 31
0.0
  0
LINE
  8
0
 62
     0
 10
101.937177
 20
-31.226499
 30
0.0
 11
86.100747
 21
-15.390069
 31
0.0
  0
LINE
  8
0
 62
     0
 10
101.937177
 20
-28.398072
 30
0.0
 11
101.817729
 21
-28.278624
 31
0.0
  0
LINE
  8
0
 62
     0
 10
99.937177
 20
-26.398072
 30
0.0
 11
87.985722
 21
-14.446617
 31
0.0
  0
LINE
  8
0
 62
     0
 10
99.937177
 20
-23.569644
 30
0.0
 11
90.562341
 21
-14.194809
 31
0.0
  0
LINE
  8
0
 62
     0
 10
99.937177
 20
-20.741217
 30
0.0
 11
93.13896
 21
-13.943001
 31
0.0
  0
LINE
  8
0
 62
     0
 10
99.937177
 20
-17.91279
 30
0.0
 11
95.715579
 21
-13.691192
 31
0.0
  0
LINE
  8
0
 62
     0
 10
99.937177
 20
-15.084363
 30
0.0
 11
98.292198
 21
-13.439384
 31
0.0
  0
ENDBLK
  8
0
  0
BLOCK
  8
0
  2
*X3
 70
    65
 10
0.0
 20
0.0
 30
0.0
  3
*X
  0
LINE
  8
0
 62
     0
 10
6.342268
 20
85.538227
 30
0.0
 11
15.075903
 21
94.271862
 31
0.0
  0
LINE
  8
0
 62
     0
 10
3.906709
 20
85.931096
 30
0.0
 11
15.075903
 21
97.100289
 31
0.0
  0
LINE
  8
0
 62
     0
 10
1.471151
 20
86.323965
 30
0.0
 11
15.075903
 21
99.928716
 31
0.0
  0
LINE
  8
0
 62
     0
 10
-0.964408
 20
86.716833
 30
0.0
 11
15.075903
 21
102.757143
 31
0.0
  0
LINE
  8
0
 62
     0
 10
-3.255827
 20
87.253841
 30
0.0
 11
14.329051
 21
104.838719
 31
0.0
  0
LINE
  8
0
 62
     0
 10
-4.164366
 20
89.173729
 30
0.0
 11
11.07717
 21
104.415265
 31
0.0
  0
LINE
  8
0
 62
     0
 10
-3.86481
 20
92.301713
 30
0.0
 11
7.825289
 21
103.991811
 31
0.0
  0
LINE
  8
0
 62
     0
 10
-3.565253
 20
95.429696
 30
0.0
 11
4.573408
 21
103.568357
 31
0.0
  0
LINE
  8
0
 62
     0
 10
-3.265697
 20
98.55768
 30
0.0
 11
1.321527
 21
103.144903
 31
0.0
  0
LINE
  8
0
 62
     0
 10
-2.663528
 20
101.988275
 30
0.0
 11
-2.207592
 21
102.444212
 31
0.0
  0
LINE
  8
0
 62
     0
 10
8.777826
 20
85.145359
 30
0.0
 11
15.075903
 21
91.443435
 31
0.0
  0
LINE
  8
0
 62
     0
 10
10.075903
 20
83.615008
 30
0.0
 11
15.075903
 21
88.615008
 31
0.0
  0
LINE
  8
0
 62
     0
 10
10.075903
 20
80.786581
 30
0.0
 11
16.225294
 21
86.935972
 31
0.0
  0
LINE
  8
0
 62
     0
 10
10.075903
 20
77.958154
 30
0.0
 11
18.075903
 21
85.958154
 31
0.0
  0
LINE
  8
0
 62
     0
 10
10.075903
 20
75.129727
 30
0.0
 11
18.075903
 21
83.129727
 31
0.0
  0
LINE
  8
0
 62
     0
 10
10.075903
 20
72.301299
 30
0.0
 11
18.075903
 21
80.301299
 31
0.0
  0
LINE
  8
0
 62
     0
 10
10.307453
 20
69.704422
 30
0.0
 11
18.075903
 21
77.472872
 31
0.0
  0
LINE
  8
0
 62
     0
 10
11.721666
 20
68.290209
 30
0.0
 11
18.075903
 21
74.644445
 31
0.0
  0
LINE
  8
0
 62
     0
 10
14.195857
 20
67.935972
 30
0.0
 11
18.075903
 21
71.816018
 31
0.0
  0
LINE
  8
0
 62
     0
 10
17.024284
 20
67.935972
 30
0.0
 11
18.075903
 21
68.987591
 31
0.0
  0
LINE
  8
0
 62
     0
 10
18.075903
 20
75.262192
 30
0.0
 11
10.075903
 21
83.262192
 31
0.0
  0
LINE
  8
0
 62
     0
 10
8.080206
 20
85.257889
 30
0.0
 11
-3.436461
 21
96.774556
 31
0.0
  0
LINE
  8
0
 62
     0
 10
18.075903
 20
72.433765
 30
0.0
 11
10.075903
 21
80.433765
 31
0.0
  0
LINE
  8
0
 62
     0
 10
4.707791
 20
85.801877
 30
0.0
 11
-3.683656
 21
94.193324
 31
0.0
  0
LINE
  8
0
 62
     0
 10
18.075903
 20
69.605338
 30
0.0
 11
10.075903
 21
77.605338
 31
0.0
  0
LINE
  8
0
 62
     0
 10
1.335375
 20
86.345866
 30
0.0
 11
-3.930852
 21
91.612093
 31
0.0
  0
LINE
  8
0
 62
     0
 10
16.916842
 20
67.935972
 30
0.0
 11
10.075903
 21
74.776911
 31
0.0
  0
LINE
  8
0
 62
     0
 10
-2.037041
 20
86.889854
 30
0.0
 11
-4.17572
 21
89.028534
 31
0.0
  0
LINE
  8
0
 62
     0
 10
14.088414
 20
67.935972
 30
0.0
 11
10.075903
 21
71.948484
 31
0.0
  0
LINE
  8
0
 62
     0
 10
18.075903
 20
78.09062
 30
0.0
 11
-3.189265
 21
99.355787
 31
0.0
  0
LINE
  8
0
 62
     0
 10
18.075903
 20
80.919047
 30
0.0
 11
-2.791258
 21
101.786207
 31
0.0
  0
LINE
  8
0
 62
     0
 10
18.075903
 20
83.747474
 30
0.0
 11
-1.017007
 21
102.840384
 31
0.0
  0
LINE
  8
0
 62
     0
 10
18.075903
 20
86.575901
 30
0.0
 11
17.715831
 21
86.935972
 31
0.0
  0
LINE
  8
0
 62
     0
 10
15.075903
 20
89.575901
 30
0.0
 11
1.485542
 21
103.166261
 31
0.0
  0
LINE
  8
0
 62
     0
 10
15.075903
 20
92.404328
 30
0.0
 11
3.988092
 21
103.492138
 31
0.0
  0
LINE
  8
0
 62
     0
 10
15.075903
 20
95.232755
 30
0.0
 11
6.490642
 21
103.818016
 31
0.0
  0
LINE
  8
0
 62
     0
 10
15.075903
 20
98.061182
 30
0.0
 11
8.993192
 21
104.143893
 31
0.0
  0
LINE
  8
0
 62
     0
 10
15.075903
 20
100.889609
 30
0.0
 11
11.495742
 21
104.46977
 31
0.0
  0
LINE
  8
0
 62
     0
 10
15.075903
 20
103.718037
 30
0.0
 11
13.998292
 21
104.795648
 31
0.0
  0
ENDBLK
  8
0
  0
BLOCK
  8
0
  2
*X4
 70
    65
 10
0.0
 20
0.0
 30
0.0
  3
*X
  0
LINE
  8
0
 62
     0
 10
-63.237861
 20
157.733008
 30
0.0
 11
-61.337861
 21
159.633008
 31
0.0
  0
LINE
  8
0
 62
     0
 10
-63.237861
 20
159.500775
 30
0.0
 11
-61.337861
 21
161.400775
 31
0.0
  0
LINE
  8
0
 62
     0
 10
-63.237861
 20
161.268542
 30
0.0
 11
-61.337861
 21
163.168542
 31
0.0
  0
LINE
  8
0
 62
     0
 10
-63.237861
 20
163.036309
 30
0.0
 11
-61.337861
 21
164.936309
 31
0.0
  0
LINE
  8
0
 62
     0
 10
-63.237861
 20
164.804075
 30
0.0
 11
-61.695509
 21
166.346428
 31
0.0
  0
LINE
  8
0
 62
     0
 10
-63.237861
 20
155.965241
 30
0.0
 11
-61.337861
 21
157.865241
 31
0.0
  0
LINE
  8
0
 62
     0
 10
-63.237861
 20
154.197474
 30
0.0
 11
-61.337861
 21
156.097474
 31
0.0
  0
LINE
  8
0
 62
     0
 10
-61.778787
 20
153.888781
 30
0.0
 11
-61.337861
 21
154.329707
 31
0.0
  0
ENDBLK
  8
0
  0
BLOCK
  8
0
  2
*X6
 70
    65
 10
0.0
 20
0.0
 30
0.0
  3
*X
  0
LINE
  8
0
 62
     0
 10
243.238861
 20
179.599251
 30
0.0
 11
244.988861
 21
181.349251
 31
0.0
  0
LINE
  8
0
 62
     0
 10
243.238861
 20
181.720572
 30
0.0
 11
244.988861
 21
183.470572
 31
0.0
  0
LINE
  8
0
 62
     0
 10
243.238861
 20
183.841892
 30
0.0
 11
244.988861
 21
185.591892
 31
0.0
  0
LINE
  8
0
 62
     0
 10
243.238861
 20
185.963212
 30
0.0
 11
244.988861
 21
187.713212
 31
0.0
  0
LINE
  8
0
 62
     0
 10
243.238861
 20
188.084533
 30
0.0
 11
244.24103
 21
189.086701
 31
0.0
  0
LINE
  8
0
 62
     0
 10
243.238861
 20
177.477931
 30
0.0
 11
244.988861
 21
179.227931
 31
0.0
  0
LINE
  8
0
 62
     0
 10
243.238861
 20
175.35661
 30
0.0
 11
244.988861
 21
177.10661
 31
0.0
  0
LINE
  8
0
 62
     0
 10
243.238861
 20
173.23529
 30
0.0
 11
244.988861
 21
174.98529
 31
0.0
  0
LINE
  8
0
 62
     0
 10
243.238861
 20
171.11397
 30
0.0
 11
244.988861
 21
172.86397
 31
0.0
  0
ENDBLK
  8
0
  0
BLOCK
  8
0
  2
*X7
 70
    65
 10
0.0
 20
0.0
 30
0.0
  3
*X
  0
LINE
  8
0
 62
     0
 10
121.936817
 20
170.727185
 30
0.0
 11
123.686817
 21
172.477185
 31
0.0
  0
LINE
  8
0
 62
     0
 10
121.936817
 20
172.848506
 30
0.0
 11
123.686817
 21
174.598506
 31
0.0
  0
LINE
  8
0
 62
     0
 10
121.936817
 20
174.969826
 30
0.0
 11
123.686817
 21
176.719826
 31
0.0
  0
LINE
  8
0
 62
     0
 10
121.936817
 20
177.091146
 30
0.0
 11
123.686817
 21
178.841146
 31
0.0
  0
LINE
  8
0
 62
     0
 10
121.936817
 20
179.212467
 30
0.0
 11
123.686817
 21
180.962467
 31
0.0
  0
LINE
  8
0
 62
     0
 10
121.936817
 20
181.333787
 30
0.0
 11
123.056382
 21
182.453352
 31
0.0
  0
LINE
  8
0
 62
     0
 10
121.936817
 20
168.605865
 30
0.0
 11
123.686817
 21
170.355865
 31
0.0
  0
LINE
  8
0
 62
     0
 10
121.936817
 20
166.484545
 30
0.0
 11
123.686817
 21
168.234545
 31
0.0
  0
LINE
  8
0
 62
     0
 10
121.936817
 20
164.363224
 30
0.0
 11
123.686817
 21
166.113224
 31
0.0
  0
LINE
  8
0
 62
     0
 10
122.26783
 20
162.572917
 30
0.0
 11
123.686817
 21
163.991904
 31
0.0
  0
ENDBLK
  8
0
  0
BLOCK
  8
0
  2
*X8
 70
    65
 10
0.0
 20
0.0
 30
0.0
  3
*X
  0
LINE
  8
0
 62
     0
 10
22.521217
 20
166.771001
 30
0.0
 11
24.221217
 21
168.471001
 31
0.0
  0
LINE
  8
0
 62
     0
 10
22.521217
 20
168.892321
 30
0.0
 11
24.221217
 21
170.592321
 31
0.0
  0
LINE
  8
0
 62
     0
 10
22.521217
 20
171.013641
 30
0.0
 11
24.221217
 21
172.713641
 31
0.0
  0
LINE
  8
0
 62
     0
 10
22.521217
 20
173.134962
 30
0.0
 11
24.221217
 21
174.834962
 31
0.0
  0
LINE
  8
0
 62
     0
 10
22.521217
 20
175.256282
 30
0.0
 11
24.221217
 21
176.956282
 31
0.0
  0
LINE
  8
0
 62
     0
 10
22.521217
 20
177.377603
 30
0.0
 11
23.350647
 21
178.207032
 31
0.0
  0
LINE
  8
0
 62
     0
 10
22.521217
 20
164.64968
 30
0.0
 11
24.221217
 21
166.34968
 31
0.0
  0
LINE
  8
0
 62
     0
 10
22.521217
 20
162.52836
 30
0.0
 11
24.221217
 21
164.22836
 31
0.0
  0
LINE
  8
0
 62
     0
 10
22.521217
 20
160.40704
 30
0.0
 11
24.221217
 21
162.10704
 31
0.0
  0
LINE
  8
0
 62
     0
 10
22.521217
 20
158.285719
 30
0.0
 11
24.221217
 21
159.985719
 31
0.0
  0
ENDBLK
  8
0
  0
ENDSEC
  0
SECTION
  2
ENTITIES
  0
LINE
  8
0
  6
CENTER
 10
-59.237861
 20
151.281026
 30
0.0
 11
-59.237861
 21
179.611472
 31
0.0
  0
LINE
  8
0
 10
-66.237861
 20
153.888781
 30
0.0
 11
-52.237861
 21
153.888781
 31
0.0
  0
LINE
  8
0
 10
-67.737861
 20
155.388781
 30
0.0
 11
-67.737861
 21
163.888781
 31
0.0
  0
LINE
  8
0
 10
-50.737861
 20
155.388781
 30
0.0
 11
-50.737861
 21
163.888781
 31
0.0
  0
LINE
  8
0
 10
-59.237861
 20
163.888781
 30
0.0
 11
-50.737861
 21
163.888781
 31
0.0
  0
LINE
  8
0
 10
-64.237861
 20
178.388781
 30
0.0
 11
-54.237861
 21
178.388781
 31
0.0
  0
ARC
  8
0
 10
-68.566362
 20
111.268999
 30
0.0
 40
8.535
 50
41.321668
 51
86.08734
  0
ARC
  8
0
 10
-59.237861
 20
119.639829
 30
0.0
 40
4.0
 50
223.143111
 51
319.337355
  0
ARC
  8
0
 10
-49.909361
 20
111.268999
 30
0.0
 40
8.535
 50
92.75024
 51
137.515911
  0
ARC
  8
0
 10
-50.637715
 20
123.781441
 30
0.0
 40
4.0
 50
274.571683
 51
10.765926
  0
ARC
  8
0
 10
-38.276911
 20
125.855629
 30
0.0
 40
8.535
 50
144.178811
 51
188.944483
  0
ARC
  8
0
 10
-48.513654
 20
133.08756
 30
0.0
 40
4.0
 50
326.000254
 51
62.194498
  0
ARC
  8
0
 10
-42.428485
 20
144.04486
 30
0.0
 40
8.535
 50
195.607382
 51
240.373054
  0
ARC
  8
0
 10
-54.46514
 20
140.550487
 30
0.0
 40
4.0
 50
17.428826
 51
113.623069
  0
ARC
  8
0
 10
-59.237861
 20
152.139829
 30
0.0
 40
8.535
 50
247.035954
 51
291.801626
  0
ARC
  8
0
 10
-64.010583
 20
140.550487
 30
0.0
 40
4.0
 50
68.857397
 51
165.05164
  0
ARC
  8
0
 10
-76.047238
 20
144.04486
 30
0.0
 40
8.535
 50
298.464525
 51
343.230197
  0
ARC
  8
0
 10
-69.962069
 20
133.08756
 30
0.0
 40
4.0
 50
120.285969
 51
216.480212
  0
ARC
  8
0
 10
-80.198812
 20
125.855629
 30
0.0
 40
8.535
 50
349.893097
 51
34.658768
  0
ARC
  8
0
 10
-67.838008
 20
123.781441
 30
0.0
 40
4.0
 50
171.71454
 51
267.908783
  0
CIRCLE
  8
0
 10
-59.237861
 20
130.639829
 30
0.0
 40
5.0
  0
CIRCLE
  8
0
 10
-59.237861
 20
130.639829
 30
0.0
 40
2.5
  0
CIRCLE
  8
0
 10
-59.237861
 20
130.639829
 30
0.0
 40
2.1
  0
LINE
  8
0
 10
-64.237861
 20
166.388781
 30
0.0
 11
-64.237861
 21
178.388781
 31
0.0
  0
LINE
  8
0
 10
-72.971966
 20
164.960686
 30
0.0
 11
-67.737861
 21
163.888781
 31
0.0
  0
LINE
  8
0
 10
-50.737861
 20
163.888781
 30
0.0
 11
-45.466714
 21
164.961501
 31
0.0
  0
LINE
  8
0
 10
-50.737861
 20
155.388781
 30
0.0
 11
-52.237861
 21
153.888781
 31
0.0
  0
LINE
  8
0
 10
-67.737861
 20
155.388781
 30
0.0
 11
-66.237861
 21
153.888781
 31
0.0
  0
LINE
  8
0
 10
-50.737861
 20
155.388781
 30
0.0
 11
-59.237861
 21
155.388781
 31
0.0
  0
LINE
  8
0
 10
-64.237861
 20
166.388781
 30
0.0
 11
-59.237861
 21
166.388781
 31
0.0
  0
LINE
  8
0
 10
-64.237861
 20
178.388781
 30
0.0
 11
-72.054853
 21
177.253084
 31
0.0
  0
LINE
  8
0
 10
-72.907623
 20
176.346519
 30
0.0
 11
-73.767883
 21
166.023399
 31
0.0
  0
LINE
  8
0
 10
-54.237861
 20
178.388781
 30
0.0
 11
-46.379528
 21
177.224098
 31
0.0
  0
LINE
  8
0
 10
-45.529609
 20
176.318161
 30
0.0
 11
-44.669606
 21
166.024673
 31
0.0
  0
LINE
  8
0
 10
-72.188048
 20
176.451063
 30
0.0
 11
-73.068949
 21
165.880262
 31
0.0
  0
LINE
  8
0
 10
-58.067893
 20
165.780101
 30
0.0
 11
-58.282438
 21
176.559228
 31
0.0
  0
ARC
  8
0
 10
-53.886084
 20
153.961989
 30
0.0
 40
23.434433
 50
77.243916
 51
99.033658
  0
LINE
  8
0
 10
-47.355271
 20
165.881551
 30
0.0
 11
-48.136267
 21
176.571422
 31
0.0
  0
ARC
  8
0
 10
-52.727635
 20
189.321188
 30
0.0
 40
24.264067
 50
258.399675
 51
281.600325
  0
ARC
  8
0
 10
-76.047238
 20
144.04486
 30
0.0
 40
9.535
 50
298.464525
 51
343.230197
  0
ARC
  8
0
 10
-69.962069
 20
133.08756
 30
0.0
 40
3.0
 50
120.285969
 51
216.480212
  0
ARC
  8
0
 10
-80.198812
 20
125.855629
 30
0.0
 40
9.535
 50
349.893097
 51
34.658768
  0
ARC
  8
0
 10
-67.838008
 20
123.781441
 30
0.0
 40
3.0
 50
171.71454
 51
267.908783
  0
ARC
  8
0
 10
-68.566362
 20
111.268999
 30
0.0
 40
9.535
 50
41.321668
 51
86.08734
  0
ARC
  8
0
 10
-59.237861
 20
119.639829
 30
0.0
 40
3.0
 50
223.143111
 51
319.337355
  0
ARC
  8
0
 10
-49.909361
 20
111.268999
 30
0.0
 40
9.535
 50
92.75024
 51
137.515911
  0
ARC
  8
0
 10
-50.637715
 20
123.781441
 30
0.0
 40
3.0
 50
274.571683
 51
10.765926
  0
ARC
  8
0
 10
-38.276911
 20
125.855629
 30
0.0
 40
9.535
 50
144.178811
 51
188.944483
  0
ARC
  8
0
 10
-48.513654
 20
133.08756
 30
0.0
 40
3.0
 50
326.000254
 51
62.194498
  0
ARC
  8
0
 10
-42.428485
 20
144.04486
 30
0.0
 40
9.535
 50
195.607382
 51
240.373054
  0
ARC
  8
0
 10
-54.46514
 20
140.550487
 30
0.0
 40
3.0
 50
17.428826
 51
113.623069
  0
ARC
  8
0
 10
-59.237861
 20
152.139829
 30
0.0
 40
9.535
 50
247.035954
 51
291.801626
  0
ARC
  8
0
 10
-64.010583
 20
140.550487
 30
0.0
 40
3.0
 50
68.857397
 51
165.05164
  0
ARC
  8
0
 10
-45.666134
 20
165.941415
 30
0.0
 40
1.0
 50
281.503054
 51
4.775871
  0
ARC
  8
0
 10
-46.526137
 20
176.234903
 30
0.0
 40
1.0
 50
4.775871
 51
81.569567
  0
ARC
  8
0
 10
-71.191503
 20
176.368018
 30
0.0
 40
1.0
 50
98.266417
 51
175.236358
  0
ARC
  8
0
 10
-72.072403
 20
165.797217
 30
0.0
 40
1.0
 50
175.236358
 51
258.426285
  0
ARC
  8
0
 10
-71.911077
 20
176.263474
 30
0.0
 40
1.0
 50
98.266417
 51
175.236358
  0
ARC
  8
0
 10
-72.771337
 20
165.940353
 30
0.0
 40
1.0
 50
175.236358
 51
258.426285
  0
LINE
  8
0
 10
-61.737861
 20
153.888781
 30
0.0
 11
-61.737861
 21
166.388781
 31
0.0
  0
LINE
  8
0
 10
-61.337861
 20
154.288781
 30
0.0
 11
-61.337861
 21
165.988781
 31
0.0
  0
LINE
  8
0
 10
-63.237861
 20
153.888781
 30
0.0
 11
-63.237861
 21
166.388781
 31
0.0
  0
LINE
  8
0
 10
-22.36349
 20
142.522419
 30
0.0
 11
-13.165006
 21
141.850384
 31
0.0
  0
LINE
  8
0
 10
-33.39371
 20
139.139829
 30
0.0
 11
-33.39371
 21
130.639829
 31
0.0
  0
LINE
  8
0
 10
-24.89371
 20
130.639829
 30
0.0
 11
-24.89371
 21
139.139829
 31
0.0
  0
LINE
  8
0
 10
-34.89371
 20
137.639829
 30
0.0
 11
-34.89371
 21
123.639829
 31
0.0
  0
LINE
  8
0
 10
-33.39371
 20
139.139829
 30
0.0
 11
-24.89371
 21
139.139829
 31
0.0
  0
LINE
  8
0
 10
-33.39371
 20
122.139829
 30
0.0
 11
-24.89371
 21
122.139829
 31
0.0
  0
LINE
  8
0
 10
-24.89371
 20
130.639829
 30
0.0
 11
-24.89371
 21
122.139829
 31
0.0
  0
LINE
  8
0
 10
-10.39371
 20
135.639829
 30
0.0
 11
-10.39371
 21
125.639829
 31
0.0
  0
LINE
  8
0
 10
-33.39371
 20
122.139829
 30
0.0
 11
-34.89371
 21
123.639829
 31
0.0
  0
LINE
  8
0
 10
-33.39371
 20
139.139829
 30
0.0
 11
-34.89371
 21
137.639829
 31
0.0
  0
LINE
  8
0
 10
-33.39371
 20
122.139829
 30
0.0
 11
-33.39371
 21
130.639829
 31
0.0
  0
LINE
  8
0
 10
-12.42705
 20
143.689483
 30
0.0
 11
-22.778584
 21
144.552111
 31
0.0
  0
LINE
  8
0
 10
-12.469948
 20
116.499363
 30
0.0
 11
-22.746274
 21
115.640794
 31
0.0
  0
LINE
  8
0
 10
-23.836626
 20
143.777787
 30
0.0
 11
-24.89371
 21
139.139829
 31
0.0
  0
LINE
  8
0
 10
-10.39371
 20
135.639829
 30
0.0
 11
-11.522129
 21
142.847609
 31
0.0
  0
ARC
  8
0
 10
-22.861629
 20
143.555565
 30
0.0
 40
1.0
 50
85.236358
 51
167.160464
  0
ARC
  8
0
 10
-12.510095
 20
142.692938
 30
0.0
 40
1.0
 50
8.89776
 51
85.236358
  0
LINE
  8
0
 10
-23.811931
 20
116.450526
 30
0.0
 11
-24.89371
 21
122.139829
 31
0.0
  0
LINE
  8
0
 10
-10.39371
 20
125.639829
 30
0.0
 11
-11.563022
 21
117.356119
 31
0.0
  0
ARC
  8
0
 10
-22.829532
 20
116.637322
 30
0.0
 40
1.0
 50
190.76585
 51
274.775871
  0
ARC
  8
0
 10
-12.553206
 20
117.495891
 30
0.0
 40
1.0
 50
274.775871
 51
351.965324
  0
LINE
  8
0
 10
-22.758095
 20
120.647163
 30
0.0
 11
-12.676682
 21
120.847821
 31
0.0
  0
ARC
  8
0
 10
-8.586084
 20
127.127316
 30
0.0
 40
15.571635
 50
162.295594
 51
194.960223
  0
ARC
  8
0
 10
-35.030554
 20
127.293133
 30
0.0
 40
23.149151
 50
349.714933
 51
10.988074
  0
ARC
  8
0
 10
-14.975411
 20
138.562028
 30
0.0
 40
8.604924
 50
158.85195
 51
198.0236
  0
ARC
  8
0
 10
-23.698612
 20
138.120274
 30
0.0
 40
11.50659
 50
347.53909
 51
14.68571
  0
ARC
  8
0
 10
-17.845532
 20
119.520677
 30
0.0
 40
5.110742
 50
176.814736
 51
211.257751
  0
ARC
  8
0
 10
-19.362988
 20
119.84543
 30
0.0
 40
6.695804
 50
339.476042
 51
2.343404
  0
LINE
  8
0
 10
-22.886718
 20
135.05483
 30
0.0
 11
-12.956148
 21
134.857174
 31
0.0
  0
LINE
  8
0
 10
-22.840907
 20
132.749583
 30
0.0
 11
-12.956148
 21
132.946327
 31
0.0
  0
LINE
  8
0
 10
-22.888817
 20
122.246054
 30
0.0
 11
-12.726142
 21
122.246054
 31
0.0
  0
ARC
  8
0
 10
13.686472
 20
101.911685
 30
0.0
 40
14.5
 50
45.852865
 51
82.718564
  0
ARC
  8
0
 10
15.793745
 20
121.287482
 30
0.0
 40
5.0
 50
170.232554
 51
266.910303
  0
ARC
  8
0
 10
27.521217
 20
115.639829
 30
0.0
 40
5.0
 50
221.661125
 51
318.338875
  0
ARC
  8
0
 10
41.355963
 20
101.911685
 30
0.0
 40
14.5
 50
97.281436
 51
134.147135
  0
ARC
  8
0
 10
39.24869
 20
121.287482
 30
0.0
 40
5.0
 50
273.089697
 51
9.767446
  0
ARC
  8
0
 10
58.607608
 20
123.544564
 30
0.0
 40
14.5
 50
148.710007
 51
185.575707
  0
ARC
  8
0
 10
42.145136
 20
133.977643
 30
0.0
 40
5.0
 50
324.518268
 51
61.196018
  0
ARC
  8
0
 10
52.450567
 20
150.520322
 30
0.0
 40
14.5
 50
200.138579
 51
237.004278
  0
ARC
  8
0
 10
34.029474
 20
144.154362
 30
0.0
 40
5.0
 50
15.94684
 51
112.624589
  0
ARC
  8
0
 10
27.521217
 20
162.525664
 30
0.0
 40
14.5
 50
251.56715
 51
288.43285
  0
ARC
  8
0
 10
21.012961
 20
144.154362
 30
0.0
 40
5.0
 50
67.375411
 51
164.05316
  0
ARC
  8
0
 10
2.591868
 20
150.520322
 30
0.0
 40
14.5
 50
302.995722
 51
339.861421
  0
ARC
  8
0
 10
12.897299
 20
133.977643
 30
0.0
 40
5.0
 50
118.803982
 51
215.481732
  0
ARC
  8
0
 10
-3.565173
 20
123.544564
 30
0.0
 40
14.5
 50
354.424293
 51
31.289993
  0
LINE
  8
0
 10
18.021217
 20
157.207032
 30
0.0
 11
37.021217
 21
157.207032
 31
0.0
  0
LINE
  8
0
 10
20.021217
 20
186.207032
 30
0.0
 11
35.021217
 21
186.207032
 31
0.0
  0
LINE
  8
0
 10
16.521217
 20
158.707032
 30
0.0
 11
16.521217
 21
170.707032
 31
0.0
  0
LINE
  8
0
 10
38.521217
 20
158.707032
 30
0.0
 11
38.521217
 21
170.707032
 31
0.0
  0
LINE
  8
0
 10
27.521217
 20
170.707032
 30
0.0
 11
38.521217
 21
170.707032
 31
0.0
  0
CIRCLE
  8
0
 10
27.521217
 20
130.639829
 30
0.0
 40
7.5
  0
LINE
  8
0
 10
20.021217
 20
178.207032
 30
0.0
 11
20.021217
 21
186.207032
 31
0.0
  0
ARC
  8
0
 10
12.897299
 20
133.977643
 30
0.0
 40
3.8
 50
118.803982
 51
215.481732
  0
ARC
  8
0
 10
-3.565173
 20
123.544564
 30
0.0
 40
15.7
 50
354.424293
 51
31.289993
  0
ARC
  8
0
 10
15.793745
 20
121.287482
 30
0.0
 40
3.8
 50
170.232554
 51
266.910303
  0
ARC
  8
0
 10
13.686472
 20
101.911685
 30
0.0
 40
15.7
 50
45.852865
 51
82.718564
  0
ARC
  8
0
 10
27.521217
 20
115.639829
 30
0.0
 40
3.8
 50
221.661125
 51
318.338875
  0
ARC
  8
0
 10
41.355963
 20
101.911685
 30
0.0
 40
15.7
 50
97.281436
 51
134.147135
  0
ARC
  8
0
 10
39.24869
 20
121.287482
 30
0.0
 40
3.8
 50
273.089697
 51
9.767446
  0
ARC
  8
0
 10
58.607608
 20
123.544564
 30
0.0
 40
15.7
 50
148.710007
 51
185.575707
  0
ARC
  8
0
 10
42.145136
 20
133.977643
 30
0.0
 40
3.8
 50
324.518268
 51
61.196018
  0
ARC
  8
0
 10
52.450567
 20
150.520322
 30
0.0
 40
15.7
 50
200.138579
 51
237.004278
  0
ARC
  8
0
 10
34.029474
 20
144.154362
 30
0.0
 40
3.8
 50
15.94684
 51
112.624589
  0
ARC
  8
0
 10
27.521217
 20
162.525664
 30
0.0
 40
15.7
 50
251.56715
 51
288.43285
  0
ARC
  8
0
 10
21.012961
 20
144.154362
 30
0.0
 40
3.8
 50
67.375411
 51
164.05316
  0
ARC
  8
0
 10
2.591868
 20
150.520322
 30
0.0
 40
15.7
 50
302.995722
 51
339.861421
  0
LINE
  8
0
 10
20.021217
 20
186.207032
 30
0.0
 11
10.272976
 21
184.868468
 31
0.0
  0
LINE
  8
0
 10
8.983896
 20
183.525753
 30
0.0
 11
8.030072
 21
173.590091
 31
0.0
  0
LINE
  8
0
 10
9.266165
 20
171.968938
 30
0.0
 11
16.521217
 21
170.707032
 31
0.0
  0
LINE
  8
0
 10
35.021217
 20
186.207032
 30
0.0
 11
44.769459
 21
184.868468
 31
0.0
  0
LINE
  8
0
 10
46.058539
 20
183.525753
 30
0.0
 11
47.012362
 21
173.590091
 31
0.0
  0
LINE
  8
0
 10
45.77627
 20
171.968938
 30
0.0
 11
38.521217
 21
170.707032
 31
0.0
  0
LINE
  8
0
 10
10.316783
 20
183.722607
 30
0.0
 11
9.227413
 21
173.396102
 31
0.0
  0
ARC
  8
0
 10
11.808505
 20
183.565241
 30
0.0
 40
1.5
 50
97.818581
 51
173.977994
  0
ARC
  8
0
 10
10.477031
 20
183.382412
 30
0.0
 40
1.5
 50
97.818581
 51
174.51641
  0
ARC
  8
0
 10
10.719136
 20
173.238737
 30
0.0
 40
1.5
 50
173.977994
 51
260.13298
  0
ARC
  8
0
 10
9.523208
 20
173.44675
 30
0.0
 40
1.5
 50
174.51641
 51
260.13298
  0
ARC
  8
0
 10
44.565403
 20
183.382412
 30
0.0
 40
1.5
 50
5.48359
 51
82.181419
  0
ARC
  8
0
 10
45.519227
 20
173.44675
 30
0.0
 40
1.5
 50
279.86702
 51
5.48359
  0
LINE
  8
0
 10
16.521217
 20
158.707032
 30
0.0
 11
18.021217
 21
157.207032
 31
0.0
  0
LINE
  8
0
 10
37.021217
 20
157.207032
 30
0.0
 11
38.521217
 21
158.707032
 31
0.0
  0
LINE
  8
0
 10
38.521217
 20
158.707032
 30
0.0
 11
27.521217
 21
158.707032
 31
0.0
  0
LINE
  8
0
 10
20.021217
 20
178.207032
 30
0.0
 11
27.521217
 21
178.207032
 31
0.0
  0
LINE
  8
0
 10
82.413345
 20
145.70137
 30
0.0
 11
72.477683
 21
146.655193
 31
0.0
  0
LINE
  8
0
 10
72.462347
 20
135.817981
 30
0.0
 11
82.494202
 21
135.655115
 31
0.0
  0
LINE
  8
0
 10
72.462347
 20
133.083942
 30
0.0
 11
82.494202
 21
133.246809
 31
0.0
  0
LINE
  8
0
 10
82.263888
 20
116.505088
 30
0.0
 11
72.328227
 21
115.969571
 31
0.0
  0
LINE
  8
0
 10
56.571776
 20
140.139829
 30
0.0
 11
56.571776
 21
121.139829
 31
0.0
  0
LINE
  8
0
 10
85.571776
 20
138.139829
 30
0.0
 11
85.571776
 21
123.139829
 31
0.0
  0
LINE
  8
0
 10
58.071776
 20
141.639829
 30
0.0
 11
70.071776
 21
141.639829
 31
0.0
  0
LINE
  8
0
 10
58.071776
 20
119.639829
 30
0.0
 11
70.071776
 21
119.639829
 31
0.0
  0
LINE
  8
0
 10
70.071776
 20
141.639829
 30
0.0
 11
70.071776
 21
119.639829
 31
0.0
  0
LINE
  8
0
 10
82.908839
 20
148.066004
 30
0.0
 11
72.920808
 21
149.024855
 31
0.0
  0
LINE
  8
0
 10
82.88504
 20
111.725903
 30
0.0
 11
72.964666
 21
110.773547
 31
0.0
  0
LINE
  8
0
 10
58.071776
 20
141.639829
 30
0.0
 11
56.571776
 21
140.139829
 31
0.0
  0
LINE
  8
0
 10
56.571776
 20
121.139829
 30
0.0
 11
58.071776
 21
119.639829
 31
0.0
  0
LINE
  8
0
 10
58.071776
 20
119.639829
 30
0.0
 11
58.071776
 21
141.639829
 31
0.0
  0
LINE
  8
0
 10
71.306487
 20
147.825347
 30
0.0
 11
70.071776
 21
141.639829
 31
0.0
  0
LINE
  8
0
 10
84.248281
 20
146.799489
 30
0.0
 11
85.571776
 21
138.139829
 31
0.0
  0
LINE
  8
0
 10
85.571776
 20
123.139829
 30
0.0
 11
84.228655
 21
113.021654
 31
0.0
  0
LINE
  8
0
 10
70.071776
 20
119.639829
 30
0.0
 11
71.341734
 21
112.020084
 31
0.0
  0
ARC
  8
0
 10
72.777467
 20
147.53172
 30
0.0
 40
1.5
 50
84.51641
 51
168.711379
  0
ARC
  8
0
 10
82.765498
 20
146.572869
 30
0.0
 40
1.5
 50
8.689535
 51
84.51641
  0
ARC
  8
0
 10
82.741699
 20
113.219038
 30
0.0
 40
1.5
 50
275.48359
 51
352.438572
  0
ARC
  8
0
 10
72.821325
 20
112.266682
 30
0.0
 40
1.5
 50
189.462322
 51
275.48359
  0
LINE
  8
0
 10
72.226205
 20
118.134748
 30
0.0
 11
82.190083
 21
118.065031
 31
0.0
  0
ARC
  8
0
 10
63.889908
 20
125.664047
 30
0.0
 40
20.052378
 50
340.60778
 51
19.39222
  0
ARC
  8
0
 10
108.583025
 20
124.798716
 30
0.0
 40
37.131562
 50
168.41996
 51
189.192995
  0
ARC
  8
0
 10
87.523106
 20
140.866139
 30
0.0
 40
16.021454
 50
162.9322
 51
195.277403
  0
ARC
  8
0
 10
72.143171
 20
140.35622
 30
0.0
 40
11.266365
 50
341.140175
 51
20.943136
  0
ARC
  8
0
 10
75.250393
 20
114.321905
 30
0.0
 40
2.740712
 50
169.466724
 51
236.585404
  0
ARC
  8
0
 10
80.092322
 20
114.073929
 30
0.0
 40
2.577715
 50
319.000166
 51
36.020591
  0
ARC
  8
0
 10
35.53832
 20
167.919898
 30
0.0
 40
16.51854
 50
70.021418
 51
107.028236
  0
ARC
  8
0
 10
36.486745
 20
189.738979
 30
0.0
 40
17.901628
 50
251.751058
 51
287.305777
  0
LINE
  8
0
 10
42.582758
 20
183.0486
 30
0.0
 11
43.536581
 21
173.112938
 31
0.0
  0
LINE
  8
0
 10
29.261878
 20
173.097603
 30
0.0
 11
29.099011
 21
183.129457
 31
0.0
  0
LINE
  8
0
 10
22.521217
 20
157.207032
 30
0.0
 11
22.521217
 21
178.207032
 31
0.0
  0
LINE
  8
0
 10
23.521217
 20
157.207032
 30
0.0
 11
23.521217
 21
178.207032
 31
0.0
  0
LINE
  8
0
 10
24.221217
 20
157.907032
 30
0.0
 11
24.221217
 21
177.507032
 31
0.0
  0
LINE
  8
0
  6
CENTER
 10
27.521217
 20
155.237956
 30
0.0
 11
27.521217
 21
186.781782
 31
0.0
  0
CIRCLE
  8
0
 10
27.521217
 20
130.639829
 30
0.0
 40
4.0
  0
CIRCLE
  8
0
 10
27.521217
 20
130.639829
 30
0.0
 40
3.3
  0
INSERT
  8
0
  2
*X0
 10
127.122223
 20
134.851986
 30
0.0
  0
INSERT
  8
0
  2
*X1
 10
34.235441
 20
206.837625
 30
0.0
  0
ARC
  8
0
 10
127.936817
 20
112.639829
 30
0.0
 40
7.0
 50
220.251384
 51
319.748616
  0
ARC
  8
0
 10
111.984152
 20
97.513778
 30
0.0
 40
15.0
 50
44.980842
 51
83.590586
  0
ARC
  8
0
 10
143.889483
 20
97.513778
 30
0.0
 40
15.0
 50
96.409414
 51
135.019158
  0
ARC
  8
0
 10
142.009784
 20
119.417013
 30
0.0
 40
7.0
 50
271.679955
 51
11.177188
  0
ARC
  8
0
 10
163.782132
 20
122.45837
 30
0.0
 40
15.0
 50
147.837985
 51
186.447729
  0
ARC
  8
0
 10
145.48552
 20
134.645206
 30
0.0
 40
7.0
 50
323.108527
 51
62.605759
  0
ARC
  8
0
 10
156.682528
 20
153.563768
 30
0.0
 40
15.0
 50
199.266557
 51
237.876301
  0
ARC
  8
0
 10
135.746725
 20
146.857269
 30
0.0
 40
7.0
 50
14.537098
 51
114.03433
  0
ARC
  8
0
 10
127.936817
 20
167.406973
 30
0.0
 40
15.0
 50
250.695128
 51
289.304872
  0
ARC
  8
0
 10
120.12691
 20
146.857269
 30
0.0
 40
7.0
 50
65.96567
 51
165.462902
  0
ARC
  8
0
 10
99.191107
 20
153.563768
 30
0.0
 40
15.0
 50
302.123699
 51
340.733443
  0
ARC
  8
0
 10
110.388115
 20
134.645206
 30
0.0
 40
7.0
 50
117.394241
 51
216.891473
  0
ARC
  8
0
 10
92.091503
 20
122.45837
 30
0.0
 40
15.0
 50
353.552271
 51
32.162015
  0
ARC
  8
0
 10
113.863851
 20
119.417013
 30
0.0
 40
7.0
 50
168.822812
 51
268.320045
  0
ARC
  8
0
 10
110.388115
 20
134.645206
 30
0.0
 40
5.8
 50
117.394241
 51
216.891473
  0
ARC
  8
0
 10
99.191107
 20
153.563768
 30
0.0
 40
16.2
 50
302.123699
 51
340.733443
  0
ARC
  8
0
 10
120.12691
 20
146.857269
 30
0.0
 40
5.8
 50
65.96567
 51
165.462902
  0
ARC
  8
0
 10
127.936817
 20
167.406973
 30
0.0
 40
16.2
 50
250.695128
 51
289.304872
  0
ARC
  8
0
 10
135.746725
 20
146.857269
 30
0.0
 40
5.8
 50
14.537098
 51
114.03433
  0
ARC
  8
0
 10
156.682528
 20
153.563768
 30
0.0
 40
16.2
 50
199.266557
 51
237.876301
  0
ARC
  8
0
 10
145.48552
 20
134.645206
 30
0.0
 40
5.8
 50
323.108527
 51
62.605759
  0
ARC
  8
0
 10
163.782132
 20
122.45837
 30
0.0
 40
16.2
 50
147.837985
 51
186.447729
  0
ARC
  8
0
 10
142.009784
 20
119.417013
 30
0.0
 40
5.8
 50
271.679955
 51
11.177188
  0
ARC
  8
0
 10
143.889483
 20
97.513778
 30
0.0
 40
16.2
 50
96.409414
 51
135.019158
  0
ARC
  8
0
 10
127.936817
 20
112.639829
 30
0.0
 40
5.8
 50
220.251384
 51
319.748616
  0
ARC
  8
0
 10
111.984152
 20
97.513778
 30
0.0
 40
16.2
 50
44.980842
 51
83.590586
  0
ARC
  8
0
 10
113.863851
 20
119.417013
 30
0.0
 40
5.8
 50
168.822812
 51
268.320045
  0
ARC
  8
0
 10
92.091503
 20
122.45837
 30
0.0
 40
16.2
 50
353.552271
 51
32.162015
  0
LINE
  8
0
 10
117.436817
 20
162.572917
 30
0.0
 11
138.436817
 21
162.572917
 31
0.0
  0
LINE
  8
0
 10
119.936817
 20
197.572917
 30
0.0
 11
135.936817
 21
197.572917
 31
0.0
  0
LINE
  8
0
 10
127.936817
 20
177.572917
 30
0.0
 11
140.436817
 21
177.572917
 31
0.0
  0
LINE
  8
0
 10
115.436817
 20
164.572917
 30
0.0
 11
115.436817
 21
177.572917
 31
0.0
  0
LINE
  8
0
 10
140.436817
 20
164.572917
 30
0.0
 11
140.436817
 21
177.572917
 31
0.0
  0
CIRCLE
  8
0
 10
127.936817
 20
130.639829
 30
0.0
 40
8.0
  0
LINE
  8
0
 10
119.936817
 20
182.572917
 30
0.0
 11
119.936817
 21
197.572917
 31
0.0
  0
LINE
  8
0
 10
119.936817
 20
197.572917
 30
0.0
 11
106.269655
 21
196.237251
 31
0.0
  0
LINE
  8
0
 10
104.469149
 20
194.38756
 30
0.0
 11
103.521617
 21
180.964191
 31
0.0
  0
LINE
  8
0
 10
105.26957
 20
178.838686
 30
0.0
 11
115.436817
 21
177.572917
 31
0.0
  0
LINE
  8
0
 10
140.436817
 20
177.572917
 30
0.0
 11
150.604064
 21
178.838686
 31
0.0
  0
LINE
  8
0
 10
152.352018
 20
180.964191
 30
0.0
 11
151.404486
 21
194.38756
 31
0.0
  0
LINE
  8
0
 10
149.60398
 20
196.237251
 30
0.0
 11
135.936817
 21
197.572917
 31
0.0
  0
LINE
  8
0
 10
119.936817
 20
182.572917
 30
0.0
 11
127.936817
 21
182.572917
 31
0.0
  0
LINE
  8
0
 10
181.359132
 20
105.773924
 30
0.0
 11
194.769363
 21
106.720529
 31
0.0
  0
LINE
  8
0
 10
194.789736
 20
152.775131
 30
0.0
 11
181.322148
 21
153.725785
 31
0.0
  0
LINE
  8
0
 10
164.959453
 20
118.139829
 30
0.0
 11
177.959453
 21
118.139829
 31
0.0
  0
LINE
  8
0
 10
164.959453
 20
143.139829
 30
0.0
 11
177.959453
 21
143.139829
 31
0.0
  0
LINE
  8
0
 10
177.959453
 20
143.139829
 30
0.0
 11
177.959453
 21
118.139829
 31
0.0
  0
LINE
  8
0
 10
197.959453
 20
138.639829
 30
0.0
 11
197.959453
 21
122.639829
 31
0.0
  0
LINE
  8
0
 10
162.959453
 20
141.139829
 30
0.0
 11
162.959453
 21
120.139829
 31
0.0
  0
LINE
  8
0
 10
148.188834
 20
181.533012
 30
0.0
 11
147.330128
 21
193.698007
 31
0.0
  0
ARC
  8
0
 10
137.581935
 20
164.736808
 30
0.0
 40
30.856391
 50
73.758553
 51
103.252615
  0
ARC
  8
0
 10
138.789777
 20
217.583605
 30
0.0
 40
38.126407
 50
258.067535
 51
282.887426
  0
LINE
  8
0
 10
129.783947
 20
194.036318
 30
0.0
 11
130.135758
 21
181.488223
 31
0.0
  0
LINE
  8
0
 10
164.959453
 20
143.139829
 30
0.0
 11
162.959453
 21
141.139829
 31
0.0
  0
LINE
  8
0
 10
162.959453
 20
120.139829
 30
0.0
 11
164.959453
 21
118.139829
 31
0.0
  0
LINE
  8
0
 10
115.436817
 20
164.572917
 30
0.0
 11
117.436817
 21
162.572917
 31
0.0
  0
LINE
  8
0
 10
138.436817
 20
162.572917
 30
0.0
 11
140.436817
 21
164.572917
 31
0.0
  0
LINE
  8
0
 10
140.436817
 20
164.572917
 30
0.0
 11
127.936817
 21
164.572917
 31
0.0
  0
ARC
  8
0
 10
150.356982
 20
180.823365
 30
0.0
 40
2.0
 50
277.09651
 51
4.037711
  0
ARC
  8
0
 10
149.40945
 20
194.246734
 30
0.0
 40
2.0
 50
4.037711
 51
84.418315
  0
LINE
  8
0
 10
105.784706
 20
194.516127
 30
0.0
 11
104.816718
 21
180.802957
 31
0.0
  0
ARC
  8
0
 10
107.779742
 20
194.375301
 30
0.0
 40
2.0
 50
95.581685
 51
175.962289
  0
ARC
  8
0
 10
106.811754
 20
180.662131
 30
0.0
 40
2.0
 50
175.962289
 51
262.90349
  0
ARC
  8
0
 10
106.464184
 20
194.246734
 30
0.0
 40
2.0
 50
95.581685
 51
175.962289
  0
ARC
  8
0
 10
105.516653
 20
180.823365
 30
0.0
 40
2.0
 50
175.962289
 51
262.90349
  0
LINE
  8
0
 10
121.936817
 20
162.572917
 30
0.0
 11
121.936817
 21
182.572917
 31
0.0
  0
LINE
  8
0
 10
122.936817
 20
162.572917
 30
0.0
 11
122.936817
 21
182.572917
 31
0.0
  0
LINE
  8
0
 10
123.686817
 20
163.322917
 30
0.0
 11
123.686817
 21
181.822917
 31
0.0
  0
LINE
  8
0
 10
179.200627
 20
152.007964
 30
0.0
 11
177.959453
 21
143.139829
 31
0.0
  0
LINE
  8
0
 10
196.637557
 20
150.9929
 30
0.0
 11
197.959453
 21
138.639829
 31
0.0
  0
LINE
  8
0
 10
177.959453
 20
118.139829
 30
0.0
 11
179.232552
 21
107.53067
 31
0.0
  0
LINE
  8
0
 10
196.619584
 20
108.526541
 30
0.0
 11
197.959453
 21
122.639829
 31
0.0
  0
ARC
  8
0
 10
181.181322
 20
151.730749
 30
0.0
 40
2.0
 50
85.962289
 51
172.032705
  0
ARC
  8
0
 10
194.64891
 20
150.780095
 30
0.0
 40
2.0
 50
6.107953
 51
85.962289
  0
ARC
  8
0
 10
181.218306
 20
107.76896
 30
0.0
 40
2.0
 50
186.842773
 51
274.037711
  0
ARC
  8
0
 10
194.628537
 20
108.715565
 30
0.0
 40
2.0
 50
274.037711
 51
354.576781
  0
LINE
  8
0
 10
181.635883
 20
112.312061
 30
0.0
 11
193.650631
 21
112.892389
 31
0.0
  0
LINE
  8
0
 10
181.450344
 20
137.31588
 30
0.0
 11
194.174592
 21
136.581432
 31
0.0
  0
ARC
  8
0
 10
198.850376
 20
142.756316
 30
0.0
 40
18.9903
 50
160.178547
 51
192.390875
  0
ARC
  8
0
 10
183.129327
 20
142.04458
 30
0.0
 40
12.156617
 50
341.24113
 51
28.41971
  0
ARC
  8
0
 10
214.294128
 20
124.092598
 30
0.0
 40
34.540076
 50
167.479037
 51
193.526126
  0
ARC
  8
0
 10
170.083927
 20
123.592594
 30
0.0
 40
25.650934
 50
342.175926
 51
17.824074
  0
ARC
  8
0
 10
188.516356
 20
111.351036
 30
0.0
 40
6.986496
 50
181.194473
 51
210.348444
  0
ARC
  8
0
 10
190.590265
 20
110.481231
 30
0.0
 40
3.716423
 50
322.730705
 51
25.038288
  0
LINE
  8
0
 10
193.440792
 20
149.700459
 30
0.0
 11
181.834106
 21
150.519754
 31
0.0
  0
LINE
  8
0
 10
193.875579
 20
133.609297
 30
0.0
 11
181.313794
 21
133.629027
 31
0.0
  0
LINE
  8
0
 10
193.802359
 20
114.670018
 30
0.0
 11
181.723444
 21
114.921662
 31
0.0
  0
CIRCLE
  8
0
 10
127.936817
 20
130.639829
 30
0.0
 40
5.0
  0
CIRCLE
  8
0
 10
127.936817
 20
130.639829
 30
0.0
 40
4.25
  0
LINE
  8
0
  6
CENTER
 10
127.936817
 20
159.958561
 30
0.0
 11
127.936817
 21
199.769127
 31
0.0
  0
ARC
  8
0
 10
249.238861
 20
110.639829
 30
0.0
 40
10.0
 50
230.137513
 51
309.862487
  0
ARC
  8
0
 10
228.967872
 20
88.546686
 30
0.0
 40
20.0
 50
46.125915
 51
82.445514
  0
ARC
  8
0
 10
269.509851
 20
88.546686
 30
0.0
 40
20.0
 50
97.554486
 51
133.874085
  0
ARC
  8
0
 10
264.875491
 20
118.170033
 30
0.0
 40
10.0
 50
281.566084
 51
1.291058
  0
ARC
  8
0
 10
294.787361
 20
120.243682
 30
0.0
 40
20.0
 50
148.983058
 51
185.302657
  0
ARC
  8
0
 10
268.73742
 20
135.090248
 30
0.0
 40
10.0
 50
332.994656
 51
52.71963
  0
ARC
  8
0
 10
285.765922
 20
159.769188
 30
0.0
 40
20.0
 50
200.411629
 51
236.731228
  0
ARC
  8
0
 10
257.916536
 20
148.659207
 30
0.0
 40
10.0
 50
24.423227
 51
104.148201
  0
ARC
  8
0
 10
249.238861
 20
177.359693
 30
0.0
 40
20.0
 50
251.8402
 51
288.1598
  0
ARC
  8
0
 10
240.561187
 20
148.659207
 30
0.0
 40
10.0
 50
75.851799
 51
155.576773
  0
ARC
  8
0
 10
212.711801
 20
159.769188
 30
0.0
 40
20.0
 50
303.268772
 51
339.588371
  0
ARC
  8
0
 10
229.740303
 20
135.090248
 30
0.0
 40
10.0
 50
127.28037
 51
207.005344
  0
ARC
  8
0
 10
203.690362
 20
120.243682
 30
0.0
 40
20.0
 50
354.697343
 51
31.016942
  0
ARC
  8
0
 10
233.602232
 20
118.170033
 30
0.0
 40
10.0
 50
178.708942
 51
258.433916
  0
ARC
  8
0
 10
240.561187
 20
148.659207
 30
0.0
 40
8.7
 50
75.851799
 51
155.576773
  0
ARC
  8
0
 10
212.711801
 20
159.769188
 30
0.0
 40
21.3
 50
303.268772
 51
339.588371
  0
ARC
  8
0
 10
229.740303
 20
135.090248
 30
0.0
 40
8.7
 50
127.28037
 51
207.005344
  0
ARC
  8
0
 10
203.690362
 20
120.243682
 30
0.0
 40
21.3
 50
354.697343
 51
31.016942
  0
ARC
  8
0
 10
233.602232
 20
118.170033
 30
0.0
 40
8.7
 50
178.708942
 51
258.433916
  0
ARC
  8
0
 10
228.967872
 20
88.546686
 30
0.0
 40
21.3
 50
46.125915
 51
82.445514
  0
ARC
  8
0
 10
249.238861
 20
110.639829
 30
0.0
 40
8.7
 50
230.137513
 51
309.862487
  0
ARC
  8
0
 10
269.509851
 20
88.546686
 30
0.0
 40
21.3
 50
97.554486
 51
133.874085
  0
ARC
  8
0
 10
264.875491
 20
118.170033
 30
0.0
 40
8.7
 50
281.566084
 51
1.291058
  0
ARC
  8
0
 10
294.787361
 20
120.243682
 30
0.0
 40
21.3
 50
148.983058
 51
185.302657
  0
ARC
  8
0
 10
268.73742
 20
135.090248
 30
0.0
 40
8.7
 50
332.994656
 51
52.71963
  0
ARC
  8
0
 10
285.765922
 20
159.769188
 30
0.0
 40
21.3
 50
200.411629
 51
236.731228
  0
ARC
  8
0
 10
257.916536
 20
148.659207
 30
0.0
 40
8.7
 50
24.423227
 51
104.148201
  0
ARC
  8
0
 10
249.238861
 20
177.359693
 30
0.0
 40
21.3
 50
251.8402
 51
288.1598
  0
LINE
  8
0
 10
237.238861
 20
170.08887
 30
0.0
 11
261.238861
 21
170.08887
 31
0.0
  0
LINE
  8
0
 10
240.238861
 20
207.08887
 30
0.0
 11
258.238861
 21
207.08887
 31
0.0
  0
LINE
  8
0
 10
249.238861
 20
187.08887
 30
0.0
 11
263.238861
 21
187.08887
 31
0.0
  0
LINE
  8
0
 10
235.238861
 20
172.08887
 30
0.0
 11
235.238861
 21
187.08887
 31
0.0
  0
LINE
  8
0
 10
263.238861
 20
172.08887
 30
0.0
 11
263.238861
 21
187.08887
 31
0.0
  0
CIRCLE
  8
0
 10
249.238861
 20
130.639829
 30
0.0
 40
9.0
  0
LINE
  8
0
 10
240.238861
 20
189.08887
 30
0.0
 11
240.238861
 21
207.08887
 31
0.0
  0
LINE
  8
0
 10
240.238861
 20
207.08887
 30
0.0
 11
222.635667
 21
204.796615
 31
0.0
  0
LINE
  8
0
 10
220.901392
 20
202.986046
 30
0.0
 11
219.900745
 21
191.440123
 31
0.0
  0
LINE
  8
0
 10
221.574782
 20
189.292959
 30
0.0
 11
235.238861
 21
187.08887
 31
0.0
  0
LINE
  8
0
 10
258.238861
 20
207.08887
 30
0.0
 11
275.842056
 21
204.796615
 31
0.0
  0
LINE
  8
0
 10
277.576331
 20
202.986046
 30
0.0
 11
278.576978
 21
191.440123
 31
0.0
  0
LINE
  8
0
 10
276.902941
 20
189.292959
 30
0.0
 11
263.238861
 21
187.08887
 31
0.0
  0
LINE
  8
0
 10
240.238861
 20
189.08887
 30
0.0
 11
249.238861
 21
189.08887
 31
0.0
  0
LINE
  8
0
 10
292.505324
 20
142.639829
 30
0.0
 11
292.505324
 21
118.639829
 31
0.0
  0
LINE
  8
0
 10
329.505324
 20
139.639829
 30
0.0
 11
329.505324
 21
121.639829
 31
0.0
  0
LINE
  8
0
 10
309.505324
 20
144.639829
 30
0.0
 11
309.505324
 21
116.639829
 31
0.0
  0
LINE
  8
0
 10
294.505324
 20
144.639829
 30
0.0
 11
309.505324
 21
144.639829
 31
0.0
  0
LINE
  8
0
 10
294.505324
 20
116.639829
 30
0.0
 11
309.505324
 21
116.639829
 31
0.0
  0
LINE
  8
0
 10
325.41994
 20
157.496607
 30
0.0
 11
313.826104
 21
158.501406
 31
0.0
  0
LINE
  8
0
 10
325.397142
 20
101.800454
 30
0.0
 11
313.865751
 21
100.801066
 31
0.0
  0
LINE
  8
0
 10
251.930039
 20
202.932481
 30
0.0
 11
252.085116
 21
190.836481
 31
0.0
  0
ARC
  8
0
 10
260.082625
 20
177.128761
 30
0.0
 40
28.035592
 50
68.208802
 51
105.532936
  0
ARC
  8
0
 10
261.903594
 20
234.808414
 30
0.0
 40
45.727652
 50
259.427257
 51
282.514787
  0
LINE
  8
0
 10
271.469806
 20
201.981191
 30
0.0
 11
272.402033
 21
191.22473
 31
0.0
  0
LINE
  8
0
 10
235.238861
 20
172.08887
 30
0.0
 11
237.238861
 21
170.08887
 31
0.0
  0
LINE
  8
0
 10
261.238861
 20
170.08887
 30
0.0
 11
263.238861
 21
172.08887
 31
0.0
  0
LINE
  8
0
 10
294.505324
 20
144.639829
 30
0.0
 11
292.505324
 21
142.639829
 31
0.0
  0
LINE
  8
0
 10
294.505324
 20
116.639829
 30
0.0
 11
292.505324
 21
118.639829
 31
0.0
  0
LINE
  8
0
 10
263.238861
 20
172.08887
 30
0.0
 11
249.238861
 21
172.08887
 31
0.0
  0
LINE
  8
0
 10
294.505324
 20
144.639829
 30
0.0
 11
294.505324
 21
116.639829
 31
0.0
  0
CIRCLE
  8
0
 10
249.238861
 20
130.639829
 30
0.0
 40
4.25
  0
CIRCLE
  8
0
 10
249.238861
 20
130.639829
 30
0.0
 40
5.0
  0
ARC
  8
0
 10
275.5838
 20
202.81336
 30
0.0
 40
2.0
 50
4.953257
 51
82.580799
  0
ARC
  8
0
 10
276.584447
 20
191.267436
 30
0.0
 40
2.0
 50
279.163185
 51
4.953257
  0
LINE
  8
0
 10
222.132226
 20
203.164084
 30
0.0
 11
220.994316
 21
191.281963
 31
0.0
  0
ARC
  8
0
 10
224.123117
 20
202.973423
 30
0.0
 40
2.0
 50
97.419201
 51
174.52966
  0
ARC
  8
0
 10
222.893923
 20
202.81336
 30
0.0
 40
2.0
 50
97.419201
 51
175.046743
  0
ARC
  8
0
 10
222.985207
 20
191.091302
 30
0.0
 40
2.0
 50
174.52966
 51
260.836815
  0
ARC
  8
0
 10
221.893276
 20
191.267436
 30
0.0
 40
2.0
 50
175.046743
 51
260.836815
  0
LINE
  8
0
 10
309.505324
 20
144.639829
 30
0.0
 11
311.684479
 21
156.859985
 31
0.0
  0
LINE
  8
0
 10
327.22764
 20
155.783485
 30
0.0
 11
329.505324
 21
139.639829
 31
0.0
  0
LINE
  8
0
 10
329.505324
 20
121.639829
 30
0.0
 11
327.208543
 21
103.541197
 31
0.0
  0
LINE
  8
0
 10
311.717041
 20
102.484843
 30
0.0
 11
309.505324
 21
116.639829
 31
0.0
  0
ARC
  8
0
 10
313.653418
 20
156.508875
 30
0.0
 40
2.0
 50
85.046743
 51
169.889034
  0
ARC
  8
0
 10
325.247254
 20
155.504076
 30
0.0
 40
2.0
 50
8.030768
 51
85.046743
  0
ARC
  8
0
 10
313.693065
 20
102.793597
 30
0.0
 40
2.0
 50
188.880659
 51
274.953257
  0
ARC
  8
0
 10
325.224456
 20
103.792984
 30
0.0
 40
2.0
 50
274.953257
 51
352.767621
  0
LINE
  8
0
 10
313.241855
 20
140.300222
 30
0.0
 11
325.014474
 21
139.30735
 31
0.0
  0
LINE
  8
0
 10
312.914667
 20
135.493722
 30
0.0
 11
325.005262
 21
135.635964
 31
0.0
  0
ARC
  8
0
 10
277.091274
 20
121.603765
 30
0.0
 40
49.919027
 50
347.710335
 51
14.427319
  0
ARC
  8
0
 10
383.907641
 20
123.395103
 30
0.0
 40
72.327056
 50
171.604596
 51
190.092933
  0
ARC
  8
0
 10
346.407587
 20
145.510093
 30
0.0
 40
34.283994
 50
163.863161
 51
186.669962
  0
LINE
  8
0
 10
324.662631
 20
155.653259
 30
0.0
 11
314.709067
 21
156.515901
 31
0.0
  0
ARC
  8
0
 10
306.984284
 20
146.018595
 30
0.0
 40
19.460148
 50
344.039201
 51
26.476418
  0
LINE
  8
0
 10
324.57396
 20
109.272404
 30
0.0
 11
313.560415
 21
109.51535
 31
0.0
  0
LINE
  8
0
 10
324.582814
 20
107.451942
 30
0.0
 11
313.800605
 21
106.517484
 31
0.0
  0
ARC
  8
0
 10
318.11888
 20
105.2137
 30
0.0
 40
4.387176
 50
178.89077
 51
228.213757
  0
ARC
  8
0
 10
321.012359
 20
105.552144
 30
0.0
 40
3.869246
 50
319.925437
 51
9.026341
  0
LINE
  8
0
 10
249.238861
 20
167.820107
 30
0.0
 11
249.238861
 21
208.703048
 31
0.0
  0
LINE
  8
0
 10
244.238861
 20
170.08887
 30
0.0
 11
244.238861
 21
189.08887
 31
0.0
  0
LINE
  8
0
 10
243.238861
 20
170.08887
 30
0.0
 11
243.238861
 21
189.08887
 31
0.0
  0
LINE
  8
0
 10
244.988861
 20
170.83887
 30
0.0
 11
244.988861
 21
188.33887
 31
0.0
  0
INSERT
  8
0
  2
*X2
 10
19.999641
 20
210.85154
 30
0.0
  0
INSERT
  8
0
  2
*X3
 10
225.162959
 20
102.152898
 30
0.0
  0
LINE
  8
0
 10
164.959453
 20
143.139829
 30
0.0
 11
164.959453
 21
118.139829
 31
0.0
  0
LINE
  8
0
 10
-61.337861
 20
154.288781
 30
0.0
 11
-59.237861
 21
154.288781
 31
0.0
  0
LINE
  8
0
 10
-61.337861
 20
165.988781
 30
0.0
 11
-59.237861
 21
165.988781
 31
0.0
  0
LINE
  8
0
 10
-61.737861
 20
166.388781
 30
0.0
 11
-61.337861
 21
165.988781
 31
0.0
  0
LINE
  8
0
 10
-61.737861
 20
153.888781
 30
0.0
 11
-61.337861
 21
154.288781
 31
0.0
  0
INSERT
  8
0
  2
*X4
 10
0.0
 20
0.0
 30
0.0
1001
ACAD
1000
HATCH
1002
{
1070
    16
1000
ANSI31
1040
10.0
1040
0.0
1002
}
  0
LINE
  8
0
 10
24.221217
 20
157.907032
 30
0.0
 11
27.521217
 21
157.907032
 31
0.0
  0
LINE
  8
0
 10
24.221217
 20
177.507032
 30
0.0
 11
27.521217
 21
177.507032
 31
0.0
  0
LINE
  8
0
 10
123.686817
 20
163.322917
 30
0.0
 11
127.936817
 21
163.322917
 31
0.0
  0
LINE
  8
0
 10
123.686817
 20
181.822917
 30
0.0
 11
127.936817
 21
181.822917
 31
0.0
  0
LINE
  8
0
 10
244.988861
 20
170.83887
 30
0.0
 11
261.238861
 21
170.83887
 31
0.0
  0
LINE
  8
0
 10
244.988861
 20
188.33887
 30
0.0
 11
249.238861
 21
188.33887
 31
0.0
  0
LINE
  8
0
 10
244.238861
 20
189.08887
 30
0.0
 11
244.988861
 21
188.33887
 31
0.0
  0
LINE
  8
0
 10
244.238861
 20
170.08887
 30
0.0
 11
244.988861
 21
170.83887
 31
0.0
  0
LINE
  8
0
 10
23.521217
 20
178.207032
 30
0.0
 11
24.221217
 21
177.507032
 31
0.0
  0
LINE
  8
0
 10
23.521217
 20
157.207032
 30
0.0
 11
24.221217
 21
157.907032
 31
0.0
  0
LINE
  8
0
 10
122.936817
 20
182.572917
 30
0.0
 11
123.686817
 21
181.822917
 31
0.0
  0
LINE
  8
0
 10
122.936817
 20
162.572917
 30
0.0
 11
123.686817
 21
163.322917
 31
0.0
  0
INSERT
  8
0
  2
*X6
 10
0.0
 20
0.0
 30
0.0
1001
ACAD
1000
HATCH
1002
{
1070
    16
1000
ANSI31
1040
12.0
1040
0.0
1002
}
  0
INSERT
  8
0
  2
*X7
 10
0.0
 20
0.0
 30
0.0
1001
ACAD
1000
HATCH
1002
{
1070
    16
1000
ANSI31
1040
12.0
1040
0.0
1002
}
  0
INSERT
  8
0
  2
*X8
 10
0.0
 20
0.0
 30
0.0
1001
ACAD
1000
HATCH
1002
{
1070
    16
1000
ANSI31
1040
12.0
1040
0.0
1002
}
  0
ENDSEC
  0
EOF
