  0
SECTION
  2
HEADER
  9
$ACADVER
  1
AC1009
  9
$INSBASE
 10
0.0
 20
0.0
 30
0.0
  9
$EXTMIN
 10
-113.230354
 20
-69.280766
 30
0.0
  9
$EXTMAX
 10
76.765224
 20
43.157282
 30
0.0
  9
$LIMMIN
 10
0.0
 20
0.0
  9
$LIMMAX
 10
12.0
 20
9.0
  9
$ORTHOMODE
 70
     1
  9
$REGENMODE
 70
     1
  9
$FILLMODE
 70
     1
  9
$QTEXTMODE
 70
     0
  9
$MIRRTEXT
 70
     1
  9
$DRAGMODE
 70
     2
  9
$LTSCALE
 40
7.0
  9
$OSMODE
 70
     0
  9
$ATTMODE
 70
     1
  9
$TEXTSIZE
 40
0.2
  9
$TRACEWID
 40
0.05
  9
$TEXTSTYLE
  7
STANDARD
  9
$CLAYER
  8
0
  9
$CELTYPE
  6
BYLAYER
  9
$CECOLOR
 62
   256
  9
$DIMSCALE
 40
1.0
  9
$DIMASZ
 40
0.18
  9
$DIMEXO
 40
0.0625
  9
$DIMDLI
 40
0.38
  9
$DIMRND
 40
0.0
  9
$DIMDLE
 40
0.0
  9
$DIMEXE
 40
0.18
  9
$DIMTP
 40
0.0
  9
$DIMTM
 40
0.0
  9
$DIMTXT
 40
0.18
  9
$DIMCEN
 40
0.09
  9
$DIMTSZ
 40
0.0
  9
$DIMTOL
 70
     0
  9
$DIMLIM
 70
     0
  9
$DIMTIH
 70
     1
  9
$DIMTOH
 70
     1
  9
$DIMSE1
 70
     0
  9
$DIMSE2
 70
     0
  9
$DIMTAD
 70
     0
  9
$DIMZIN
 70
     0
  9
$DIMBLK
  1

  9
$DIMASO
 70
     1
  9
$DIMSHO
 70
     0
  9
$DIMPOST
  1

  9
$DIMAPOST
  1

  9
$DIMALT
 70
     0
  9
$DIMALTD
 70
     2
  9
$DIMALTF
 40
25.4
  9
$DIMLFAC
 40
1.0
  9
$DIMTOFL
 70
     0
  9
$DIMTVP
 40
0.0
  9
$DIMTIX
 70
     0
  9
$DIMSOXD
 70
     0
  9
$DIMSAH
 70
     0
  9
$DIMBLK1
  1

  9
$DIMBLK2
  1

  9
$DIMSTYLE
  2
*UNNAMED
  9
$DIMCLRD
 70
     0
  9
$DIMCLRE
 70
     0
  9
$DIMCLRT
 70
     0
  9
$DIMTFAC
 40
1.0
  9
$DIMGAP
 40
0.09
  9
$LUNITS
 70
     2
  9
$LUPREC
 70
     4
  9
$SKETCHINC
 40
0.1
  9
$FILLETRAD
 40
0.5
  9
$AUNITS
 70
     0
  9
$AUPREC
 70
     0
  9
$MENU
  1
wiberger
  9
$ELEVATION
 40
0.0
  9
$PELEVATION
 40
0.0
  9
$THICKNESS
 40
0.0
  9
$LIMCHECK
 70
     0
  9
$BLIPMODE
 70
     1
  9
$CHAMFERA
 40
0.0
  9
$CHAMFERB
 40
0.0
  9
$SKPOLY
 70
     0
  9
$TDCREATE
 40
2450189.581544560
  9
$TDUPDATE
 40
2450218.506374884
  9
$TDINDWG
 40
0.0025542824
  9
$TDUSRTIMER
 40
0.0025542824
  9
$USRTIMER
 70
     1
  9
$ANGBASE
 50
0.0
  9
$ANGDIR
 70
     0
  9
$PDMODE
 70
     0
  9
$PDSIZE
 40
0.0
  9
$PLINEWID
 40
0.0
  9
$COORDS
 70
     0
  9
$SPLFRAME
 70
     0
  9
$SPLINETYPE
 70
     6
  9
$SPLINESEGS
 70
     8
  9
$ATTDIA
 70
     0
  9
$ATTREQ
 70
     1
  9
$HANDLING
 70
     0
  9
$HANDSEED
  5
0
  9
$SURFTAB1
 70
     6
  9
$SURFTAB2
 70
     6
  9
$SURFTYPE
 70
     6
  9
$SURFU
 70
     6
  9
$SURFV
 70
     6
  9
$UCSNAME
  2

  9
$UCSORG
 10
0.0
 20
0.0
 30
0.0
  9
$UCSXDIR
 10
1.0
 20
0.0
 30
0.0
  9
$UCSYDIR
 10
0.0
 20
1.0
 30
0.0
  9
$PUCSNAME
  2

  9
$PUCSORG
 10
0.0
 20
0.0
 30
0.0
  9
$PUCSXDIR
 10
1.0
 20
0.0
 30
0.0
  9
$PUCSYDIR
 10
0.0
 20
1.0
 30
0.0
  9
$USERI1
 70
     0
  9
$USERI2
 70
     0
  9
$USERI3
 70
     0
  9
$USERI4
 70
     0
  9
$USERI5
 70
     0
  9
$USERR1
 40
0.0
  9
$USERR2
 40
0.0
  9
$USERR3
 40
0.0
  9
$USERR4
 40
0.0
  9
$USERR5
 40
0.0
  9
$WORLDVIEW
 70
     1
  9
$SHADEDGE
 70
     3
  9
$SHADEDIF
 70
    70
  9
$TILEMODE
 70
     1
  9
$MAXACTVP
 70
    16
  9
$PINSBASE
 10
0.0
 20
0.0
 30
0.0
  9
$PLIMCHECK
 70
     0
  9
$PEXTMIN
 10
1.000000E+20
 20
1.000000E+20
 30
1.000000E+20
  9
$PEXTMAX
 10
-1.000000E+20
 20
-1.000000E+20
 30
-1.000000E+20
  9
$PLIMMIN
 10
0.0
 20
0.0
  9
$PLIMMAX
 10
12.0
 20
9.0
  9
$UNITMODE
 70
     0
  9
$VISRETAIN
 70
     0
  9
$PLINEGEN
 70
     0
  9
$PSLTSCALE
 70
     0
  9
$TREEDEPTH
 70
  3020
  9
$DWGCODEPAGE
  3
undefined
  0
ENDSEC
  0
SECTION
  2
TABLES
  0
TABLE
  2
VPORT
 70
     2
  0
VPORT
  2
*ACTIVE
 70
     0
 10
0.0
 20
0.0
 11
1.0
 21
1.0
 12
10.685004
 22
-12.937992
 13
0.0
 23
0.0
 14
1.0
 24
1.0
 15
0.0
 25
0.0
 16
0.0
 26
0.0
 36
1.0
 17
0.0
 27
0.0
 37
0.0
 40
152.158568
 41
1.767507
 42
50.0
 43
0.0
 44
0.0
 50
0.0
 51
0.0
 71
     0
 72
   100
 73
     1
 74
     0
 75
     0
 76
     0
 77
     0
 78
     0
  0
ENDTAB
  0
TABLE
  2
LTYPE
 70
     3
  0
LTYPE
  2
CONTINUOUS
 70
    64
  3
Solid line
 72
    65
 73
     0
 40
0.0
  0
LTYPE
  2
CENTER
 70
    64
  3
____ _ ____ _ ____ _ ____ _ ____ _ ____ _ ____
 72
    65
 73
     4
 40
2.0
 49
1.25
 49
-0.25
 49
0.25
 49
-0.25
  0
LTYPE
  2
DASHED
 70
     0
  3
__ __ __ __ __ __ __ __ __ __ __ __ __ __ __
 72
    65
 73
     2
 40
0.75
 49
0.5
 49
-0.25
  0
ENDTAB
  0
TABLE
  2
LAYER
 70
     2
  0
LAYER
  2
0
 70
    64
 62
     7
  6
CONTINUOUS
  0
LAYER
  2
SLASK
 70
     0
 62
     1
  6
CONTINUOUS
  0
ENDTAB
  0
TABLE
  2
STYLE
 70
     1
  0
STYLE
  2
STANDARD
 70
     0
 40
0.0
 41
1.0
 50
0.0
 71
     0
 42
0.2
  3
txt
  4

  0
ENDTAB
  0
TABLE
  2
VIEW
 70
     0
  0
ENDTAB
  0
TABLE
  2
UCS
 70
     0
  0
ENDTAB
  0
TABLE
  2
APPID
 70
     1
  0
APPID
  2
ACAD
 70
    64
  0
ENDTAB
  0
TABLE
  2
DIMSTYLE
 70
     0
  0
ENDTAB
  0
ENDSEC
  0
SECTION
  2
BLOCKS
  0
BLOCK
  8
0
  2
*X0
 70
    65
 10
0.0
 20
0.0
 30
0.0
  3
*X
  0
LINE
  8
0
 62
     0
 10
-24.058079
 20
-3.519086
 30
0.0
 11
-26.058079
 21
-1.519086
 31
0.0
  0
LINE
  8
0
 62
     0
 10
-39.168304
 20
11.59114
 30
0.0
 11
-41.638085
 21
14.06092
 31
0.0
  0
LINE
  8
0
 62
     0
 10
-24.058079
 20
-5.640406
 30
0.0
 11
-26.058079
 21
-3.640406
 31
0.0
  0
LINE
  8
0
 62
     0
 10
-39.438026
 20
9.739541
 30
0.0
 11
-41.907806
 21
12.209321
 31
0.0
  0
LINE
  8
0
 62
     0
 10
-24.058079
 20
-7.761726
 30
0.0
 11
-26.058079
 21
-5.761726
 31
0.0
  0
LINE
  8
0
 62
     0
 10
-39.707747
 20
7.887942
 30
0.0
 11
-42.177527
 21
10.357722
 31
0.0
  0
LINE
  8
0
 62
     0
 10
-24.058079
 20
-9.883047
 30
0.0
 11
-26.058079
 21
-7.883047
 31
0.0
  0
LINE
  8
0
 62
     0
 10
-39.977468
 20
6.036342
 30
0.0
 11
-42.447248
 21
8.506123
 31
0.0
  0
LINE
  8
0
 62
     0
 10
-24.058079
 20
-12.004367
 30
0.0
 11
-26.058079
 21
-10.004367
 31
0.0
  0
LINE
  8
0
 62
     0
 10
-40.280548
 20
4.218102
 30
0.0
 11
-42.716969
 21
6.654523
 31
0.0
  0
LINE
  8
0
 62
     0
 10
-24.058079
 20
-14.125687
 30
0.0
 11
-26.058079
 21
-12.125687
 31
0.0
  0
LINE
  8
0
 62
     0
 10
-41.810131
 20
3.626365
 30
0.0
 11
-42.98669
 21
4.802924
 31
0.0
  0
LINE
  8
0
 62
     0
 10
-25.131452
 20
-15.173635
 30
0.0
 11
-26.058079
 21
-14.247008
 31
0.0
  0
LINE
  8
0
 62
     0
 10
-24.058079
 20
-1.397765
 30
0.0
 11
-26.058079
 21
0.602235
 31
0.0
  0
LINE
  8
0
 62
     0
 10
-38.898583
 20
13.442739
 30
0.0
 11
-41.341017
 21
15.885172
 31
0.0
  0
LINE
  8
0
 62
     0
 10
-24.058079
 20
0.723555
 30
0.0
 11
-26.058079
 21
2.723555
 31
0.0
  0
LINE
  8
0
 62
     0
 10
-37.583969
 20
14.249446
 30
0.0
 11
-39.958315
 21
16.623791
 31
0.0
  0
LINE
  8
0
 62
     0
 10
-24.058079
 20
2.844875
 30
0.0
 11
-26.058079
 21
4.844875
 31
0.0
  0
LINE
  8
0
 62
     0
 10
-35.792212
 20
14.579008
 30
0.0
 11
-38.196097
 21
16.982894
 31
0.0
  0
LINE
  8
0
 62
     0
 10
-24.058079
 20
4.966196
 30
0.0
 11
-26.558079
 21
7.466196
 31
0.0
  0
LINE
  8
0
 62
     0
 10
-33.970622
 20
14.878739
 30
0.0
 11
-36.406027
 21
17.314144
 31
0.0
  0
LINE
  8
0
 62
     0
 10
-24.058079
 20
7.087516
 30
0.0
 11
-26.558079
 21
9.587516
 31
0.0
  0
LINE
  8
0
 62
     0
 10
-32.117959
 20
15.147396
 30
0.0
 11
-34.587041
 21
17.616479
 31
0.0
  0
LINE
  8
0
 62
     0
 10
-24.058079
 20
9.208836
 30
0.0
 11
-26.558079
 21
11.708836
 31
0.0
  0
LINE
  8
0
 62
     0
 10
-30.232854
 20
15.383612
 30
0.0
 11
-32.737975
 21
17.888733
 31
0.0
  0
LINE
  8
0
 62
     0
 10
-24.058079
 20
11.330157
 30
0.0
 11
-26.558079
 21
13.830157
 31
0.0
  0
LINE
  8
0
 62
     0
 10
-28.313798
 20
15.585876
 30
0.0
 11
-30.857551
 21
18.129629
 31
0.0
  0
LINE
  8
0
 62
     0
 10
-24.058079
 20
13.451477
 30
0.0
 11
-28.944363
 21
18.337761
 31
0.0
  0
LINE
  8
0
 62
     0
 10
-22.311647
 20
13.826365
 30
0.0
 11
-26.996856
 21
18.511575
 31
0.0
  0
LINE
  8
0
 62
     0
 10
-20.190326
 20
13.826365
 30
0.0
 11
-25.01331
 21
18.649349
 31
0.0
  0
LINE
  8
0
 62
     0
 10
-19.058079
 20
14.815438
 30
0.0
 11
-22.991808
 21
18.749167
 31
0.0
  0
LINE
  8
0
 62
     0
 10
-19.058079
 20
16.936759
 30
0.0
 11
-20.930206
 21
18.808885
 31
0.0
  0
LINE
  8
0
 62
     0
 10
-26.058079
 20
5.761726
 30
0.0
 11
-24.058079
 21
7.761726
 31
0.0
  0
LINE
  8
0
 62
     0
 10
-26.058079
 20
3.640406
 30
0.0
 11
-24.058079
 21
5.640406
 31
0.0
  0
LINE
  8
0
 62
     0
 10
-26.058079
 20
1.519086
 30
0.0
 11
-24.058079
 21
3.519086
 31
0.0
  0
LINE
  8
0
 62
     0
 10
-26.058079
 20
-0.602235
 30
0.0
 11
-24.058079
 21
1.397765
 31
0.0
  0
LINE
  8
0
 62
     0
 10
-26.058079
 20
-2.723555
 30
0.0
 11
-24.058079
 21
-0.723555
 31
0.0
  0
LINE
  8
0
 62
     0
 10
-26.058079
 20
-4.844875
 30
0.0
 11
-24.058079
 21
-2.844875
 31
0.0
  0
LINE
  8
0
 62
     0
 10
-26.058079
 20
-6.966196
 30
0.0
 11
-24.058079
 21
-4.966196
 31
0.0
  0
LINE
  8
0
 62
     0
 10
-26.058079
 20
-9.087516
 30
0.0
 11
-24.058079
 21
-7.087516
 31
0.0
  0
LINE
  8
0
 62
     0
 10
-26.058079
 20
-11.208836
 30
0.0
 11
-24.058079
 21
-9.208836
 31
0.0
  0
LINE
  8
0
 62
     0
 10
-26.058079
 20
-13.330157
 30
0.0
 11
-24.058079
 21
-11.330157
 31
0.0
  0
LINE
  8
0
 62
     0
 10
-25.780237
 20
-15.173635
 30
0.0
 11
-24.058079
 21
-13.451477
 31
0.0
  0
LINE
  8
0
 62
     0
 10
-26.558079
 20
7.383047
 30
0.0
 11
-24.058079
 21
9.883047
 31
0.0
  0
LINE
  8
0
 62
     0
 10
-20.11476
 20
13.826365
 30
0.0
 11
-19.058079
 21
14.883047
 31
0.0
  0
LINE
  8
0
 62
     0
 10
-26.558079
 20
9.504367
 30
0.0
 11
-24.058079
 21
12.004367
 31
0.0
  0
LINE
  8
0
 62
     0
 10
-22.236081
 20
13.826365
 30
0.0
 11
-19.058079
 21
17.004367
 31
0.0
  0
LINE
  8
0
 62
     0
 10
-26.558079
 20
11.625687
 30
0.0
 11
-19.357849
 21
18.825917
 31
0.0
  0
LINE
  8
0
 62
     0
 10
-26.558079
 20
13.747008
 30
0.0
 11
-21.508674
 21
18.796412
 31
0.0
  0
LINE
  8
0
 62
     0
 10
-26.801489
 20
15.624918
 30
0.0
 11
-23.707922
 21
18.718485
 31
0.0
  0
LINE
  8
0
 62
     0
 10
-40.866373
 20
3.681355
 30
0.0
 11
-40.248402
 21
4.299326
 31
0.0
  0
LINE
  8
0
 62
     0
 10
-29.033171
 20
15.514556
 30
0.0
 11
-25.959144
 21
18.588583
 31
0.0
  0
LINE
  8
0
 62
     0
 10
-42.729081
 20
3.939967
 30
0.0
 11
-39.865745
 21
6.803302
 31
0.0
  0
LINE
  8
0
 62
     0
 10
-31.431284
 20
15.237764
 30
0.0
 11
-28.266437
 21
18.40261
 31
0.0
  0
LINE
  8
0
 62
     0
 10
-42.816055
 20
5.974313
 30
0.0
 11
-39.504046
 21
9.286322
 31
0.0
  0
LINE
  8
0
 62
     0
 10
-33.900852
 20
14.889516
 30
0.0
 11
-30.634566
 21
18.155802
 31
0.0
  0
LINE
  8
0
 62
     0
 10
-42.454355
 20
8.457333
 30
0.0
 11
-39.142346
 21
11.769343
 31
0.0
  0
LINE
  8
0
 62
     0
 10
-36.44957
 20
14.462118
 30
0.0
 11
-33.069127
 21
17.842561
 31
0.0
  0
LINE
  8
0
 62
     0
 10
-42.092655
 20
10.940353
 30
0.0
 11
-35.576769
 21
17.45624
 31
0.0
  0
LINE
  8
0
 62
     0
 10
-41.730956
 20
13.423373
 30
0.0
 11
-38.165488
 21
16.988841
 31
0.0
  0
LINE
  8
0
 62
     0
 10
-41.295475
 20
15.980174
 30
0.0
 11
-40.896929
 21
16.37872
 31
0.0
  0
ENDBLK
  8
0
  0
BLOCK
  8
0
  2
*X1
 70
    65
 10
0.0
 20
0.0
 30
0.0
  3
*X
  0
LINE
  8
0
 62
     0
 10
103.698736
 20
-8.239321
 30
0.0
 11
100.698736
 21
-5.239321
 31
0.0
  0
LINE
  8
0
 62
     0
 10
87.115491
 20
8.343924
 30
0.0
 11
84.645711
 21
10.813704
 31
0.0
  0
LINE
  8
0
 62
     0
 10
103.698736
 20
-10.360641
 30
0.0
 11
100.698736
 21
-7.360641
 31
0.0
  0
LINE
  8
0
 62
     0
 10
86.84577
 20
6.492325
 30
0.0
 11
84.37599
 21
8.962105
 31
0.0
  0
LINE
  8
0
 62
     0
 10
103.39041
 20
-12.173635
 30
0.0
 11
100.698736
 21
-9.481962
 31
0.0
  0
LINE
  8
0
 62
     0
 10
86.576049
 20
4.640726
 30
0.0
 11
84.106269
 21
7.110506
 31
0.0
  0
LINE
  8
0
 62
     0
 10
102.698736
 20
-13.603282
 30
0.0
 11
100.698736
 21
-11.603282
 31
0.0
  0
LINE
  8
0
 62
     0
 10
85.469089
 20
3.626365
 30
0.0
 11
83.836548
 21
5.258907
 31
0.0
  0
LINE
  8
0
 62
     0
 10
102.147769
 20
-15.173635
 30
0.0
 11
100.698736
 21
-13.724602
 31
0.0
  0
LINE
  8
0
 62
     0
 10
103.698736
 20
-6.118001
 30
0.0
 11
100.698736
 21
-3.118001
 31
0.0
  0
LINE
  8
0
 62
     0
 10
87.385212
 20
10.195523
 30
0.0
 11
84.915432
 21
12.665304
 31
0.0
  0
LINE
  8
0
 62
     0
 10
103.698736
 20
-3.99668
 30
0.0
 11
100.698736
 21
-0.99668
 31
0.0
  0
LINE
  8
0
 62
     0
 10
87.654934
 20
12.047123
 30
0.0
 11
85.185153
 21
14.516903
 31
0.0
  0
LINE
  8
0
 62
     0
 10
103.698736
 20
-1.87536
 30
0.0
 11
100.698736
 21
1.12464
 31
0.0
  0
LINE
  8
0
 62
     0
 10
87.96592
 20
13.857456
 30
0.0
 11
85.623661
 21
16.199716
 31
0.0
  0
LINE
  8
0
 62
     0
 10
103.698736
 20
0.24596
 30
0.0
 11
100.698736
 21
3.24596
 31
0.0
  0
LINE
  8
0
 62
     0
 10
89.611386
 20
14.333311
 30
0.0
 11
87.229941
 21
16.714756
 31
0.0
  0
LINE
  8
0
 62
     0
 10
103.698736
 20
2.367281
 30
0.0
 11
100.698736
 21
5.367281
 31
0.0
  0
LINE
  8
0
 62
     0
 10
91.410381
 20
14.655636
 30
0.0
 11
88.998924
 21
17.067093
 31
0.0
  0
LINE
  8
0
 62
     0
 10
103.698736
 20
4.488601
 30
0.0
 11
100.198736
 21
7.988601
 31
0.0
  0
LINE
  8
0
 62
     0
 10
93.239503
 20
14.947834
 30
0.0
 11
90.796012
 21
17.391325
 31
0.0
  0
LINE
  8
0
 62
     0
 10
103.698736
 20
6.609922
 30
0.0
 11
100.198736
 21
10.109922
 31
0.0
  0
LINE
  8
0
 62
     0
 10
95.100024
 20
15.208634
 30
0.0
 11
92.622294
 21
17.686364
 31
0.0
  0
LINE
  8
0
 62
     0
 10
101.698736
 20
10.731242
 30
0.0
 11
100.198736
 21
12.231242
 31
0.0
  0
LINE
  8
0
 62
     0
 10
96.993344
 20
15.436635
 30
0.0
 11
94.478959
 21
17.951019
 31
0.0
  0
LINE
  8
0
 62
     0
 10
101.698736
 20
12.852562
 30
0.0
 11
100.198736
 21
14.352562
 31
0.0
  0
LINE
  8
0
 62
     0
 10
98.921011
 20
15.630288
 30
0.0
 11
96.367316
 21
18.183983
 31
0.0
  0
LINE
  8
0
 62
     0
 10
103.035393
 20
13.637226
 30
0.0
 11
98.288805
 21
18.383814
 31
0.0
  0
LINE
  8
0
 62
     0
 10
105.156713
 20
13.637226
 30
0.0
 11
100.24502
 21
18.548919
 31
0.0
  0
LINE
  8
0
 62
     0
 10
107.278034
 20
13.637226
 30
0.0
 11
102.237728
 21
18.677532
 31
0.0
  0
LINE
  8
0
 62
     0
 10
107.698736
 20
15.337844
 30
0.0
 11
104.268897
 21
18.767683
 31
0.0
  0
LINE
  8
0
 62
     0
 10
107.698736
 20
17.459164
 30
0.0
 11
106.340732
 21
18.817168
 31
0.0
  0
LINE
  8
0
 62
     0
 10
100.198736
 20
6.860641
 30
0.0
 11
101.975321
 21
8.637226
 31
0.0
  0
LINE
  8
0
 62
     0
 10
106.975321
 20
13.637226
 30
0.0
 11
107.698736
 21
14.360641
 31
0.0
  0
LINE
  8
0
 62
     0
 10
100.698736
 20
5.239321
 30
0.0
 11
103.698736
 21
8.239321
 31
0.0
  0
LINE
  8
0
 62
     0
 10
100.698736
 20
3.118001
 30
0.0
 11
103.698736
 21
6.118001
 31
0.0
  0
LINE
  8
0
 62
     0
 10
100.698736
 20
0.99668
 30
0.0
 11
103.698736
 21
3.99668
 31
0.0
  0
LINE
  8
0
 62
     0
 10
100.698736
 20
-1.12464
 30
0.0
 11
103.698736
 21
1.87536
 31
0.0
  0
LINE
  8
0
 62
     0
 10
100.698736
 20
-3.24596
 30
0.0
 11
103.698736
 21
-0.24596
 31
0.0
  0
LINE
  8
0
 62
     0
 10
100.698736
 20
-5.367281
 30
0.0
 11
103.698736
 21
-2.367281
 31
0.0
  0
LINE
  8
0
 62
     0
 10
100.698736
 20
-7.488601
 30
0.0
 11
103.698736
 21
-4.488601
 31
0.0
  0
LINE
  8
0
 62
     0
 10
100.698736
 20
-9.609922
 30
0.0
 11
103.698736
 21
-6.609922
 31
0.0
  0
LINE
  8
0
 62
     0
 10
100.698736
 20
-11.731242
 30
0.0
 11
103.698736
 21
-8.731242
 31
0.0
  0
LINE
  8
0
 62
     0
 10
100.698736
 20
-13.852562
 30
0.0
 11
103.698736
 21
-10.852562
 31
0.0
  0
LINE
  8
0
 62
     0
 10
101.498984
 20
-15.173635
 30
0.0
 11
102.698736
 21
-13.973883
 31
0.0
  0
LINE
  8
0
 62
     0
 10
100.198736
 20
8.981962
 30
0.0
 11
101.698736
 21
10.481962
 31
0.0
  0
LINE
  8
0
 62
     0
 10
104.854001
 20
13.637226
 30
0.0
 11
107.698736
 21
16.481962
 31
0.0
  0
LINE
  8
0
 62
     0
 10
100.198736
 20
11.103282
 30
0.0
 11
101.698736
 21
12.603282
 31
0.0
  0
LINE
  8
0
 62
     0
 10
102.73268
 20
13.637226
 30
0.0
 11
107.698736
 21
18.603282
 31
0.0
  0
LINE
  8
0
 62
     0
 10
100.198736
 20
13.224602
 30
0.0
 11
105.78218
 21
18.808046
 31
0.0
  0
LINE
  8
0
 62
     0
 10
100.18091
 20
15.328096
 30
0.0
 11
103.595168
 21
18.742354
 31
0.0
  0
LINE
  8
0
 62
     0
 10
98.304008
 20
15.572514
 30
0.0
 11
101.357102
 21
18.625609
 31
0.0
  0
LINE
  8
0
 62
     0
 10
84.330903
 20
3.72073
 30
0.0
 11
86.801996
 21
6.191823
 31
0.0
  0
LINE
  8
0
 62
     0
 10
95.922467
 20
15.312293
 30
0.0
 11
99.064032
 21
18.453859
 31
0.0
  0
LINE
  8
0
 62
     0
 10
83.851687
 20
5.362834
 30
0.0
 11
87.163696
 21
8.674843
 31
0.0
  0
LINE
  8
0
 62
     0
 10
93.471154
 20
14.982301
 30
0.0
 11
96.711369
 21
18.222516
 31
0.0
  0
LINE
  8
0
 62
     0
 10
84.213386
 20
7.845854
 30
0.0
 11
87.525396
 21
11.157863
 31
0.0
  0
LINE
  8
0
 62
     0
 10
90.942725
 20
14.575193
 30
0.0
 11
94.293739
 21
17.926207
 31
0.0
  0
LINE
  8
0
 62
     0
 10
84.575086
 20
10.328874
 30
0.0
 11
87.887096
 21
13.640884
 31
0.0
  0
LINE
  8
0
 62
     0
 10
88.328262
 20
14.08205
 30
0.0
 11
91.804779
 21
17.558567
 31
0.0
  0
LINE
  8
0
 62
     0
 10
84.936786
 20
12.811894
 30
0.0
 11
89.236856
 21
17.111965
 31
0.0
  0
LINE
  8
0
 62
     0
 10
85.298486
 20
15.294914
 30
0.0
 11
86.580685
 21
16.577113
 31
0.0
  0
ENDBLK
  8
0
  0
BLOCK
  8
0
  2
*X2
 70
    65
 10
0.0
 20
0.0
 30
0.0
  3
*X
  0
LINE
  8
0
 62
     0
 10
100.452888
 20
22.583691
 30
0.0
 11
97.652888
 21
25.383691
 31
0.0
  0
LINE
  8
0
 62
     0
 10
92.4991
 20
30.53748
 30
0.0
 11
90.195247
 21
32.841333
 31
0.0
  0
LINE
  8
0
 62
     0
 10
100.452888
 20
20.462371
 30
0.0
 11
97.652888
 21
23.262371
 31
0.0
  0
LINE
  8
0
 62
     0
 10
92.324885
 20
28.590375
 30
0.0
 11
90.021032
 21
30.894227
 31
0.0
  0
LINE
  8
0
 62
     0
 10
100.452888
 20
18.341051
 30
0.0
 11
97.652888
 21
21.141051
 31
0.0
  0
LINE
  8
0
 62
     0
 10
92.15067
 20
26.643269
 30
0.0
 11
89.846818
 21
28.947122
 31
0.0
  0
LINE
  8
0
 62
     0
 10
100.452888
 20
16.21973
 30
0.0
 11
97.652888
 21
19.01973
 31
0.0
  0
LINE
  8
0
 62
     0
 10
91.915121
 20
24.757498
 30
0.0
 11
89.672603
 21
27.000016
 31
0.0
  0
LINE
  8
0
 62
     0
 10
99.006913
 20
15.544385
 30
0.0
 11
97.652888
 21
16.89841
 31
0.0
  0
LINE
  8
0
 62
     0
 10
90.006913
 20
24.544385
 30
0.0
 11
89.499675
 21
25.051623
 31
0.0
  0
LINE
  8
0
 62
     0
 10
100.452888
 20
24.705012
 30
0.0
 11
97.652888
 21
27.505012
 31
0.0
  0
LINE
  8
0
 62
     0
 10
92.943206
 20
32.214694
 30
0.0
 11
90.894903
 21
34.262998
 31
0.0
  0
LINE
  8
0
 62
     0
 10
100.452888
 20
26.826332
 30
0.0
 11
97.652888
 21
29.626332
 31
0.0
  0
LINE
  8
0
 62
     0
 10
94.640259
 20
32.638962
 30
0.0
 11
92.409528
 21
34.869693
 31
0.0
  0
LINE
  8
0
 62
     0
 10
100.452888
 20
28.947652
 30
0.0
 11
97.652888
 21
31.747652
 31
0.0
  0
LINE
  8
0
 62
     0
 10
96.397935
 20
33.002606
 30
0.0
 11
93.985587
 21
35.414954
 31
0.0
  0
LINE
  8
0
 62
     0
 10
100.452888
 20
31.068973
 30
0.0
 11
95.627589
 21
35.894272
 31
0.0
  0
LINE
  8
0
 62
     0
 10
100.452888
 20
33.190293
 30
0.0
 11
97.341172
 21
36.30201
 31
0.0
  0
LINE
  8
0
 62
     0
 10
100.452888
 20
35.311614
 30
0.0
 11
99.133461
 21
36.631041
 31
0.0
  0
LINE
  8
0
 62
     0
 10
102.341437
 20
35.544385
 30
0.0
 11
101.013619
 21
36.872203
 31
0.0
  0
LINE
  8
0
 62
     0
 10
104.452888
 20
35.554254
 30
0.0
 11
102.993688
 21
37.013454
 31
0.0
  0
LINE
  8
0
 62
     0
 10
97.652888
 20
27.649317
 30
0.0
 11
100.452888
 21
30.449317
 31
0.0
  0
LINE
  8
0
 62
     0
 10
97.652888
 20
25.527997
 30
0.0
 11
100.452888
 21
28.327997
 31
0.0
  0
LINE
  8
0
 62
     0
 10
97.652888
 20
23.406676
 30
0.0
 11
100.452888
 21
26.206676
 31
0.0
  0
LINE
  8
0
 62
     0
 10
97.652888
 20
21.285356
 30
0.0
 11
100.452888
 21
24.085356
 31
0.0
  0
LINE
  8
0
 62
     0
 10
97.652888
 20
19.164036
 30
0.0
 11
100.452888
 21
21.964036
 31
0.0
  0
LINE
  8
0
 62
     0
 10
97.652888
 20
17.042715
 30
0.0
 11
100.452888
 21
19.842715
 31
0.0
  0
LINE
  8
0
 62
     0
 10
98.275879
 20
15.544385
 30
0.0
 11
100.452888
 21
17.721395
 31
0.0
  0
LINE
  8
0
 62
     0
 10
100.397199
 20
15.544385
 30
0.0
 11
100.452888
 21
15.600075
 31
0.0
  0
LINE
  8
0
 62
     0
 10
97.652888
 20
29.770637
 30
0.0
 11
100.452888
 21
32.570637
 31
0.0
  0
LINE
  8
0
 62
     0
 10
103.426636
 20
35.544385
 30
0.0
 11
104.452888
 21
36.570637
 31
0.0
  0
LINE
  8
0
 62
     0
 10
90.305316
 20
24.544385
 30
0.0
 11
92.125757
 21
26.364826
 31
0.0
  0
LINE
  8
0
 62
     0
 10
101.305316
 20
35.544385
 30
0.0
 11
102.763868
 21
37.002938
 31
0.0
  0
LINE
  8
0
 62
     0
 10
97.652888
 20
31.891958
 30
0.0
 11
100.452888
 21
34.691958
 31
0.0
  0
LINE
  8
0
 62
     0
 10
89.577577
 20
25.937967
 30
0.0
 11
92.33421
 21
28.6946
 31
0.0
  0
LINE
  8
0
 62
     0
 10
96.696639
 20
33.057029
 30
0.0
 11
100.450621
 21
36.81101
 31
0.0
  0
LINE
  8
0
 62
     0
 10
89.786031
 20
28.267741
 30
0.0
 11
92.542664
 21
31.024374
 31
0.0
  0
LINE
  8
0
 62
     0
 10
94.008081
 20
32.489791
 30
0.0
 11
97.941436
 21
36.423146
 31
0.0
  0
LINE
  8
0
 62
     0
 10
89.994484
 20
30.597515
 30
0.0
 11
95.165189
 21
35.76822
 31
0.0
  0
LINE
  8
0
 62
     0
 10
90.202938
 20
32.927288
 30
0.0
 11
91.982809
 21
34.70716
 31
0.0
  0
ENDBLK
  8
0
  0
BLOCK
  8
0
  2
*X3
 70
    65
 10
0.0
 20
0.0
 30
0.0
  3
*X
  0
LINE
  8
0
 62
     0
 10
164.549877
 20
-3.329531
 30
0.0
 11
160.749877
 21
0.470469
 31
0.0
  0
LINE
  8
0
 62
     0
 10
155.480201
 20
5.740145
 30
0.0
 11
153.176348
 21
8.043998
 31
0.0
  0
LINE
  8
0
 62
     0
 10
164.056768
 20
-4.957742
 30
0.0
 11
160.749877
 21
-1.650851
 31
0.0
  0
LINE
  8
0
 62
     0
 10
155.305986
 20
3.793039
 30
0.0
 11
153.002134
 21
6.096892
 31
0.0
  0
LINE
  8
0
 62
     0
 10
163.549877
 20
-6.572171
 30
0.0
 11
160.749877
 21
-3.772171
 31
0.0
  0
LINE
  8
0
 62
     0
 10
155.131772
 20
1.845934
 30
0.0
 11
152.827919
 21
4.149787
 31
0.0
  0
LINE
  8
0
 62
     0
 10
162.814127
 20
-7.957742
 30
0.0
 11
160.749877
 21
-5.893492
 31
0.0
  0
LINE
  8
0
 62
     0
 10
153.814127
 20
1.042258
 30
0.0
 11
152.653704
 21
2.202681
 31
0.0
  0
LINE
  8
0
 62
     0
 10
164.549877
 20
-1.20821
 30
0.0
 11
160.749877
 21
2.59179
 31
0.0
  0
LINE
  8
0
 62
     0
 10
155.654416
 20
7.687251
 30
0.0
 11
153.350563
 21
9.991103
 31
0.0
  0
LINE
  8
0
 62
     0
 10
164.549877
 20
0.91311
 30
0.0
 11
160.749877
 21
4.71311
 31
0.0
  0
LINE
  8
0
 62
     0
 10
156.60127
 20
8.861716
 30
0.0
 11
154.492393
 21
10.970594
 31
0.0
  0
LINE
  8
0
 62
     0
 10
164.549877
 20
3.03443
 30
0.0
 11
160.749877
 21
6.83443
 31
0.0
  0
LINE
  8
0
 62
     0
 10
158.318871
 20
9.265436
 30
0.0
 11
156.027142
 21
11.557165
 31
0.0
  0
LINE
  8
0
 62
     0
 10
164.549877
 20
5.155751
 30
0.0
 11
163.66337
 21
6.042258
 31
0.0
  0
LINE
  8
0
 62
     0
 10
160.097532
 20
9.608095
 30
0.0
 11
157.624727
 21
12.080901
 31
0.0
  0
LINE
  8
0
 62
     0
 10
162.549877
 20
7.155751
 30
0.0
 11
160.749877
 21
8.955751
 31
0.0
  0
LINE
  8
0
 62
     0
 10
162.549877
 20
9.277071
 30
0.0
 11
159.290002
 21
12.536946
 31
0.0
  0
LINE
  8
0
 62
     0
 10
163.90601
 20
10.042258
 30
0.0
 11
161.029055
 21
12.919213
 31
0.0
  0
LINE
  8
0
 62
     0
 10
166.027331
 20
10.042258
 30
0.0
 11
162.849621
 21
13.219967
 31
0.0
  0
LINE
  8
0
 62
     0
 10
167.549877
 20
10.641032
 30
0.0
 11
164.761713
 21
13.429196
 31
0.0
  0
LINE
  8
0
 62
     0
 10
167.549877
 20
12.762352
 30
0.0
 11
166.77861
 21
13.533619
 31
0.0
  0
LINE
  8
0
 62
     0
 10
160.749877
 20
3.772171
 30
0.0
 11
163.019963
 21
6.042258
 31
0.0
  0
LINE
  8
0
 62
     0
 10
167.019963
 20
10.042258
 30
0.0
 11
167.549877
 21
10.572171
 31
0.0
  0
LINE
  8
0
 62
     0
 10
160.749877
 20
1.650851
 30
0.0
 11
164.549877
 21
5.450851
 31
0.0
  0
LINE
  8
0
 62
     0
 10
160.749877
 20
-0.470469
 30
0.0
 11
164.549877
 21
3.329531
 31
0.0
  0
LINE
  8
0
 62
     0
 10
160.749877
 20
-2.59179
 30
0.0
 11
164.549877
 21
1.20821
 31
0.0
  0
LINE
  8
0
 62
     0
 10
160.749877
 20
-4.71311
 30
0.0
 11
164.549877
 21
-0.91311
 31
0.0
  0
LINE
  8
0
 62
     0
 10
160.749877
 20
-6.83443
 30
0.0
 11
164.549877
 21
-3.03443
 31
0.0
  0
LINE
  8
0
 62
     0
 10
161.747885
 20
-7.957742
 30
0.0
 11
163.549877
 21
-6.155751
 31
0.0
  0
LINE
  8
0
 62
     0
 10
160.749877
 20
5.893492
 30
0.0
 11
162.549877
 21
7.693492
 31
0.0
  0
LINE
  8
0
 62
     0
 10
164.898643
 20
10.042258
 30
0.0
 11
167.549877
 21
12.693492
 31
0.0
  0
LINE
  8
0
 62
     0
 10
153.777323
 20
1.042258
 30
0.0
 11
155.185894
 21
2.450829
 31
0.0
  0
LINE
  8
0
 62
     0
 10
162.777323
 20
10.042258
 30
0.0
 11
166.252889
 21
13.517824
 31
0.0
  0
LINE
  8
0
 62
     0
 10
160.749877
 20
8.014812
 30
0.0
 11
162.549877
 21
9.814812
 31
0.0
  0
LINE
  8
0
 62
     0
 10
152.637714
 20
2.02397
 30
0.0
 11
155.394347
 21
4.780603
 31
0.0
  0
LINE
  8
0
 62
     0
 10
160.24052
 20
9.626776
 30
0.0
 11
163.969347
 21
13.355602
 31
0.0
  0
LINE
  8
0
 62
     0
 10
152.846168
 20
4.353744
 30
0.0
 11
155.602801
 21
7.110377
 31
0.0
  0
LINE
  8
0
 62
     0
 10
157.597017
 20
9.104593
 30
0.0
 11
161.498866
 21
13.006442
 31
0.0
  0
LINE
  8
0
 62
     0
 10
153.054621
 20
6.683517
 30
0.0
 11
158.777141
 21
12.406037
 31
0.0
  0
LINE
  8
0
 62
     0
 10
153.263075
 20
9.013291
 30
0.0
 11
155.6825
 21
11.432717
 31
0.0
  0
ENDBLK
  8
0
  0
BLOCK
  8
0
  2
*X4
 70
    65
 10
0.0
 20
0.0
 30
0.0
  3
*X
  0
LINE
  8
0
 62
     0
 10
-102.159112
 20
7.44244
 30
0.0
 11
-100.659112
 21
8.94244
 31
0.0
  0
LINE
  8
0
 62
     0
 10
-102.159112
 20
9.210207
 30
0.0
 11
-100.659112
 21
10.710207
 31
0.0
  0
LINE
  8
0
 62
     0
 10
-102.159112
 20
10.977973
 30
0.0
 11
-100.659112
 21
12.477973
 31
0.0
  0
LINE
  8
0
 62
     0
 10
-102.159112
 20
12.74574
 30
0.0
 11
-100.659112
 21
14.24574
 31
0.0
  0
LINE
  8
0
 62
     0
 10
-102.159112
 20
14.513507
 30
0.0
 11
-100.659112
 21
16.013507
 31
0.0
  0
LINE
  8
0
 62
     0
 10
-102.159112
 20
16.281274
 30
0.0
 11
-100.659112
 21
17.781274
 31
0.0
  0
LINE
  8
0
 62
     0
 10
-99.047644
 20
19.392742
 30
0.0
 11
-98.159112
 21
20.281274
 31
0.0
  0
LINE
  8
0
 62
     0
 10
-102.159112
 20
18.049041
 30
0.0
 11
-99.285895
 21
20.922258
 31
0.0
  0
LINE
  8
0
 62
     0
 10
-102.159112
 20
19.816808
 30
0.0
 11
-101.053662
 21
20.922258
 31
0.0
  0
LINE
  8
0
 62
     0
 10
-102.159112
 20
5.674673
 30
0.0
 11
-100.659112
 21
7.174673
 31
0.0
  0
LINE
  8
0
 62
     0
 10
-102.159112
 20
3.906906
 30
0.0
 11
-100.659112
 21
5.406906
 31
0.0
  0
LINE
  8
0
 62
     0
 10
-102.159112
 20
2.139139
 30
0.0
 11
-100.659112
 21
3.639139
 31
0.0
  0
LINE
  8
0
 62
     0
 10
-101.608225
 20
0.922258
 30
0.0
 11
-100.659112
 21
1.871372
 31
0.0
  0
ENDBLK
  8
0
  0
BLOCK
  8
0
  2
*X5
 70
    65
 10
0.0
 20
0.0
 30
0.0
  3
*X
  0
LINE
  8
0
 62
     0
 10
-9.57708
 20
18.707191
 30
0.0
 11
-7.97708
 21
20.307191
 31
0.0
  0
LINE
  8
0
 62
     0
 10
-9.57708
 20
20.474958
 30
0.0
 11
-7.97708
 21
22.074958
 31
0.0
  0
LINE
  8
0
 62
     0
 10
-9.57708
 20
22.242725
 30
0.0
 11
-7.97708
 21
23.842725
 31
0.0
  0
LINE
  8
0
 62
     0
 10
-9.57708
 20
24.010492
 30
0.0
 11
-7.97708
 21
25.610492
 31
0.0
  0
LINE
  8
0
 62
     0
 10
-9.57708
 20
25.778259
 30
0.0
 11
-7.97708
 21
27.378259
 31
0.0
  0
LINE
  8
0
 62
     0
 10
-9.57708
 20
27.546026
 30
0.0
 11
-7.97708
 21
29.146026
 31
0.0
  0
LINE
  8
0
 62
     0
 10
-9.57708
 20
29.313793
 30
0.0
 11
-7.97708
 21
30.913793
 31
0.0
  0
LINE
  8
0
 62
     0
 10
-9.57708
 20
31.08156
 30
0.0
 11
-4.57708
 21
36.08156
 31
0.0
  0
LINE
  8
0
 62
     0
 10
-9.57708
 20
32.849327
 30
0.0
 11
-5.808042
 21
36.618365
 31
0.0
  0
LINE
  8
0
 62
     0
 10
-9.57708
 20
34.617094
 30
0.0
 11
-7.575809
 21
36.618365
 31
0.0
  0
LINE
  8
0
 62
     0
 10
-9.57708
 20
36.384861
 30
0.0
 11
-9.343576
 21
36.618365
 31
0.0
  0
LINE
  8
0
 62
     0
 10
-9.57708
 20
16.939424
 30
0.0
 11
-7.97708
 21
18.539424
 31
0.0
  0
LINE
  8
0
 62
     0
 10
-9.57708
 20
15.171657
 30
0.0
 11
-7.97708
 21
16.771657
 31
0.0
  0
LINE
  8
0
 62
     0
 10
-9.57708
 20
13.40389
 30
0.0
 11
-7.97708
 21
15.00389
 31
0.0
  0
LINE
  8
0
 62
     0
 10
-9.57708
 20
11.636123
 30
0.0
 11
-7.97708
 21
13.236123
 31
0.0
  0
LINE
  8
0
 62
     0
 10
-9.57708
 20
9.868356
 30
0.0
 11
-7.97708
 21
11.468356
 31
0.0
  0
LINE
  8
0
 62
     0
 10
-9.57708
 20
8.100589
 30
0.0
 11
-7.97708
 21
9.700589
 31
0.0
  0
ENDBLK
  8
0
  0
ENDSEC
  0
SECTION
  2
ENTITIES
  0
LINE
  8
0
  6
CENTER
 10
-4.57708
 20
6.758245
 30
0.0
 11
-4.57708
 21
43.157282
 31
0.0
  0
LINE
  8
0
 10
-28.510413
 20
27.562513
 30
0.0
 11
-26.926313
 21
38.437148
 31
0.0
  0
ARC
  8
0
 10
-4.57708
 20
-58.644135
 30
0.0
 40
100.2625
 50
90.0
 51
102.426307
  0
ARC
  8
0
 10
-27.520857
 20
27.418365
 30
0.0
 40
1.0
 50
171.712058
 51
270.0
  0
ARC
  8
0
 10
-25.936757
 20
38.293
 30
0.0
 40
1.0
 50
102.426307
 51
171.712058
  0
CIRCLE
  8
0
 10
-4.57708
 20
-45.33699
 30
0.0
 40
22.25
  0
LINE
  8
0
 10
-4.97708
 20
-21.396554
 30
0.0
 11
-4.97708
 21
-23.090585
 31
0.0
  0
LINE
  8
0
 10
-4.17708
 20
-21.396554
 30
0.0
 11
-4.17708
 21
-23.090585
 31
0.0
  0
LINE
  8
0
 10
17.549807
 20
38.934395
 30
0.0
 11
19.226987
 21
27.418365
 31
0.0
  0
LINE
  8
0
 10
19.058819
 20
27.418365
 30
0.0
 11
17.40081
 21
39.07901
 31
0.0
  0
LINE
  8
0
 10
18.9199
 20
27.418365
 30
0.0
 11
17.261892
 21
39.118365
 31
0.0
  0
LINE
  8
0
 10
18.641043
 20
27.418365
 30
0.0
 11
17.014824
 21
39.118365
 31
0.0
  0
LINE
  8
0
 10
18.433987
 20
27.418365
 30
0.0
 11
16.807768
 21
39.118365
 31
0.0
  0
LINE
  8
0
 10
18.046563
 20
27.418365
 30
0.0
 11
16.46451
 21
39.118365
 31
0.0
  0
LINE
  8
0
 10
17.772947
 20
27.418365
 30
0.0
 11
16.190894
 21
39.118365
 31
0.0
  0
LINE
  8
0
 10
17.279903
 20
27.418365
 30
0.0
 11
15.754056
 21
39.118365
 31
0.0
  0
LINE
  8
0
 10
16.941809
 20
27.418365
 30
0.0
 11
15.415962
 21
39.118365
 31
0.0
  0
LINE
  8
0
 10
16.346899
 20
27.418365
 30
0.0
 11
14.888871
 21
39.118365
 31
0.0
  0
LINE
  8
0
 10
15.946899
 20
27.418365
 30
0.0
 11
14.488871
 21
39.118365
 31
0.0
  0
LINE
  8
0
 10
15.25465
 20
27.418365
 30
0.0
 11
13.875538
 21
39.118365
 31
0.0
  0
LINE
  8
0
 10
14.795789
 20
27.418365
 30
0.0
 11
13.416677
 21
39.118365
 31
0.0
  0
LINE
  8
0
 10
14.011471
 20
27.418365
 30
0.0
 11
12.721769
 21
39.118365
 31
0.0
  0
LINE
  8
0
 10
13.497241
 20
27.418365
 30
0.0
 11
12.207539
 21
39.118365
 31
0.0
  0
LINE
  8
0
 10
12.626821
 20
27.418365
 30
0.0
 11
11.436346
 21
39.118365
 31
0.0
  0
LINE
  8
0
 10
12.061135
 20
27.418365
 30
0.0
 11
10.87066
 21
39.118365
 31
0.0
  0
LINE
  8
0
 10
11.111239
 20
27.418365
 30
0.0
 11
10.029051
 21
39.118365
 31
0.0
  0
LINE
  8
0
 10
10.498403
 20
27.418365
 30
0.0
 11
9.416215
 21
39.118365
 31
0.0
  0
LINE
  8
0
 10
9.476259
 20
27.418365
 30
0.0
 11
8.510594
 21
39.118365
 31
0.0
  0
LINE
  8
0
 10
8.820937
 20
27.418365
 30
0.0
 11
7.855272
 21
39.118365
 31
0.0
  0
LINE
  8
0
 10
7.855272
 20
27.418365
 30
0.0
 11
6.892532
 21
39.118365
 31
0.0
  0
LINE
  8
0
 10
7.041505
 20
27.418365
 30
0.0
 11
6.199712
 21
39.118365
 31
0.0
  0
LINE
  8
0
 10
5.898694
 20
27.418365
 30
0.0
 11
5.18718
 21
39.118365
 31
0.0
  0
LINE
  8
0
 10
5.173647
 20
27.418365
 30
0.0
 11
4.462133
 21
39.118365
 31
0.0
  0
LINE
  8
0
 10
3.983335
 20
27.418365
 30
0.0
 11
3.407515
 21
39.118365
 31
0.0
  0
LINE
  8
0
 10
3.231581
 20
27.418365
 30
0.0
 11
2.655761
 21
39.118365
 31
0.0
  0
LINE
  8
0
 10
2.002827
 20
27.418365
 30
0.0
 11
1.567083
 21
39.118365
 31
0.0
  0
LINE
  8
0
 10
1.230087
 20
27.418365
 30
0.0
 11
0.794343
 21
39.118365
 31
0.0
  0
LINE
  8
0
 10
-0.027758
 20
27.418365
 30
0.0
 11
-0.32011
 21
39.118365
 31
0.0
  0
LINE
  8
0
 10
-0.815604
 20
27.418365
 30
0.0
 11
-1.107956
 21
39.118365
 31
0.0
  0
LINE
  8
0
 10
-2.092966
 20
27.418365
 30
0.0
 11
-2.2397
 21
39.118365
 31
0.0
  0
LINE
  8
0
 10
-2.889922
 20
27.418365
 30
0.0
 11
-3.036656
 21
39.118365
 31
0.0
  0
LINE
  8
0
 10
-4.17708
 20
27.418365
 30
0.0
 11
-4.17708
 21
39.118365
 31
0.0
  0
ARC
  8
0
 10
16.782596
 20
38.293
 30
0.0
 40
1.0
 50
8.287942
 51
77.573693
  0
ARC
  8
0
 10
18.366696
 20
27.418365
 30
0.0
 40
1.0
 50
270.0
 51
8.287942
  0
LINE
  8
0
 10
19.366696
 20
27.418365
 30
0.0
 11
-4.57708
 21
27.418365
 31
0.0
  0
ARC
  8
0
 10
-4.57708
 20
-58.644135
 30
0.0
 40
100.2625
 50
77.573693
 51
90.0
  0
LINE
  8
0
 10
19.356253
 20
27.562513
 30
0.0
 11
17.772152
 21
38.437148
 31
0.0
  0
LINE
  8
0
 10
17.347195
 20
39.118365
 30
0.0
 11
-4.57708
 21
39.118365
 31
0.0
  0
LINE
  8
0
 10
18.366696
 20
26.418365
 30
0.0
 11
-4.57708
 21
26.418365
 31
0.0
  0
CIRCLE
  8
0
 10
-4.57708
 20
-45.33699
 30
0.0
 40
23.943777
  0
LINE
  8
0
 10
-7.062105
 20
-21.522517
 30
0.0
 11
-6.91446
 21
-23.210102
 31
0.0
  0
LINE
  8
0
 10
-6.265149
 20
-21.452793
 30
0.0
 11
-6.117504
 21
-23.140377
 31
0.0
  0
LINE
  8
0
 10
-9.128216
 20
-21.829723
 30
0.0
 11
-8.834051
 21
-23.498018
 31
0.0
  0
LINE
  8
0
 10
-8.34037
 20
-21.690804
 30
0.0
 11
-8.046205
 21
-23.359099
 31
0.0
  0
LINE
  8
0
 10
-11.159691
 20
-22.315833
 30
0.0
 11
-10.721244
 21
-23.952141
 31
0.0
  0
LINE
  8
0
 10
-10.386951
 20
-22.108777
 30
0.0
 11
-9.948503
 21
-23.745086
 31
0.0
  0
LINE
  8
0
 10
-13.141068
 20
-22.977147
 30
0.0
 11
-12.561676
 21
-24.569016
 31
0.0
  0
LINE
  8
0
 10
-12.389314
 20
-22.703531
 30
0.0
 11
-11.809922
 21
-24.2954
 31
0.0
  0
LINE
  8
0
 10
-15.057268
 20
-23.808634
 30
0.0
 11
-14.34134
 21
-25.343948
 31
0.0
  0
LINE
  8
0
 10
-14.332222
 20
-23.470539
 30
0.0
 11
-13.616294
 21
-25.005853
 31
0.0
  0
LINE
  8
0
 10
-16.893708
 20
-24.803965
 30
0.0
 11
-16.046693
 21
-26.271038
 31
0.0
  0
LINE
  8
0
 10
-16.200888
 20
-24.403965
 30
0.0
 11
-15.353872
 21
-25.871038
 31
0.0
  0
LINE
  8
0
 10
-18.636411
 20
-25.955564
 30
0.0
 11
-17.664754
 21
-27.343233
 31
0.0
  0
LINE
  8
0
 10
-17.981089
 20
-25.496703
 30
0.0
 11
-17.009433
 21
-26.884372
 31
0.0
  0
LINE
  8
0
 10
-20.272113
 20
-27.254667
 30
0.0
 11
-19.183211
 21
-28.55237
 31
0.0
  0
LINE
  8
0
 10
-19.659278
 20
-26.740437
 30
0.0
 11
-18.570375
 21
-28.03814
 31
0.0
  0
LINE
  8
0
 10
-21.788367
 20
-28.691388
 30
0.0
 11
-20.590506
 21
-29.889249
 31
0.0
  0
LINE
  8
0
 10
-21.222682
 20
-28.125703
 30
0.0
 11
-20.024821
 21
-29.323564
 31
0.0
  0
LINE
  8
0
 10
-23.173633
 20
-30.254792
 30
0.0
 11
-21.87593
 21
-31.343694
 31
0.0
  0
LINE
  8
0
 10
-22.659403
 20
-29.641957
 30
0.0
 11
-21.3617
 21
-30.730859
 31
0.0
  0
LINE
  8
0
 10
-24.417367
 20
-31.932981
 30
0.0
 11
-23.029698
 21
-32.904637
 31
0.0
  0
LINE
  8
0
 10
-23.958506
 20
-31.277659
 30
0.0
 11
-22.570837
 21
-32.249316
 31
0.0
  0
LINE
  8
0
 10
-25.510105
 20
-33.713182
 30
0.0
 11
-24.043031
 21
-34.560198
 31
0.0
  0
LINE
  8
0
 10
-25.110105
 20
-33.020362
 30
0.0
 11
-23.643031
 21
-33.867377
 31
0.0
  0
LINE
  8
0
 10
-26.44353
 20
-35.581848
 30
0.0
 11
-24.908217
 21
-36.297776
 31
0.0
  0
LINE
  8
0
 10
-26.105436
 20
-34.856801
 30
0.0
 11
-24.570122
 21
-35.57273
 31
0.0
  0
LINE
  8
0
 10
-27.210539
 20
-37.524756
 30
0.0
 11
-25.61867
 21
-38.104148
 31
0.0
  0
LINE
  8
0
 10
-26.936923
 20
-36.773002
 30
0.0
 11
-25.345054
 21
-37.352394
 31
0.0
  0
LINE
  8
0
 10
-27.805293
 20
-39.527119
 30
0.0
 11
-26.168984
 21
-39.965567
 31
0.0
  0
LINE
  8
0
 10
-27.598237
 20
-38.754379
 30
0.0
 11
-25.961929
 21
-39.192826
 31
0.0
  0
LINE
  8
0
 10
-28.223266
 20
-41.5737
 30
0.0
 11
-26.554971
 21
-41.867865
 31
0.0
  0
LINE
  8
0
 10
-28.084347
 20
-40.785854
 30
0.0
 11
-26.416052
 21
-41.080019
 31
0.0
  0
LINE
  8
0
 10
-28.461277
 20
-43.648921
 30
0.0
 11
-26.773692
 21
-43.796566
 31
0.0
  0
LINE
  8
0
 10
-28.391553
 20
-42.851965
 30
0.0
 11
-26.703968
 21
-42.99961
 31
0.0
  0
LINE
  8
0
 10
-28.517515
 20
-45.73699
 30
0.0
 11
-26.823484
 21
-45.73699
 31
0.0
  0
LINE
  8
0
 10
-28.517515
 20
-44.93699
 30
0.0
 11
-26.823484
 21
-44.93699
 31
0.0
  0
LINE
  8
0
 10
-28.391553
 20
-47.822014
 30
0.0
 11
-26.703968
 21
-47.674369
 31
0.0
  0
LINE
  8
0
 10
-28.461277
 20
-47.025058
 30
0.0
 11
-26.773692
 21
-46.877414
 31
0.0
  0
LINE
  8
0
 10
-28.084347
 20
-49.888126
 30
0.0
 11
-26.416052
 21
-49.59396
 31
0.0
  0
LINE
  8
0
 10
-28.223266
 20
-49.10028
 30
0.0
 11
-26.554971
 21
-48.806114
 31
0.0
  0
LINE
  8
0
 10
-27.598237
 20
-51.919601
 30
0.0
 11
-25.961929
 21
-51.481153
 31
0.0
  0
LINE
  8
0
 10
-27.805293
 20
-51.14686
 30
0.0
 11
-26.168984
 21
-50.708412
 31
0.0
  0
LINE
  8
0
 10
-26.936923
 20
-53.900978
 30
0.0
 11
-25.345054
 21
-53.321585
 31
0.0
  0
LINE
  8
0
 10
-27.210539
 20
-53.149224
 30
0.0
 11
-25.61867
 21
-52.569831
 31
0.0
  0
LINE
  8
0
 10
-26.105436
 20
-55.817178
 30
0.0
 11
-24.570122
 21
-55.101249
 31
0.0
  0
LINE
  8
0
 10
-26.44353
 20
-55.092132
 30
0.0
 11
-24.908217
 21
-54.376203
 31
0.0
  0
LINE
  8
0
 10
-25.110105
 20
-57.653617
 30
0.0
 11
-23.643031
 21
-56.806602
 31
0.0
  0
LINE
  8
0
 10
-25.510105
 20
-56.960797
 30
0.0
 11
-24.043031
 21
-56.113782
 31
0.0
  0
LINE
  8
0
 10
-23.958506
 20
-59.39632
 30
0.0
 11
-22.570837
 21
-58.424664
 31
0.0
  0
LINE
  8
0
 10
-24.417367
 20
-58.740998
 30
0.0
 11
-23.029698
 21
-57.769342
 31
0.0
  0
LINE
  8
0
 10
-22.659403
 20
-61.032023
 30
0.0
 11
-21.3617
 21
-59.94312
 31
0.0
  0
LINE
  8
0
 10
-23.173633
 20
-60.419187
 30
0.0
 11
-21.87593
 21
-59.330285
 31
0.0
  0
LINE
  8
0
 10
-21.222682
 20
-62.548276
 30
0.0
 11
-20.024821
 21
-61.350416
 31
0.0
  0
LINE
  8
0
 10
-21.788367
 20
-61.982591
 30
0.0
 11
-20.590506
 21
-60.78473
 31
0.0
  0
LINE
  8
0
 10
-19.659278
 20
-63.933542
 30
0.0
 11
-18.570375
 21
-62.635839
 31
0.0
  0
LINE
  8
0
 10
-20.272113
 20
-63.419312
 30
0.0
 11
-19.183211
 21
-62.121609
 31
0.0
  0
LINE
  8
0
 10
-17.981089
 20
-65.177277
 30
0.0
 11
-17.009433
 21
-63.789608
 31
0.0
  0
LINE
  8
0
 10
-18.636411
 20
-64.718416
 30
0.0
 11
-17.664754
 21
-63.330747
 31
0.0
  0
LINE
  8
0
 10
-16.200888
 20
-66.270015
 30
0.0
 11
-15.353872
 21
-64.802941
 31
0.0
  0
LINE
  8
0
 10
-16.893708
 20
-65.870015
 30
0.0
 11
-16.046693
 21
-64.402941
 31
0.0
  0
LINE
  8
0
 10
-14.332222
 20
-67.20344
 30
0.0
 11
-13.616294
 21
-65.668126
 31
0.0
  0
LINE
  8
0
 10
-15.057268
 20
-66.865345
 30
0.0
 11
-14.34134
 21
-65.330032
 31
0.0
  0
LINE
  8
0
 10
-12.389314
 20
-67.970448
 30
0.0
 11
-11.809922
 21
-66.37858
 31
0.0
  0
LINE
  8
0
 10
-13.141068
 20
-67.696832
 30
0.0
 11
-12.561676
 21
-66.104963
 31
0.0
  0
LINE
  8
0
 10
-10.386951
 20
-68.565202
 30
0.0
 11
-9.948503
 21
-66.928894
 31
0.0
  0
LINE
  8
0
 10
-11.159691
 20
-68.358147
 30
0.0
 11
-10.721244
 21
-66.721838
 31
0.0
  0
LINE
  8
0
 10
-8.34037
 20
-68.983175
 30
0.0
 11
-8.046205
 21
-67.31488
 31
0.0
  0
LINE
  8
0
 10
-9.128216
 20
-68.844257
 30
0.0
 11
-8.834051
 21
-67.175962
 31
0.0
  0
LINE
  8
0
 10
-6.265149
 20
-69.221187
 30
0.0
 11
-6.117504
 21
-67.533602
 31
0.0
  0
LINE
  8
0
 10
-7.062105
 20
-69.151462
 30
0.0
 11
-6.91446
 21
-67.463877
 31
0.0
  0
LINE
  8
0
 10
-4.17708
 20
-69.277425
 30
0.0
 11
-4.17708
 21
-67.583394
 31
0.0
  0
LINE
  8
0
 10
-4.97708
 20
-69.277425
 30
0.0
 11
-4.97708
 21
-67.583394
 31
0.0
  0
LINE
  8
0
 10
-2.092056
 20
-69.151462
 30
0.0
 11
-2.2397
 21
-67.463877
 31
0.0
  0
LINE
  8
0
 10
-2.889012
 20
-69.221187
 30
0.0
 11
-3.036656
 21
-67.533602
 31
0.0
  0
LINE
  8
0
 10
-0.025944
 20
-68.844257
 30
0.0
 11
-0.32011
 21
-67.175962
 31
0.0
  0
LINE
  8
0
 10
-0.81379
 20
-68.983175
 30
0.0
 11
-1.107956
 21
-67.31488
 31
0.0
  0
LINE
  8
0
 10
2.005531
 20
-68.358147
 30
0.0
 11
1.567083
 21
-66.721838
 31
0.0
  0
LINE
  8
0
 10
1.23279
 20
-68.565202
 30
0.0
 11
0.794343
 21
-66.928894
 31
0.0
  0
LINE
  8
0
 10
3.986908
 20
-67.696832
 30
0.0
 11
3.407515
 21
-66.104963
 31
0.0
  0
LINE
  8
0
 10
3.235154
 20
-67.970448
 30
0.0
 11
2.655761
 21
-66.37858
 31
0.0
  0
LINE
  8
0
 10
5.903108
 20
-66.865345
 30
0.0
 11
5.18718
 21
-65.330032
 31
0.0
  0
LINE
  8
0
 10
5.178062
 20
-67.20344
 30
0.0
 11
4.462133
 21
-65.668126
 31
0.0
  0
LINE
  8
0
 10
7.739548
 20
-65.870015
 30
0.0
 11
6.892532
 21
-64.402941
 31
0.0
  0
LINE
  8
0
 10
7.046727
 20
-66.270015
 30
0.0
 11
6.199712
 21
-64.802941
 31
0.0
  0
LINE
  8
0
 10
9.48225
 20
-64.718416
 30
0.0
 11
8.510594
 21
-63.330747
 31
0.0
  0
LINE
  8
0
 10
8.826928
 20
-65.177277
 30
0.0
 11
7.855272
 21
-63.789608
 31
0.0
  0
LINE
  8
0
 10
11.117953
 20
-63.419312
 30
0.0
 11
10.029051
 21
-62.121609
 31
0.0
  0
LINE
  8
0
 10
10.505117
 20
-63.933542
 30
0.0
 11
9.416215
 21
-62.635839
 31
0.0
  0
LINE
  8
0
 10
12.634207
 20
-61.982591
 30
0.0
 11
11.436346
 21
-60.78473
 31
0.0
  0
LINE
  8
0
 10
12.068521
 20
-62.548276
 30
0.0
 11
10.87066
 21
-61.350416
 31
0.0
  0
LINE
  8
0
 10
14.019472
 20
-60.419187
 30
0.0
 11
12.721769
 21
-59.330285
 31
0.0
  0
LINE
  8
0
 10
13.505242
 20
-61.032023
 30
0.0
 11
12.207539
 21
-59.94312
 31
0.0
  0
LINE
  8
0
 10
15.263207
 20
-58.740998
 30
0.0
 11
13.875538
 21
-57.769342
 31
0.0
  0
LINE
  8
0
 10
14.804346
 20
-59.39632
 30
0.0
 11
13.416677
 21
-58.424664
 31
0.0
  0
LINE
  8
0
 10
16.355945
 20
-56.960797
 30
0.0
 11
14.888871
 21
-56.113782
 31
0.0
  0
LINE
  8
0
 10
15.955945
 20
-57.653617
 30
0.0
 11
14.488871
 21
-56.806602
 31
0.0
  0
LINE
  8
0
 10
17.28937
 20
-55.092132
 30
0.0
 11
15.754056
 21
-54.376203
 31
0.0
  0
LINE
  8
0
 10
16.951275
 20
-55.817178
 30
0.0
 11
15.415962
 21
-55.101249
 31
0.0
  0
LINE
  8
0
 10
18.056378
 20
-53.149224
 30
0.0
 11
16.46451
 21
-52.569831
 31
0.0
  0
LINE
  8
0
 10
17.782762
 20
-53.900978
 30
0.0
 11
16.190894
 21
-53.321585
 31
0.0
  0
LINE
  8
0
 10
18.651132
 20
-51.14686
 30
0.0
 11
17.014824
 21
-50.708412
 31
0.0
  0
LINE
  8
0
 10
18.444077
 20
-51.919601
 30
0.0
 11
16.807768
 21
-51.481153
 31
0.0
  0
LINE
  8
0
 10
19.069105
 20
-49.10028
 30
0.0
 11
17.40081
 21
-48.806114
 31
0.0
  0
LINE
  8
0
 10
18.930187
 20
-49.888126
 30
0.0
 11
17.261892
 21
-49.59396
 31
0.0
  0
LINE
  8
0
 10
19.307117
 20
-47.025058
 30
0.0
 11
17.619532
 21
-46.877414
 31
0.0
  0
LINE
  8
0
 10
19.237392
 20
-47.822014
 30
0.0
 11
17.549807
 21
-47.674369
 31
0.0
  0
LINE
  8
0
 10
19.363355
 20
-44.93699
 30
0.0
 11
17.669324
 21
-44.93699
 31
0.0
  0
LINE
  8
0
 10
19.363355
 20
-45.73699
 30
0.0
 11
17.669324
 21
-45.73699
 31
0.0
  0
LINE
  8
0
 10
19.237392
 20
-42.851965
 30
0.0
 11
17.549807
 21
-42.99961
 31
0.0
  0
LINE
  8
0
 10
19.307117
 20
-43.648921
 30
0.0
 11
17.619532
 21
-43.796566
 31
0.0
  0
LINE
  8
0
 10
18.930187
 20
-40.785854
 30
0.0
 11
17.261892
 21
-41.080019
 31
0.0
  0
LINE
  8
0
 10
19.069105
 20
-41.5737
 30
0.0
 11
17.40081
 21
-41.867865
 31
0.0
  0
LINE
  8
0
 10
18.444077
 20
-38.754379
 30
0.0
 11
16.807768
 21
-39.192826
 31
0.0
  0
LINE
  8
0
 10
18.651132
 20
-39.527119
 30
0.0
 11
17.014824
 21
-39.965567
 31
0.0
  0
LINE
  8
0
 10
17.782762
 20
-36.773002
 30
0.0
 11
16.190894
 21
-37.352394
 31
0.0
  0
LINE
  8
0
 10
18.056378
 20
-37.524756
 30
0.0
 11
16.46451
 21
-38.104148
 31
0.0
  0
LINE
  8
0
 10
16.951275
 20
-34.856801
 30
0.0
 11
15.415962
 21
-35.57273
 31
0.0
  0
LINE
  8
0
 10
17.28937
 20
-35.581848
 30
0.0
 11
15.754056
 21
-36.297776
 31
0.0
  0
LINE
  8
0
 10
15.955945
 20
-33.020362
 30
0.0
 11
14.488871
 21
-33.867377
 31
0.0
  0
LINE
  8
0
 10
16.355945
 20
-33.713182
 30
0.0
 11
14.888871
 21
-34.560198
 31
0.0
  0
LINE
  8
0
 10
14.804346
 20
-31.277659
 30
0.0
 11
13.416677
 21
-32.249316
 31
0.0
  0
LINE
  8
0
 10
15.263207
 20
-31.932981
 30
0.0
 11
13.875538
 21
-32.904637
 31
0.0
  0
LINE
  8
0
 10
13.505242
 20
-29.641957
 30
0.0
 11
12.207539
 21
-30.730859
 31
0.0
  0
LINE
  8
0
 10
14.019472
 20
-30.254792
 30
0.0
 11
12.721769
 21
-31.343694
 31
0.0
  0
LINE
  8
0
 10
12.068521
 20
-28.125703
 30
0.0
 11
10.87066
 21
-29.323564
 31
0.0
  0
LINE
  8
0
 10
12.634207
 20
-28.691388
 30
0.0
 11
11.436346
 21
-29.889249
 31
0.0
  0
LINE
  8
0
 10
10.505117
 20
-26.740437
 30
0.0
 11
9.416215
 21
-28.03814
 31
0.0
  0
LINE
  8
0
 10
11.117953
 20
-27.254667
 30
0.0
 11
10.029051
 21
-28.55237
 31
0.0
  0
LINE
  8
0
 10
8.826928
 20
-25.496703
 30
0.0
 11
7.855272
 21
-26.884372
 31
0.0
  0
LINE
  8
0
 10
9.48225
 20
-25.955564
 30
0.0
 11
8.510594
 21
-27.343233
 31
0.0
  0
LINE
  8
0
 10
7.046727
 20
-24.403965
 30
0.0
 11
6.199712
 21
-25.871038
 31
0.0
  0
LINE
  8
0
 10
7.739548
 20
-24.803965
 30
0.0
 11
6.892532
 21
-26.271038
 31
0.0
  0
LINE
  8
0
 10
5.178062
 20
-23.470539
 30
0.0
 11
4.462133
 21
-25.005853
 31
0.0
  0
LINE
  8
0
 10
5.903108
 20
-23.808634
 30
0.0
 11
5.18718
 21
-25.343948
 31
0.0
  0
LINE
  8
0
 10
3.235154
 20
-22.703531
 30
0.0
 11
2.655761
 21
-24.2954
 31
0.0
  0
LINE
  8
0
 10
3.986908
 20
-22.977147
 30
0.0
 11
3.407515
 21
-24.569016
 31
0.0
  0
LINE
  8
0
 10
1.23279
 20
-22.108777
 30
0.0
 11
0.794343
 21
-23.745086
 31
0.0
  0
LINE
  8
0
 10
2.005531
 20
-22.315833
 30
0.0
 11
1.567083
 21
-23.952141
 31
0.0
  0
LINE
  8
0
 10
-0.81379
 20
-21.690804
 30
0.0
 11
-1.107956
 21
-23.359099
 31
0.0
  0
LINE
  8
0
 10
-0.025944
 20
-21.829723
 30
0.0
 11
-0.32011
 21
-23.498018
 31
0.0
  0
LINE
  8
0
 10
-2.889012
 20
-21.452793
 30
0.0
 11
-3.036656
 21
-23.140377
 31
0.0
  0
LINE
  8
0
 10
-2.092056
 20
-21.522517
 30
0.0
 11
-2.2397
 21
-23.210102
 31
0.0
  0
LINE
  8
0
 10
-25.722857
 20
27.274217
 30
0.0
 11
-24.386631
 21
36.447232
 31
0.0
  0
ARC
  8
0
 10
-4.57708
 20
-58.644135
 30
0.0
 40
97.4625
 50
94.732632
 51
101.490086
  0
LINE
  8
0
 10
-27.520857
 20
26.418365
 30
0.0
 11
-11.57708
 21
26.418365
 31
0.0
  0
ARC
  8
0
 10
-26.712414
 20
27.418365
 30
0.0
 40
1.0
 50
270.0
 51
351.712058
  0
ARC
  8
0
 10
-23.891853
 20
36.375158
 30
0.0
 40
0.5
 50
101.490086
 51
171.712058
  0
LINE
  8
0
 10
-4.57708
 20
7.618365
 30
0.0
 11
-11.57708
 21
7.618365
 31
0.0
  0
LINE
  8
0
 10
-12.07708
 20
37.987777
 30
0.0
 11
-12.07708
 21
29.618365
 31
0.0
  0
LINE
  8
0
 10
-11.57708
 20
29.118365
 30
0.0
 11
-11.57708
 21
7.618365
 31
0.0
  0
LINE
  8
0
 10
-11.57708
 20
29.118365
 30
0.0
 11
-12.07708
 21
29.618365
 31
0.0
  0
LINE
  8
0
 10
-9.57708
 20
36.618365
 30
0.0
 11
-9.57708
 21
7.618365
 31
0.0
  0
ARC
  8
0
 10
-12.57708
 20
37.987777
 30
0.0
 40
0.5
 50
0.0
 51
94.732632
  0
LINE
  8
0
  6
CONTINUOUS
 10
-8.57708
 20
30.618365
 30
0.0
 11
-8.57708
 21
7.618365
 31
0.0
  0
LINE
  8
0
  6
CONTINUOUS
 10
-4.57708
 20
30.618365
 30
0.0
 11
-8.57708
 21
30.618365
 31
0.0
  0
LINE
  8
0
 10
-4.57708
 20
36.618365
 30
0.0
 11
-9.57708
 21
36.618365
 31
0.0
  0
INSERT
  8
0
  2
*X0
 10
14.480999
 20
22.792
 30
0.0
  0
LINE
  8
0
 10
2.42292
 20
26.418365
 30
0.0
 11
2.42292
 21
7.618365
 31
0.0
  0
LINE
  8
0
 10
-4.57708
 20
7.618365
 30
0.0
 11
2.42292
 21
7.618365
 31
0.0
  0
LINE
  8
0
 10
59.570313
 20
26.418365
 30
0.0
 11
59.570313
 21
7.618365
 31
0.0
  0
LINE
  8
0
 10
48.570313
 20
31.429226
 30
0.0
 11
48.570313
 21
-7.781635
 31
0.0
  0
ARC
  8
0
 10
44.570313
 20
37.987777
 30
0.0
 40
0.5
 50
0.0
 51
94.732632
  0
LINE
  8
0
 10
45.570313
 20
29.118365
 30
0.0
 11
45.070313
 21
29.618365
 31
0.0
  0
LINE
  8
0
 10
45.570313
 20
29.118365
 30
0.0
 11
45.570313
 21
7.618365
 31
0.0
  0
LINE
  8
0
 10
45.070313
 20
37.987777
 30
0.0
 11
45.070313
 21
29.618365
 31
0.0
  0
LINE
  8
0
 10
59.570313
 20
7.618365
 30
0.0
 11
52.570313
 21
7.618365
 31
0.0
  0
ARC
  8
0
 10
33.255541
 20
36.375158
 30
0.0
 40
0.5
 50
101.490086
 51
171.712058
  0
ARC
  8
0
 10
30.43498
 20
27.418365
 30
0.0
 40
1.0
 50
270.0
 51
351.712058
  0
LINE
  8
0
 10
29.626537
 20
26.418365
 30
0.0
 11
45.570313
 21
26.418365
 31
0.0
  0
ARC
  8
0
 10
52.570313
 20
-58.644135
 30
0.0
 40
97.4625
 50
94.732632
 51
101.490086
  0
LINE
  8
0
 10
31.424536
 20
27.274217
 30
0.0
 11
32.760763
 21
36.447232
 31
0.0
  0
LINE
  8
0
 10
75.51409
 20
26.418365
 30
0.0
 11
52.570313
 21
26.418365
 31
0.0
  0
LINE
  8
0
 10
74.494589
 20
39.118365
 30
0.0
 11
52.570313
 21
39.118365
 31
0.0
  0
LINE
  8
0
 10
76.503646
 20
27.562513
 30
0.0
 11
74.919546
 21
38.437148
 31
0.0
  0
ARC
  8
0
 10
52.570313
 20
-58.644135
 30
0.0
 40
100.2625
 50
77.573693
 51
90.0
  0
LINE
  8
0
 10
76.51409
 20
27.418365
 30
0.0
 11
52.570313
 21
27.418365
 31
0.0
  0
ARC
  8
0
 10
75.51409
 20
27.418365
 30
0.0
 40
1.0
 50
270.0
 51
8.287942
  0
ARC
  8
0
 10
73.92999
 20
38.293
 30
0.0
 40
1.0
 50
8.287942
 51
77.573693
  0
LINE
  8
0
 10
52.970313
 20
27.418365
 30
0.0
 11
52.970313
 21
39.118365
 31
0.0
  0
LINE
  8
0
 10
54.257471
 20
27.418365
 30
0.0
 11
54.110737
 21
39.118365
 31
0.0
  0
LINE
  8
0
 10
55.054427
 20
27.418365
 30
0.0
 11
54.907693
 21
39.118365
 31
0.0
  0
LINE
  8
0
 10
56.331789
 20
27.418365
 30
0.0
 11
56.039438
 21
39.118365
 31
0.0
  0
LINE
  8
0
 10
57.119636
 20
27.418365
 30
0.0
 11
56.827284
 21
39.118365
 31
0.0
  0
LINE
  8
0
 10
58.37748
 20
27.418365
 30
0.0
 11
57.941736
 21
39.118365
 31
0.0
  0
LINE
  8
0
 10
59.150221
 20
27.418365
 30
0.0
 11
58.714477
 21
39.118365
 31
0.0
  0
LINE
  8
0
 10
60.378975
 20
27.418365
 30
0.0
 11
59.803155
 21
39.118365
 31
0.0
  0
LINE
  8
0
 10
61.130729
 20
27.418365
 30
0.0
 11
60.554909
 21
39.118365
 31
0.0
  0
LINE
  8
0
 10
62.321041
 20
27.418365
 30
0.0
 11
61.609527
 21
39.118365
 31
0.0
  0
LINE
  8
0
 10
63.046087
 20
27.418365
 30
0.0
 11
62.334573
 21
39.118365
 31
0.0
  0
LINE
  8
0
 10
64.188898
 20
27.418365
 30
0.0
 11
63.347105
 21
39.118365
 31
0.0
  0
LINE
  8
0
 10
65.002666
 20
27.418365
 30
0.0
 11
64.039926
 21
39.118365
 31
0.0
  0
LINE
  8
0
 10
65.968331
 20
27.418365
 30
0.0
 11
65.002666
 21
39.118365
 31
0.0
  0
LINE
  8
0
 10
66.623652
 20
27.418365
 30
0.0
 11
65.657987
 21
39.118365
 31
0.0
  0
LINE
  8
0
 10
67.645797
 20
27.418365
 30
0.0
 11
66.563609
 21
39.118365
 31
0.0
  0
LINE
  8
0
 10
68.258632
 20
27.418365
 30
0.0
 11
67.176444
 21
39.118365
 31
0.0
  0
LINE
  8
0
 10
69.208529
 20
27.418365
 30
0.0
 11
68.018054
 21
39.118365
 31
0.0
  0
LINE
  8
0
 10
69.774214
 20
27.418365
 30
0.0
 11
68.583739
 21
39.118365
 31
0.0
  0
LINE
  8
0
 10
70.644634
 20
27.418365
 30
0.0
 11
69.354933
 21
39.118365
 31
0.0
  0
LINE
  8
0
 10
71.158864
 20
27.418365
 30
0.0
 11
69.869163
 21
39.118365
 31
0.0
  0
LINE
  8
0
 10
71.943183
 20
27.418365
 30
0.0
 11
70.56407
 21
39.118365
 31
0.0
  0
LINE
  8
0
 10
72.402044
 20
27.418365
 30
0.0
 11
71.022931
 21
39.118365
 31
0.0
  0
LINE
  8
0
 10
73.094293
 20
27.418365
 30
0.0
 11
71.636265
 21
39.118365
 31
0.0
  0
LINE
  8
0
 10
73.494293
 20
27.418365
 30
0.0
 11
72.036265
 21
39.118365
 31
0.0
  0
LINE
  8
0
 10
74.089202
 20
27.418365
 30
0.0
 11
72.563355
 21
39.118365
 31
0.0
  0
LINE
  8
0
 10
74.427297
 20
27.418365
 30
0.0
 11
72.90145
 21
39.118365
 31
0.0
  0
LINE
  8
0
 10
74.92034
 20
27.418365
 30
0.0
 11
73.338287
 21
39.118365
 31
0.0
  0
LINE
  8
0
 10
75.193956
 20
27.418365
 30
0.0
 11
73.611903
 21
39.118365
 31
0.0
  0
LINE
  8
0
 10
75.581381
 20
27.418365
 30
0.0
 11
73.955162
 21
39.118365
 31
0.0
  0
LINE
  8
0
 10
75.788436
 20
27.418365
 30
0.0
 11
74.162217
 21
39.118365
 31
0.0
  0
LINE
  8
0
 10
76.067294
 20
27.418365
 30
0.0
 11
74.409285
 21
39.118365
 31
0.0
  0
LINE
  8
0
 10
76.206212
 20
27.418365
 30
0.0
 11
74.548204
 21
39.07901
 31
0.0
  0
LINE
  8
0
 10
74.697201
 20
38.934395
 30
0.0
 11
76.37438
 21
27.418365
 31
0.0
  0
ARC
  8
0
 10
31.210637
 20
38.293
 30
0.0
 40
1.0
 50
102.426307
 51
171.712058
  0
ARC
  8
0
 10
29.626537
 20
27.418365
 30
0.0
 40
1.0
 50
171.712058
 51
270.0
  0
ARC
  8
0
 10
52.570313
 20
-58.644135
 30
0.0
 40
100.2625
 50
90.0
 51
102.426307
  0
LINE
  8
0
 10
28.636981
 20
27.562513
 30
0.0
 11
30.221081
 21
38.437148
 31
0.0
  0
LINE
  8
0
 10
46.570313
 20
36.429226
 30
0.0
 11
46.570313
 21
31.46687
 31
0.0
  0
LINE
  8
0
 10
46.570313
 20
36.429226
 30
0.0
 11
52.570313
 21
36.429226
 31
0.0
  0
LINE
  8
0
 10
46.570313
 20
31.429226
 30
0.0
 11
49.170313
 21
31.429226
 31
0.0
  0
LINE
  8
0
 10
47.570313
 20
10.618365
 30
0.0
 11
48.570313
 21
10.618365
 31
0.0
  0
LINE
  8
0
 10
47.570313
 20
10.618365
 30
0.0
 11
47.570313
 21
7.618365
 31
0.0
  0
INSERT
  8
0
  2
*X1
 10
-55.128423
 20
22.792
 30
0.0
  0
LINE
  8
0
  6
CENTER
 10
-98.159112
 20
23.254258
 30
0.0
 11
-98.159112
 21
-1.756635
 31
0.0
  0
LINE
  8
0
 10
-98.159112
 20
19.422258
 30
0.0
 11
-84.148732
 21
19.422258
 31
0.0
  0
CIRCLE
  8
0
 10
-98.159112
 20
-39.168489
 30
0.0
 40
15.0
  0
CIRCLE
  8
0
 10
-98.159112
 20
-39.168489
 30
0.0
 40
14.15
  0
LINE
  8
0
 10
-98.559112
 20
-25.018489
 30
0.0
 11
-98.559112
 21
-24.168489
 31
0.0
  0
LINE
  8
0
 10
-97.759112
 20
-25.018489
 30
0.0
 11
-97.759112
 21
-24.168489
 31
0.0
  0
LINE
  8
0
 10
-100.035998
 20
-25.137815
 30
0.0
 11
-100.124847
 21
-24.292471
 31
0.0
  0
LINE
  8
0
 10
-99.240381
 20
-25.054192
 30
0.0
 11
-99.32923
 21
-24.208849
 31
0.0
  0
LINE
  8
0
 10
-101.492321
 20
-25.410865
 30
0.0
 11
-101.669046
 21
-24.579439
 31
0.0
  0
LINE
  8
0
 10
-100.709803
 20
-25.244535
 30
0.0
 11
-100.886528
 21
-24.41311
 31
0.0
  0
LINE
  8
0
 10
-102.912125
 20
-25.834646
 30
0.0
 11
-103.174789
 21
-25.026248
 31
0.0
  0
LINE
  8
0
 10
-102.151279
 20
-25.587432
 30
0.0
 11
-102.413944
 21
-24.779034
 31
0.0
  0
LINE
  8
0
 10
-104.279853
 20
-26.404515
 30
0.0
 11
-104.625579
 21
-25.628001
 31
0.0
  0
LINE
  8
0
 10
-103.549017
 20
-26.079126
 30
0.0
 11
-103.894743
 21
-25.302612
 31
0.0
  0
LINE
  8
0
 10
-105.580522
 20
-27.114229
 30
0.0
 11
-106.005522
 21
-26.378107
 31
0.0
  0
LINE
  8
0
 10
-104.887701
 20
-26.714229
 30
0.0
 11
-105.312701
 21
-25.978107
 31
0.0
  0
LINE
  8
0
 10
-106.79988
 20
-27.956012
 30
0.0
 11
-107.299497
 21
-27.268348
 31
0.0
  0
LINE
  8
0
 10
-106.152666
 20
-27.485784
 30
0.0
 11
-106.652284
 21
-26.798119
 31
0.0
  0
LINE
  8
0
 10
-107.924568
 20
-28.920641
 30
0.0
 11
-108.493329
 21
-28.288968
 31
0.0
  0
LINE
  8
0
 10
-107.330052
 20
-28.385337
 30
0.0
 11
-107.898813
 21
-27.753664
 31
0.0
  0
LINE
  8
0
 10
-108.942263
 20
-29.997548
 30
0.0
 11
-109.573936
 21
-29.428787
 31
0.0
  0
LINE
  8
0
 10
-108.406959
 20
-29.403032
 30
0.0
 11
-109.038632
 21
-28.834271
 31
0.0
  0
LINE
  8
0
 10
-109.841816
 20
-31.174934
 30
0.0
 11
-110.529481
 21
-30.675317
 31
0.0
  0
LINE
  8
0
 10
-109.371588
 20
-30.52772
 30
0.0
 11
-110.059252
 21
-30.028103
 31
0.0
  0
LINE
  8
0
 10
-110.613371
 20
-32.439899
 30
0.0
 11
-111.349493
 21
-32.014899
 31
0.0
  0
LINE
  8
0
 10
-110.213371
 20
-31.747078
 30
0.0
 11
-110.949493
 21
-31.322078
 31
0.0
  0
LINE
  8
0
 10
-111.248474
 20
-33.778583
 30
0.0
 11
-112.024988
 21
-33.432857
 31
0.0
  0
LINE
  8
0
 10
-110.923085
 20
-33.047747
 30
0.0
 11
-111.699599
 21
-32.702021
 31
0.0
  0
LINE
  8
0
 10
-111.740168
 20
-35.176321
 30
0.0
 11
-112.548566
 21
-34.913656
 31
0.0
  0
LINE
  8
0
 10
-111.492954
 20
-34.415475
 30
0.0
 11
-112.301352
 21
-34.152811
 31
0.0
  0
LINE
  8
0
 10
-112.083065
 20
-36.617797
 30
0.0
 11
-112.91449
 21
-36.441072
 31
0.0
  0
LINE
  8
0
 10
-111.916735
 20
-35.835279
 30
0.0
 11
-112.748161
 21
-35.658554
 31
0.0
  0
LINE
  8
0
 10
-112.273408
 20
-38.08722
 30
0.0
 11
-113.118751
 21
-37.99837
 31
0.0
  0
LINE
  8
0
 10
-112.189785
 20
-37.291602
 30
0.0
 11
-113.035129
 21
-37.202753
 31
0.0
  0
LINE
  8
0
 10
-112.309112
 20
-39.568489
 30
0.0
 11
-113.159112
 21
-39.568489
 31
0.0
  0
LINE
  8
0
 10
-112.309112
 20
-38.768489
 30
0.0
 11
-113.159112
 21
-38.768489
 31
0.0
  0
LINE
  8
0
 10
-112.189785
 20
-41.045375
 30
0.0
 11
-113.035129
 21
-41.134224
 31
0.0
  0
LINE
  8
0
 10
-112.273408
 20
-40.249758
 30
0.0
 11
-113.118751
 21
-40.338607
 31
0.0
  0
LINE
  8
0
 10
-111.916735
 20
-42.501698
 30
0.0
 11
-112.748161
 21
-42.678423
 31
0.0
  0
LINE
  8
0
 10
-112.083065
 20
-41.71918
 30
0.0
 11
-112.91449
 21
-41.895905
 31
0.0
  0
LINE
  8
0
 10
-111.492954
 20
-43.921502
 30
0.0
 11
-112.301352
 21
-44.184166
 31
0.0
  0
LINE
  8
0
 10
-111.740168
 20
-43.160656
 30
0.0
 11
-112.548566
 21
-43.423321
 31
0.0
  0
LINE
  8
0
 10
-110.923085
 20
-45.28923
 30
0.0
 11
-111.699599
 21
-45.634956
 31
0.0
  0
LINE
  8
0
 10
-111.248474
 20
-44.558394
 30
0.0
 11
-112.024988
 21
-44.90412
 31
0.0
  0
LINE
  8
0
 10
-110.213371
 20
-46.589899
 30
0.0
 11
-110.949493
 21
-47.014899
 31
0.0
  0
LINE
  8
0
 10
-110.613371
 20
-45.897078
 30
0.0
 11
-111.349493
 21
-46.322078
 31
0.0
  0
LINE
  8
0
 10
-109.371588
 20
-47.809257
 30
0.0
 11
-110.059252
 21
-48.308874
 31
0.0
  0
LINE
  8
0
 10
-109.841816
 20
-47.162043
 30
0.0
 11
-110.529481
 21
-47.66166
 31
0.0
  0
LINE
  8
0
 10
-108.406959
 20
-48.933945
 30
0.0
 11
-109.038632
 21
-49.502706
 31
0.0
  0
LINE
  8
0
 10
-108.942263
 20
-48.339429
 30
0.0
 11
-109.573936
 21
-48.90819
 31
0.0
  0
LINE
  8
0
 10
-107.330052
 20
-49.95164
 30
0.0
 11
-107.898813
 21
-50.583313
 31
0.0
  0
LINE
  8
0
 10
-107.924568
 20
-49.416336
 30
0.0
 11
-108.493329
 21
-50.048009
 31
0.0
  0
LINE
  8
0
 10
-106.152666
 20
-50.851193
 30
0.0
 11
-106.652284
 21
-51.538858
 31
0.0
  0
LINE
  8
0
 10
-106.79988
 20
-50.380965
 30
0.0
 11
-107.299497
 21
-51.068629
 31
0.0
  0
LINE
  8
0
 10
-104.887701
 20
-51.622748
 30
0.0
 11
-105.312701
 21
-52.35887
 31
0.0
  0
LINE
  8
0
 10
-105.580522
 20
-51.222748
 30
0.0
 11
-106.005522
 21
-51.95887
 31
0.0
  0
LINE
  8
0
 10
-103.549017
 20
-52.257851
 30
0.0
 11
-103.894743
 21
-53.034365
 31
0.0
  0
LINE
  8
0
 10
-104.279853
 20
-51.932462
 30
0.0
 11
-104.625579
 21
-52.708976
 31
0.0
  0
LINE
  8
0
 10
-102.151279
 20
-52.749545
 30
0.0
 11
-102.413944
 21
-53.557943
 31
0.0
  0
LINE
  8
0
 10
-102.912125
 20
-52.502331
 30
0.0
 11
-103.174789
 21
-53.310729
 31
0.0
  0
LINE
  8
0
 10
-100.709803
 20
-53.092442
 30
0.0
 11
-100.886528
 21
-53.923867
 31
0.0
  0
LINE
  8
0
 10
-101.492321
 20
-52.926112
 30
0.0
 11
-101.669046
 21
-53.757538
 31
0.0
  0
LINE
  8
0
 10
-99.240381
 20
-53.282785
 30
0.0
 11
-99.32923
 21
-54.128128
 31
0.0
  0
LINE
  8
0
 10
-100.035998
 20
-53.199162
 30
0.0
 11
-100.124847
 21
-54.044506
 31
0.0
  0
LINE
  8
0
 10
-97.759112
 20
-53.318489
 30
0.0
 11
-97.759112
 21
-54.168489
 31
0.0
  0
LINE
  8
0
 10
-98.559112
 20
-53.318489
 30
0.0
 11
-98.559112
 21
-54.168489
 31
0.0
  0
LINE
  8
0
 10
-96.282225
 20
-53.199162
 30
0.0
 11
-96.193376
 21
-54.044506
 31
0.0
  0
LINE
  8
0
 10
-97.077843
 20
-53.282785
 30
0.0
 11
-96.988993
 21
-54.128128
 31
0.0
  0
LINE
  8
0
 10
-94.825902
 20
-52.926112
 30
0.0
 11
-94.649177
 21
-53.757538
 31
0.0
  0
LINE
  8
0
 10
-95.60842
 20
-53.092442
 30
0.0
 11
-95.431695
 21
-53.923867
 31
0.0
  0
LINE
  8
0
 10
-93.406098
 20
-52.502331
 30
0.0
 11
-93.143434
 21
-53.310729
 31
0.0
  0
LINE
  8
0
 10
-94.166944
 20
-52.749545
 30
0.0
 11
-93.904279
 21
-53.557943
 31
0.0
  0
LINE
  8
0
 10
-92.03837
 20
-51.932462
 30
0.0
 11
-91.692644
 21
-52.708976
 31
0.0
  0
LINE
  8
0
 10
-92.769206
 20
-52.257851
 30
0.0
 11
-92.42348
 21
-53.034365
 31
0.0
  0
LINE
  8
0
 10
-90.737701
 20
-51.222748
 30
0.0
 11
-90.312701
 21
-51.95887
 31
0.0
  0
LINE
  8
0
 10
-91.430522
 20
-51.622748
 30
0.0
 11
-91.005522
 21
-52.35887
 31
0.0
  0
LINE
  8
0
 10
-89.518343
 20
-50.380965
 30
0.0
 11
-89.018726
 21
-51.068629
 31
0.0
  0
LINE
  8
0
 10
-90.165557
 20
-50.851193
 30
0.0
 11
-89.66594
 21
-51.538858
 31
0.0
  0
LINE
  8
0
 10
-88.393656
 20
-49.416336
 30
0.0
 11
-87.824895
 21
-50.048009
 31
0.0
  0
LINE
  8
0
 10
-88.988171
 20
-49.95164
 30
0.0
 11
-88.41941
 21
-50.583313
 31
0.0
  0
LINE
  8
0
 10
-87.37596
 20
-48.339429
 30
0.0
 11
-86.744287
 21
-48.90819
 31
0.0
  0
LINE
  8
0
 10
-87.911264
 20
-48.933945
 30
0.0
 11
-87.279591
 21
-49.502706
 31
0.0
  0
LINE
  8
0
 10
-86.476407
 20
-47.162043
 30
0.0
 11
-85.788743
 21
-47.66166
 31
0.0
  0
LINE
  8
0
 10
-86.946635
 20
-47.809257
 30
0.0
 11
-86.258971
 21
-48.308874
 31
0.0
  0
LINE
  8
0
 10
-85.704852
 20
-45.897078
 30
0.0
 11
-84.96873
 21
-46.322078
 31
0.0
  0
LINE
  8
0
 10
-86.104852
 20
-46.589899
 30
0.0
 11
-85.36873
 21
-47.014899
 31
0.0
  0
LINE
  8
0
 10
-85.069749
 20
-44.558394
 30
0.0
 11
-84.293235
 21
-44.90412
 31
0.0
  0
LINE
  8
0
 10
-85.395138
 20
-45.28923
 30
0.0
 11
-84.618624
 21
-45.634956
 31
0.0
  0
LINE
  8
0
 10
-84.578055
 20
-43.160656
 30
0.0
 11
-83.769657
 21
-43.423321
 31
0.0
  0
LINE
  8
0
 10
-84.825269
 20
-43.921502
 30
0.0
 11
-84.016871
 21
-44.184166
 31
0.0
  0
LINE
  8
0
 10
-84.235158
 20
-41.71918
 30
0.0
 11
-83.403733
 21
-41.895905
 31
0.0
  0
LINE
  8
0
 10
-84.401488
 20
-42.501698
 30
0.0
 11
-83.570062
 21
-42.678423
 31
0.0
  0
LINE
  8
0
 10
-84.044815
 20
-40.249758
 30
0.0
 11
-83.199472
 21
-40.338607
 31
0.0
  0
LINE
  8
0
 10
-84.128438
 20
-41.045375
 30
0.0
 11
-83.283094
 21
-41.134224
 31
0.0
  0
LINE
  8
0
 10
-84.009112
 20
-38.768489
 30
0.0
 11
-83.159112
 21
-38.768489
 31
0.0
  0
LINE
  8
0
 10
-84.009112
 20
-39.568489
 30
0.0
 11
-83.159112
 21
-39.568489
 31
0.0
  0
LINE
  8
0
 10
-84.134062
 20
-37.292193
 30
0.0
 11
-83.283094
 21
-37.202753
 31
0.0
  0
LINE
  8
0
 10
-84.044815
 20
-38.08722
 30
0.0
 11
-83.199472
 21
-37.99837
 31
0.0
  0
LINE
  8
0
 10
-84.407019
 20
-35.836455
 30
0.0
 11
-83.570062
 21
-35.658554
 31
0.0
  0
LINE
  8
0
 10
-84.24069
 20
-36.618973
 30
0.0
 11
-83.403733
 21
-36.441072
 31
0.0
  0
LINE
  8
0
 10
-84.830647
 20
-34.417223
 30
0.0
 11
-84.016871
 21
-34.152811
 31
0.0
  0
LINE
  8
0
 10
-84.583433
 20
-35.178068
 30
0.0
 11
-83.769657
 21
-34.913656
 31
0.0
  0
LINE
  8
0
 10
-85.400304
 20
-33.050047
 30
0.0
 11
-84.618624
 21
-32.702021
 31
0.0
  0
LINE
  8
0
 10
-85.074915
 20
-33.780883
 30
0.0
 11
-84.293235
 21
-33.432857
 31
0.0
  0
LINE
  8
0
 10
-86.109749
 20
-31.749906
 30
0.0
 11
-85.36873
 21
-31.322078
 31
0.0
  0
LINE
  8
0
 10
-85.709749
 20
-32.442726
 30
0.0
 11
-84.96873
 21
-32.014899
 31
0.0
  0
LINE
  8
0
 10
-86.95121
 20
-30.531044
 30
0.0
 11
-86.258971
 21
-30.028103
 31
0.0
  0
LINE
  8
0
 10
-86.480982
 20
-31.178258
 30
0.0
 11
-85.788743
 21
-30.675317
 31
0.0
  0
LINE
  8
0
 10
-87.915467
 20
-29.406816
 30
0.0
 11
-87.279591
 21
-28.834271
 31
0.0
  0
LINE
  8
0
 10
-87.380162
 20
-30.001332
 30
0.0
 11
-86.744287
 21
-29.428787
 31
0.0
  0
LINE
  8
0
 10
-88.991955
 20
-28.389539
 30
0.0
 11
-88.41941
 21
-27.753664
 31
0.0
  0
LINE
  8
0
 10
-88.397439
 20
-28.924844
 30
0.0
 11
-87.824895
 21
-28.288968
 31
0.0
  0
LINE
  8
0
 10
-90.168881
 20
-27.490359
 30
0.0
 11
-89.66594
 21
-26.798119
 31
0.0
  0
LINE
  8
0
 10
-89.521667
 20
-27.960587
 30
0.0
 11
-89.018726
 21
-27.268348
 31
0.0
  0
LINE
  8
0
 10
-91.433349
 20
-26.719126
 30
0.0
 11
-91.005522
 21
-25.978107
 31
0.0
  0
LINE
  8
0
 10
-90.740529
 20
-27.119126
 30
0.0
 11
-90.312701
 21
-26.378107
 31
0.0
  0
LINE
  8
0
 10
-92.771506
 20
-26.084292
 30
0.0
 11
-92.42348
 21
-25.302612
 31
0.0
  0
LINE
  8
0
 10
-92.04067
 20
-26.409681
 30
0.0
 11
-91.692644
 21
-25.628001
 31
0.0
  0
LINE
  8
0
 10
-94.168691
 20
-25.59281
 30
0.0
 11
-93.904279
 21
-24.779034
 31
0.0
  0
LINE
  8
0
 10
-93.407846
 20
-25.840024
 30
0.0
 11
-93.143434
 21
-25.026248
 31
0.0
  0
LINE
  8
0
 10
-95.609596
 20
-25.250067
 30
0.0
 11
-95.431695
 21
-24.41311
 31
0.0
  0
LINE
  8
0
 10
-94.827078
 20
-25.416396
 30
0.0
 11
-94.649177
 21
-24.579439
 31
0.0
  0
LINE
  8
0
 10
-97.078434
 20
-25.059816
 30
0.0
 11
-96.988993
 21
-24.208849
 31
0.0
  0
LINE
  8
0
 10
-96.282816
 20
-25.143439
 30
0.0
 11
-96.193376
 21
-24.292471
 31
0.0
  0
LINE
  8
0
 10
-112.339162
 20
19.086397
 30
0.0
 11
-113.110388
 21
10.466817
 31
0.0
  0
LINE
  8
0
 10
-98.159112
 20
10.422258
 30
0.0
 11
-83.205846
 21
10.422258
 31
0.0
  0
ARC
  8
0
 10
-112.612377
 20
10.422258
 30
0.0
 40
0.5
 50
174.88715
 51
270.0
  0
LINE
  8
0
 10
-83.979061
 20
19.086397
 30
0.0
 11
-83.207835
 21
10.466817
 31
0.0
  0
ARC
  8
0
 10
-83.705846
 20
10.422258
 30
0.0
 40
0.5
 50
270.0
 51
5.11285
  0
LINE
  8
0
 10
-97.759112
 20
10.422258
 30
0.0
 11
-97.759112
 21
19.422258
 31
0.0
  0
LINE
  8
0
 10
-96.193933
 20
10.422258
 30
0.0
 11
-96.282816
 21
19.422258
 31
0.0
  0
LINE
  8
0
 10
-96.989551
 20
10.422258
 30
0.0
 11
-97.078434
 21
19.422258
 31
0.0
  0
LINE
  8
0
 10
-95.432804
 20
10.422258
 30
0.0
 11
-95.609596
 21
19.422258
 31
0.0
  0
LINE
  8
0
 10
-94.650286
 20
10.422258
 30
0.0
 11
-94.827078
 21
19.422258
 31
0.0
  0
LINE
  8
0
 10
-93.905928
 20
10.422258
 30
0.0
 11
-94.168691
 21
19.422258
 31
0.0
  0
LINE
  8
0
 10
-93.407846
 20
19.422258
 30
0.0
 11
-93.145082
 21
10.422258
 31
0.0
  0
LINE
  8
0
 10
-92.42565
 20
10.422258
 30
0.0
 11
-92.771506
 21
19.422258
 31
0.0
  0
LINE
  8
0
 10
-92.04067
 20
19.422258
 30
0.0
 11
-91.694813
 21
10.422258
 31
0.0
  0
LINE
  8
0
 10
-91.008189
 20
10.422258
 30
0.0
 11
-91.433349
 21
19.422258
 31
0.0
  0
LINE
  8
0
 10
-90.740529
 20
19.422258
 30
0.0
 11
-90.315369
 21
10.422258
 31
0.0
  0
LINE
  8
0
 10
-89.669075
 20
10.422258
 30
0.0
 11
-90.168881
 21
19.422258
 31
0.0
  0
LINE
  8
0
 10
-89.521667
 20
19.422258
 30
0.0
 11
-89.021861
 21
10.422258
 31
0.0
  0
LINE
  8
0
 10
-88.42298
 20
10.422258
 30
0.0
 11
-88.991955
 21
19.422258
 31
0.0
  0
LINE
  8
0
 10
-88.397439
 20
19.422258
 30
0.0
 11
-87.828464
 21
10.422258
 31
0.0
  0
LINE
  8
0
 10
-87.283556
 20
10.422258
 30
0.0
 11
-87.915467
 21
19.422258
 31
0.0
  0
LINE
  8
0
 10
-87.380162
 20
19.422258
 30
0.0
 11
-86.748251
 21
10.422258
 31
0.0
  0
LINE
  8
0
 10
-86.263286
 20
10.422258
 30
0.0
 11
-86.95121
 21
19.422258
 31
0.0
  0
LINE
  8
0
 10
-86.480982
 20
19.422258
 30
0.0
 11
-85.793058
 21
10.422258
 31
0.0
  0
LINE
  8
0
 10
-85.37335
 20
10.422258
 30
0.0
 11
-86.109749
 21
19.422258
 31
0.0
  0
LINE
  8
0
 10
-85.709749
 20
19.422258
 30
0.0
 11
-84.97335
 21
10.422258
 31
0.0
  0
LINE
  8
0
 10
-84.623497
 20
10.422258
 30
0.0
 11
-85.400304
 21
19.422258
 31
0.0
  0
LINE
  8
0
 10
-85.074915
 20
19.422258
 30
0.0
 11
-84.298108
 21
10.422258
 31
0.0
  0
LINE
  8
0
 10
-84.021944
 20
10.422258
 30
0.0
 11
-84.830647
 21
19.422258
 31
0.0
  0
LINE
  8
0
 10
-84.583433
 20
19.422258
 30
0.0
 11
-83.77473
 21
10.422258
 31
0.0
  0
LINE
  8
0
 10
-83.57528
 20
10.422258
 30
0.0
 11
-84.407019
 21
19.422258
 31
0.0
  0
LINE
  8
0
 10
-83.408951
 20
10.422258
 30
0.0
 11
-84.24069
 21
19.422258
 31
0.0
  0
LINE
  8
0
 10
-84.134062
 20
19.408941
 30
0.0
 11
-84.13372
 21
19.405308
 31
0.0
  0
ARC
  8
0
 10
-98.159112
 20
-24.982856
 30
0.0
 40
44.105114
 50
99.637356
 51
105.079047
  0
LINE
  8
0
 10
-110.001054
 20
17.165398
 30
0.0
 11
-110.608375
 21
10.377699
 31
0.0
  0
LINE
  8
0
 10
-104.959112
 20
18.006863
 30
0.0
 11
-104.959112
 21
0.922258
 31
0.0
  0
LINE
  8
0
 10
-104.959112
 20
0.922258
 30
0.0
 11
-91.359112
 21
0.922258
 31
0.0
  0
ARC
  8
0
 10
-109.503044
 20
17.120839
 30
0.0
 40
0.5
 50
105.079047
 51
174.88715
  0
ARC
  8
0
 10
-105.459112
 20
18.006863
 30
0.0
 40
0.5
 50
0.0
 51
99.637356
  0
LINE
  8
0
 10
-112.612378
 20
9.922258
 30
0.0
 11
-104.959112
 21
9.922258
 31
0.0
  0
ARC
  8
0
 10
-111.106385
 20
10.422258
 30
0.0
 40
0.5
 50
270.0
 51
354.88715
  0
LINE
  8
0
 10
-98.159112
 20
9.922258
 30
0.0
 11
-83.705846
 21
9.922258
 31
0.0
  0
LINE
  8
0
 10
-102.159112
 20
0.922258
 30
0.0
 11
-102.159112
 21
20.922258
 31
0.0
  0
ARC
  8
0
 10
-98.159112
 20
-12.012911
 30
0.0
 40
34.435169
 50
66.222765
 51
113.777235
  0
ARC
  8
0
 10
-84.477071
 20
19.041838
 30
0.0
 40
0.5
 50
5.11285
 51
66.222765
  0
ARC
  8
0
 10
-111.841152
 20
19.041838
 30
0.0
 40
0.5
 50
113.777235
 51
174.88715
  0
LINE
  8
0
 10
-102.159112
 20
20.922258
 30
0.0
 11
-98.159112
 21
20.922258
 31
0.0
  0
LINE
  8
0
 10
-91.359112
 20
9.922258
 30
0.0
 11
-91.359112
 21
0.922258
 31
0.0
  0
INSERT
  8
0
  2
*X2
 10
-202.612
 20
-14.622127
 30
0.0
  0
LINE
  8
0
 10
-55.17777
 20
9.922258
 30
0.0
 11
-55.17777
 21
0.922258
 31
0.0
  0
ARC
  8
0
 10
-75.659811
 20
19.041838
 30
0.0
 40
0.5
 50
113.777235
 51
174.88715
  0
ARC
  8
0
 10
-48.29573
 20
19.041838
 30
0.0
 40
0.5
 50
5.11285
 51
66.222765
  0
ARC
  8
0
 10
-61.97777
 20
-12.012911
 30
0.0
 40
34.435169
 50
66.222765
 51
113.777235
  0
LINE
  8
0
 10
-64.97777
 20
-14.577742
 30
0.0
 11
-64.97777
 21
14.922258
 31
0.0
  0
LINE
  8
0
 10
-61.97777
 20
9.922258
 30
0.0
 11
-47.524505
 21
9.922258
 31
0.0
  0
ARC
  8
0
 10
-74.925044
 20
10.422258
 30
0.0
 40
0.5
 50
270.0
 51
354.88715
  0
LINE
  8
0
 10
-76.431037
 20
9.922258
 30
0.0
 11
-68.77777
 21
9.922258
 31
0.0
  0
ARC
  8
0
 10
-69.27777
 20
18.006863
 30
0.0
 40
0.5
 50
0.0
 51
99.637356
  0
ARC
  8
0
 10
-73.321702
 20
17.120839
 30
0.0
 40
0.5
 50
105.079047
 51
174.88715
  0
LINE
  8
0
 10
-68.77777
 20
0.922258
 30
0.0
 11
-64.97777
 21
0.922258
 31
0.0
  0
LINE
  8
0
 10
-68.77777
 20
18.006863
 30
0.0
 11
-68.77777
 21
0.922258
 31
0.0
  0
LINE
  8
0
 10
-73.819713
 20
17.165398
 30
0.0
 11
-74.427033
 21
10.377699
 31
0.0
  0
ARC
  8
0
 10
-61.97777
 20
-24.982856
 30
0.0
 40
44.105114
 50
99.637356
 51
105.079047
  0
LINE
  8
0
 10
-47.952721
 20
19.408941
 30
0.0
 11
-47.952379
 21
19.405308
 31
0.0
  0
LINE
  8
0
 10
-47.227609
 20
10.422258
 30
0.0
 11
-48.059348
 21
19.422258
 31
0.0
  0
LINE
  8
0
 10
-47.393939
 20
10.422258
 30
0.0
 11
-48.225678
 21
19.422258
 31
0.0
  0
LINE
  8
0
 10
-48.402092
 20
19.422258
 30
0.0
 11
-47.593389
 21
10.422258
 31
0.0
  0
LINE
  8
0
 10
-47.840603
 20
10.422258
 30
0.0
 11
-48.649306
 21
19.422258
 31
0.0
  0
LINE
  8
0
 10
-48.893574
 20
19.422258
 30
0.0
 11
-48.116767
 21
10.422258
 31
0.0
  0
LINE
  8
0
 10
-48.442156
 20
10.422258
 30
0.0
 11
-49.218963
 21
19.422258
 31
0.0
  0
LINE
  8
0
 10
-49.528408
 20
19.422258
 30
0.0
 11
-48.792009
 21
10.422258
 31
0.0
  0
LINE
  8
0
 10
-49.192009
 20
10.422258
 30
0.0
 11
-49.928408
 21
19.422258
 31
0.0
  0
LINE
  8
0
 10
-50.299641
 20
19.422258
 30
0.0
 11
-49.611717
 21
10.422258
 31
0.0
  0
LINE
  8
0
 10
-50.081945
 20
10.422258
 30
0.0
 11
-50.769869
 21
19.422258
 31
0.0
  0
LINE
  8
0
 10
-51.198821
 20
19.422258
 30
0.0
 11
-50.56691
 21
10.422258
 31
0.0
  0
LINE
  8
0
 10
-51.102214
 20
10.422258
 30
0.0
 11
-51.734126
 21
19.422258
 31
0.0
  0
LINE
  8
0
 10
-52.216098
 20
19.422258
 30
0.0
 11
-51.647123
 21
10.422258
 31
0.0
  0
LINE
  8
0
 10
-52.241639
 20
10.422258
 30
0.0
 11
-52.810614
 21
19.422258
 31
0.0
  0
LINE
  8
0
 10
-53.340326
 20
19.422258
 30
0.0
 11
-52.84052
 21
10.422258
 31
0.0
  0
LINE
  8
0
 10
-53.487734
 20
10.422258
 30
0.0
 11
-53.98754
 21
19.422258
 31
0.0
  0
LINE
  8
0
 10
-54.559188
 20
19.422258
 30
0.0
 11
-54.134027
 21
10.422258
 31
0.0
  0
LINE
  8
0
 10
-54.826848
 20
10.422258
 30
0.0
 11
-55.252008
 21
19.422258
 31
0.0
  0
LINE
  8
0
 10
-55.859329
 20
19.422258
 30
0.0
 11
-55.513472
 21
10.422258
 31
0.0
  0
LINE
  8
0
 10
-56.244309
 20
10.422258
 30
0.0
 11
-56.590165
 21
19.422258
 31
0.0
  0
LINE
  8
0
 10
-57.226505
 20
19.422258
 30
0.0
 11
-56.963741
 21
10.422258
 31
0.0
  0
LINE
  8
0
 10
-57.724587
 20
10.422258
 30
0.0
 11
-57.98735
 21
19.422258
 31
0.0
  0
LINE
  8
0
 10
-58.468945
 20
10.422258
 30
0.0
 11
-58.645737
 21
19.422258
 31
0.0
  0
LINE
  8
0
 10
-59.251463
 20
10.422258
 30
0.0
 11
-59.428255
 21
19.422258
 31
0.0
  0
LINE
  8
0
 10
-60.80821
 20
10.422258
 30
0.0
 11
-60.897093
 21
19.422258
 31
0.0
  0
LINE
  8
0
 10
-60.012592
 20
10.422258
 30
0.0
 11
-60.101475
 21
19.422258
 31
0.0
  0
LINE
  8
0
 10
-61.57777
 20
10.422258
 30
0.0
 11
-61.57777
 21
19.422258
 31
0.0
  0
ARC
  8
0
 10
-47.524505
 20
10.422258
 30
0.0
 40
0.5
 50
270.0
 51
5.11285
  0
LINE
  8
0
 10
-47.79772
 20
19.086397
 30
0.0
 11
-47.026494
 21
10.466817
 31
0.0
  0
ARC
  8
0
 10
-76.431036
 20
10.422258
 30
0.0
 40
0.5
 50
174.88715
 51
270.0
  0
LINE
  8
0
 10
-61.97777
 20
10.422258
 30
0.0
 11
-47.024505
 21
10.422258
 31
0.0
  0
LINE
  8
0
 10
-76.157821
 20
19.086397
 30
0.0
 11
-76.929047
 21
10.466817
 31
0.0
  0
LINE
  8
0
 10
-61.97777
 20
19.422258
 30
0.0
 11
-47.967391
 21
19.422258
 31
0.0
  0
LINE
  8
0
  6
CENTER
 10
-61.97777
 20
23.254258
 30
0.0
 11
-61.97777
 21
-16.335926
 31
0.0
  0
LINE
  8
0
 10
-66.97777
 20
14.922258
 30
0.0
 11
-64.47777
 21
14.922258
 31
0.0
  0
LINE
  8
0
 10
-66.97777
 20
18.922258
 30
0.0
 11
-61.97777
 21
18.922258
 31
0.0
  0
LINE
  8
0
 10
-66.97777
 20
18.922258
 30
0.0
 11
-66.97777
 21
14.922258
 31
0.0
  0
LINE
  8
0
 10
-65.97777
 20
0.922258
 30
0.0
 11
-65.97777
 21
3.922258
 31
0.0
  0
LINE
  8
0
 10
-65.97777
 20
3.922258
 30
0.0
 11
-64.97777
 21
3.922258
 31
0.0
  0
INSERT
  8
0
  2
*X3
 10
-229.527647
 20
8.88
 30
0.0
  0
LINE
  8
0
  6
CENTER
 10
52.570313
 20
-9.654204
 30
0.0
 11
52.570313
 21
43.157282
 31
0.0
  0
LINE
  8
0
 10
-101.159112
 20
16.922258
 30
0.0
 11
-98.159112
 21
16.922258
 31
0.0
  0
LINE
  8
0
 10
-7.97708
 20
32.656382
 30
0.0
 11
-4.57708
 21
34.619373
 31
0.0
  0
LINE
  8
0
 10
-7.97708
 20
32.656382
 30
0.0
 11
-7.97708
 21
8.218365
 31
0.0
  0
LINE
  8
0
 10
-101.159112
 20
0.922258
 30
0.0
 11
-101.159112
 21
16.922258
 31
0.0
  0
LINE
  8
0
 10
-100.659112
 20
1.422258
 30
0.0
 11
-100.659112
 21
18.462361
 31
0.0
  0
LINE
  8
0
 10
-100.659112
 20
18.462361
 30
0.0
 11
-98.159112
 21
19.905736
 31
0.0
  0
LINE
  8
0
 10
55.055338
 20
-21.522517
 30
0.0
 11
54.907693
 21
-23.210102
 31
0.0
  0
LINE
  8
0
 10
54.258382
 20
-21.452793
 30
0.0
 11
54.110737
 21
-23.140377
 31
0.0
  0
LINE
  8
0
 10
57.121449
 20
-21.829723
 30
0.0
 11
56.827284
 21
-23.498018
 31
0.0
  0
LINE
  8
0
 10
56.333603
 20
-21.690804
 30
0.0
 11
56.039438
 21
-23.359099
 31
0.0
  0
LINE
  8
0
 10
59.152924
 20
-22.315833
 30
0.0
 11
58.714477
 21
-23.952141
 31
0.0
  0
LINE
  8
0
 10
58.380184
 20
-22.108777
 30
0.0
 11
57.941736
 21
-23.745086
 31
0.0
  0
LINE
  8
0
 10
61.134301
 20
-22.977147
 30
0.0
 11
60.554909
 21
-24.569016
 31
0.0
  0
LINE
  8
0
 10
60.382547
 20
-22.703531
 30
0.0
 11
59.803155
 21
-24.2954
 31
0.0
  0
LINE
  8
0
 10
63.050502
 20
-23.808634
 30
0.0
 11
62.334573
 21
-25.343948
 31
0.0
  0
LINE
  8
0
 10
62.325455
 20
-23.470539
 30
0.0
 11
61.609527
 21
-25.005853
 31
0.0
  0
LINE
  8
0
 10
64.886941
 20
-24.803965
 30
0.0
 11
64.039926
 21
-26.271038
 31
0.0
  0
LINE
  8
0
 10
64.194121
 20
-24.403965
 30
0.0
 11
63.347105
 21
-25.871038
 31
0.0
  0
LINE
  8
0
 10
66.629644
 20
-25.955564
 30
0.0
 11
65.657987
 21
-27.343233
 31
0.0
  0
LINE
  8
0
 10
65.974322
 20
-25.496703
 30
0.0
 11
65.002666
 21
-26.884372
 31
0.0
  0
LINE
  8
0
 10
68.265346
 20
-27.254667
 30
0.0
 11
67.176444
 21
-28.55237
 31
0.0
  0
LINE
  8
0
 10
67.652511
 20
-26.740437
 30
0.0
 11
66.563609
 21
-28.03814
 31
0.0
  0
LINE
  8
0
 10
69.7816
 20
-28.691388
 30
0.0
 11
68.583739
 21
-29.889249
 31
0.0
  0
LINE
  8
0
 10
69.215915
 20
-28.125703
 30
0.0
 11
68.018054
 21
-29.323564
 31
0.0
  0
LINE
  8
0
 10
71.166866
 20
-30.254792
 30
0.0
 11
69.869163
 21
-31.343694
 31
0.0
  0
LINE
  8
0
 10
70.652636
 20
-29.641957
 30
0.0
 11
69.354933
 21
-30.730859
 31
0.0
  0
LINE
  8
0
 10
72.4106
 20
-31.932981
 30
0.0
 11
71.022931
 21
-32.904637
 31
0.0
  0
LINE
  8
0
 10
71.951739
 20
-31.277659
 30
0.0
 11
70.56407
 21
-32.249316
 31
0.0
  0
LINE
  8
0
 10
73.503338
 20
-33.713182
 30
0.0
 11
72.036265
 21
-34.560198
 31
0.0
  0
LINE
  8
0
 10
73.103338
 20
-33.020362
 30
0.0
 11
71.636265
 21
-33.867377
 31
0.0
  0
LINE
  8
0
 10
74.436764
 20
-35.581848
 30
0.0
 11
72.90145
 21
-36.297776
 31
0.0
  0
LINE
  8
0
 10
74.098669
 20
-34.856801
 30
0.0
 11
72.563355
 21
-35.57273
 31
0.0
  0
LINE
  8
0
 10
75.203772
 20
-37.524756
 30
0.0
 11
73.611903
 21
-38.104148
 31
0.0
  0
LINE
  8
0
 10
74.930156
 20
-36.773002
 30
0.0
 11
73.338287
 21
-37.352394
 31
0.0
  0
LINE
  8
0
 10
75.798526
 20
-39.527119
 30
0.0
 11
74.162217
 21
-39.965567
 31
0.0
  0
LINE
  8
0
 10
75.59147
 20
-38.754379
 30
0.0
 11
73.955162
 21
-39.192826
 31
0.0
  0
LINE
  8
0
 10
76.216499
 20
-41.5737
 30
0.0
 11
74.548204
 21
-41.867865
 31
0.0
  0
LINE
  8
0
 10
76.07758
 20
-40.785854
 30
0.0
 11
74.409285
 21
-41.080019
 31
0.0
  0
LINE
  8
0
 10
76.45451
 20
-43.648921
 30
0.0
 11
74.766926
 21
-43.796566
 31
0.0
  0
LINE
  8
0
 10
76.384786
 20
-42.851965
 30
0.0
 11
74.697201
 21
-42.99961
 31
0.0
  0
LINE
  8
0
 10
76.510749
 20
-45.73699
 30
0.0
 11
74.816718
 21
-45.73699
 31
0.0
  0
LINE
  8
0
 10
76.510749
 20
-44.93699
 30
0.0
 11
74.816718
 21
-44.93699
 31
0.0
  0
LINE
  8
0
 10
76.384786
 20
-47.822014
 30
0.0
 11
74.697201
 21
-47.674369
 31
0.0
  0
LINE
  8
0
 10
76.45451
 20
-47.025058
 30
0.0
 11
74.766926
 21
-46.877414
 31
0.0
  0
LINE
  8
0
 10
76.07758
 20
-49.888126
 30
0.0
 11
74.409285
 21
-49.59396
 31
0.0
  0
LINE
  8
0
 10
76.216499
 20
-49.10028
 30
0.0
 11
74.548204
 21
-48.806114
 31
0.0
  0
LINE
  8
0
 10
75.59147
 20
-51.919601
 30
0.0
 11
73.955162
 21
-51.481153
 31
0.0
  0
LINE
  8
0
 10
75.798526
 20
-51.14686
 30
0.0
 11
74.162217
 21
-50.708412
 31
0.0
  0
LINE
  8
0
 10
74.930156
 20
-53.900978
 30
0.0
 11
73.338287
 21
-53.321585
 31
0.0
  0
LINE
  8
0
 10
75.203772
 20
-53.149224
 30
0.0
 11
73.611903
 21
-52.569831
 31
0.0
  0
LINE
  8
0
 10
74.098669
 20
-55.817178
 30
0.0
 11
72.563355
 21
-55.101249
 31
0.0
  0
LINE
  8
0
 10
74.436764
 20
-55.092132
 30
0.0
 11
72.90145
 21
-54.376203
 31
0.0
  0
LINE
  8
0
 10
73.103338
 20
-57.653617
 30
0.0
 11
71.636265
 21
-56.806602
 31
0.0
  0
LINE
  8
0
 10
73.503338
 20
-56.960797
 30
0.0
 11
72.036265
 21
-56.113782
 31
0.0
  0
LINE
  8
0
 10
71.951739
 20
-59.39632
 30
0.0
 11
70.56407
 21
-58.424664
 31
0.0
  0
LINE
  8
0
 10
72.4106
 20
-58.740998
 30
0.0
 11
71.022931
 21
-57.769342
 31
0.0
  0
LINE
  8
0
 10
70.652636
 20
-61.032023
 30
0.0
 11
69.354933
 21
-59.94312
 31
0.0
  0
LINE
  8
0
 10
71.166866
 20
-60.419187
 30
0.0
 11
69.869163
 21
-59.330285
 31
0.0
  0
LINE
  8
0
 10
69.215915
 20
-62.548276
 30
0.0
 11
68.018054
 21
-61.350416
 31
0.0
  0
LINE
  8
0
 10
69.7816
 20
-61.982591
 30
0.0
 11
68.583739
 21
-60.78473
 31
0.0
  0
LINE
  8
0
 10
67.652511
 20
-63.933542
 30
0.0
 11
66.563609
 21
-62.635839
 31
0.0
  0
LINE
  8
0
 10
68.265346
 20
-63.419312
 30
0.0
 11
67.176444
 21
-62.121609
 31
0.0
  0
LINE
  8
0
 10
65.974322
 20
-65.177277
 30
0.0
 11
65.002666
 21
-63.789608
 31
0.0
  0
LINE
  8
0
 10
66.629644
 20
-64.718416
 30
0.0
 11
65.657987
 21
-63.330747
 31
0.0
  0
LINE
  8
0
 10
64.194121
 20
-66.270015
 30
0.0
 11
63.347105
 21
-64.802941
 31
0.0
  0
LINE
  8
0
 10
64.886941
 20
-65.870015
 30
0.0
 11
64.039926
 21
-64.402941
 31
0.0
  0
LINE
  8
0
 10
62.325455
 20
-67.20344
 30
0.0
 11
61.609527
 21
-65.668126
 31
0.0
  0
LINE
  8
0
 10
63.050502
 20
-66.865345
 30
0.0
 11
62.334573
 21
-65.330032
 31
0.0
  0
LINE
  8
0
 10
60.382547
 20
-67.970448
 30
0.0
 11
59.803155
 21
-66.37858
 31
0.0
  0
LINE
  8
0
 10
61.134301
 20
-67.696832
 30
0.0
 11
60.554909
 21
-66.104963
 31
0.0
  0
LINE
  8
0
 10
58.380184
 20
-68.565202
 30
0.0
 11
57.941736
 21
-66.928894
 31
0.0
  0
LINE
  8
0
 10
59.152924
 20
-68.358147
 30
0.0
 11
58.714477
 21
-66.721838
 31
0.0
  0
LINE
  8
0
 10
56.333603
 20
-68.983175
 30
0.0
 11
56.039438
 21
-67.31488
 31
0.0
  0
LINE
  8
0
 10
57.121449
 20
-68.844257
 30
0.0
 11
56.827284
 21
-67.175962
 31
0.0
  0
LINE
  8
0
 10
54.258382
 20
-69.221187
 30
0.0
 11
54.110737
 21
-67.533602
 31
0.0
  0
LINE
  8
0
 10
55.055338
 20
-69.151462
 30
0.0
 11
54.907693
 21
-67.463877
 31
0.0
  0
LINE
  8
0
 10
52.170313
 20
-69.277425
 30
0.0
 11
52.170313
 21
-67.583394
 31
0.0
  0
LINE
  8
0
 10
52.970313
 20
-69.277425
 30
0.0
 11
52.970313
 21
-67.583394
 31
0.0
  0
LINE
  8
0
 10
50.085289
 20
-69.151462
 30
0.0
 11
50.232934
 21
-67.463877
 31
0.0
  0
LINE
  8
0
 10
50.882245
 20
-69.221187
 30
0.0
 11
51.029889
 21
-67.533602
 31
0.0
  0
LINE
  8
0
 10
48.019177
 20
-68.844257
 30
0.0
 11
48.313343
 21
-67.175962
 31
0.0
  0
LINE
  8
0
 10
48.807023
 20
-68.983175
 30
0.0
 11
49.101189
 21
-67.31488
 31
0.0
  0
LINE
  8
0
 10
45.987702
 20
-68.358147
 30
0.0
 11
46.42615
 21
-66.721838
 31
0.0
  0
LINE
  8
0
 10
46.760443
 20
-68.565202
 30
0.0
 11
47.198891
 21
-66.928894
 31
0.0
  0
LINE
  8
0
 10
44.006325
 20
-67.696832
 30
0.0
 11
44.585718
 21
-66.104963
 31
0.0
  0
LINE
  8
0
 10
44.758079
 20
-67.970448
 30
0.0
 11
45.337472
 21
-66.37858
 31
0.0
  0
LINE
  8
0
 10
42.090125
 20
-66.865345
 30
0.0
 11
42.806054
 21
-65.330032
 31
0.0
  0
LINE
  8
0
 10
42.815171
 20
-67.20344
 30
0.0
 11
43.5311
 21
-65.668126
 31
0.0
  0
LINE
  8
0
 10
40.253686
 20
-65.870015
 30
0.0
 11
41.100701
 21
-64.402941
 31
0.0
  0
LINE
  8
0
 10
40.946506
 20
-66.270015
 30
0.0
 11
41.793521
 21
-64.802941
 31
0.0
  0
LINE
  8
0
 10
38.510983
 20
-64.718416
 30
0.0
 11
39.482639
 21
-63.330747
 31
0.0
  0
LINE
  8
0
 10
39.166305
 20
-65.177277
 30
0.0
 11
40.137961
 21
-63.789608
 31
0.0
  0
LINE
  8
0
 10
36.87528
 20
-63.419312
 30
0.0
 11
37.964183
 21
-62.121609
 31
0.0
  0
LINE
  8
0
 10
37.488116
 20
-63.933542
 30
0.0
 11
38.577018
 21
-62.635839
 31
0.0
  0
LINE
  8
0
 10
35.359027
 20
-61.982591
 30
0.0
 11
36.556887
 21
-60.78473
 31
0.0
  0
LINE
  8
0
 10
35.924712
 20
-62.548276
 30
0.0
 11
37.122573
 21
-61.350416
 31
0.0
  0
LINE
  8
0
 10
33.973761
 20
-60.419187
 30
0.0
 11
35.271464
 21
-59.330285
 31
0.0
  0
LINE
  8
0
 10
34.487991
 20
-61.032023
 30
0.0
 11
35.785694
 21
-59.94312
 31
0.0
  0
LINE
  8
0
 10
32.730026
 20
-58.740998
 30
0.0
 11
34.117695
 21
-57.769342
 31
0.0
  0
LINE
  8
0
 10
33.188887
 20
-59.39632
 30
0.0
 11
34.576556
 21
-58.424664
 31
0.0
  0
LINE
  8
0
 10
31.637288
 20
-56.960797
 30
0.0
 11
33.104362
 21
-56.113782
 31
0.0
  0
LINE
  8
0
 10
32.037288
 20
-57.653617
 30
0.0
 11
33.504362
 21
-56.806602
 31
0.0
  0
LINE
  8
0
 10
30.703863
 20
-55.092132
 30
0.0
 11
32.239177
 21
-54.376203
 31
0.0
  0
LINE
  8
0
 10
31.041958
 20
-55.817178
 30
0.0
 11
32.577271
 21
-55.101249
 31
0.0
  0
LINE
  8
0
 10
29.936855
 20
-53.149224
 30
0.0
 11
31.528723
 21
-52.569831
 31
0.0
  0
LINE
  8
0
 10
30.210471
 20
-53.900978
 30
0.0
 11
31.80234
 21
-53.321585
 31
0.0
  0
LINE
  8
0
 10
29.342101
 20
-51.14686
 30
0.0
 11
30.978409
 21
-50.708412
 31
0.0
  0
LINE
  8
0
 10
29.549156
 20
-51.919601
 30
0.0
 11
31.185465
 21
-51.481153
 31
0.0
  0
LINE
  8
0
 10
28.924128
 20
-49.10028
 30
0.0
 11
30.592423
 21
-48.806114
 31
0.0
  0
LINE
  8
0
 10
29.063046
 20
-49.888126
 30
0.0
 11
30.731341
 21
-49.59396
 31
0.0
  0
LINE
  8
0
 10
28.686116
 20
-47.025058
 30
0.0
 11
30.373701
 21
-46.877414
 31
0.0
  0
LINE
  8
0
 10
28.755841
 20
-47.822014
 30
0.0
 11
30.443426
 21
-47.674369
 31
0.0
  0
LINE
  8
0
 10
28.629878
 20
-44.93699
 30
0.0
 11
30.323909
 21
-44.93699
 31
0.0
  0
LINE
  8
0
 10
28.629878
 20
-45.73699
 30
0.0
 11
30.323909
 21
-45.73699
 31
0.0
  0
LINE
  8
0
 10
28.755841
 20
-42.851965
 30
0.0
 11
30.443426
 21
-42.99961
 31
0.0
  0
LINE
  8
0
 10
28.686116
 20
-43.648921
 30
0.0
 11
30.373701
 21
-43.796566
 31
0.0
  0
LINE
  8
0
 10
29.063046
 20
-40.785854
 30
0.0
 11
30.731341
 21
-41.080019
 31
0.0
  0
LINE
  8
0
 10
28.924128
 20
-41.5737
 30
0.0
 11
30.592423
 21
-41.867865
 31
0.0
  0
LINE
  8
0
 10
29.549156
 20
-38.754379
 30
0.0
 11
31.185465
 21
-39.192826
 31
0.0
  0
LINE
  8
0
 10
29.342101
 20
-39.527119
 30
0.0
 11
30.978409
 21
-39.965567
 31
0.0
  0
LINE
  8
0
 10
30.210471
 20
-36.773002
 30
0.0
 11
31.80234
 21
-37.352394
 31
0.0
  0
LINE
  8
0
 10
29.936855
 20
-37.524756
 30
0.0
 11
31.528723
 21
-38.104148
 31
0.0
  0
LINE
  8
0
 10
31.041958
 20
-34.856801
 30
0.0
 11
32.577271
 21
-35.57273
 31
0.0
  0
LINE
  8
0
 10
30.703863
 20
-35.581848
 30
0.0
 11
32.239177
 21
-36.297776
 31
0.0
  0
LINE
  8
0
 10
32.037288
 20
-33.020362
 30
0.0
 11
33.504362
 21
-33.867377
 31
0.0
  0
LINE
  8
0
 10
31.637288
 20
-33.713182
 30
0.0
 11
33.104362
 21
-34.560198
 31
0.0
  0
LINE
  8
0
 10
33.188887
 20
-31.277659
 30
0.0
 11
34.576556
 21
-32.249316
 31
0.0
  0
LINE
  8
0
 10
32.730026
 20
-31.932981
 30
0.0
 11
34.117695
 21
-32.904637
 31
0.0
  0
LINE
  8
0
 10
34.487991
 20
-29.641957
 30
0.0
 11
35.785694
 21
-30.730859
 31
0.0
  0
LINE
  8
0
 10
33.973761
 20
-30.254792
 30
0.0
 11
35.271464
 21
-31.343694
 31
0.0
  0
LINE
  8
0
 10
35.924712
 20
-28.125703
 30
0.0
 11
37.122573
 21
-29.323564
 31
0.0
  0
LINE
  8
0
 10
35.359027
 20
-28.691388
 30
0.0
 11
36.556887
 21
-29.889249
 31
0.0
  0
LINE
  8
0
 10
37.488116
 20
-26.740437
 30
0.0
 11
38.577018
 21
-28.03814
 31
0.0
  0
LINE
  8
0
 10
36.87528
 20
-27.254667
 30
0.0
 11
37.964183
 21
-28.55237
 31
0.0
  0
LINE
  8
0
 10
39.166305
 20
-25.496703
 30
0.0
 11
40.137961
 21
-26.884372
 31
0.0
  0
LINE
  8
0
 10
38.510983
 20
-25.955564
 30
0.0
 11
39.482639
 21
-27.343233
 31
0.0
  0
LINE
  8
0
 10
40.946506
 20
-24.403965
 30
0.0
 11
41.793521
 21
-25.871038
 31
0.0
  0
LINE
  8
0
 10
40.253686
 20
-24.803965
 30
0.0
 11
41.100701
 21
-26.271038
 31
0.0
  0
LINE
  8
0
 10
42.815171
 20
-23.470539
 30
0.0
 11
43.5311
 21
-25.005853
 31
0.0
  0
LINE
  8
0
 10
42.090125
 20
-23.808634
 30
0.0
 11
42.806054
 21
-25.343948
 31
0.0
  0
LINE
  8
0
 10
44.758079
 20
-22.703531
 30
0.0
 11
45.337472
 21
-24.2954
 31
0.0
  0
LINE
  8
0
 10
44.006325
 20
-22.977147
 30
0.0
 11
44.585718
 21
-24.569016
 31
0.0
  0
LINE
  8
0
 10
46.760443
 20
-22.108777
 30
0.0
 11
47.198891
 21
-23.745086
 31
0.0
  0
LINE
  8
0
 10
45.987702
 20
-22.315833
 30
0.0
 11
46.42615
 21
-23.952141
 31
0.0
  0
LINE
  8
0
 10
48.807023
 20
-21.690804
 30
0.0
 11
49.101189
 21
-23.359099
 31
0.0
  0
LINE
  8
0
 10
48.019177
 20
-21.829723
 30
0.0
 11
48.313343
 21
-23.498018
 31
0.0
  0
LINE
  8
0
 10
50.882245
 20
-21.452793
 30
0.0
 11
51.029889
 21
-23.140377
 31
0.0
  0
LINE
  8
0
 10
50.085289
 20
-21.522517
 30
0.0
 11
50.232934
 21
-23.210102
 31
0.0
  0
CIRCLE
  8
0
 10
52.570313
 20
-45.33699
 30
0.0
 40
23.943777
  0
LINE
  8
0
 10
52.970313
 20
-21.396554
 30
0.0
 11
52.970313
 21
-23.090585
 31
0.0
  0
LINE
  8
0
 10
52.170313
 20
-21.396554
 30
0.0
 11
52.170313
 21
-23.090585
 31
0.0
  0
CIRCLE
  8
0
 10
52.570313
 20
-45.33699
 30
0.0
 40
22.25
  0
LINE
  8
0
 10
-60.101475
 20
-25.143439
 30
0.0
 11
-60.012035
 21
-24.292471
 31
0.0
  0
LINE
  8
0
 10
-60.897093
 20
-25.059816
 30
0.0
 11
-60.807652
 21
-24.208849
 31
0.0
  0
LINE
  8
0
 10
-58.645737
 20
-25.416396
 30
0.0
 11
-58.467836
 21
-24.579439
 31
0.0
  0
LINE
  8
0
 10
-59.428255
 20
-25.250067
 30
0.0
 11
-59.250354
 21
-24.41311
 31
0.0
  0
LINE
  8
0
 10
-57.226505
 20
-25.840024
 30
0.0
 11
-56.962093
 21
-25.026248
 31
0.0
  0
LINE
  8
0
 10
-57.98735
 20
-25.59281
 30
0.0
 11
-57.722938
 21
-24.779034
 31
0.0
  0
LINE
  8
0
 10
-55.859329
 20
-26.409681
 30
0.0
 11
-55.511303
 21
-25.628001
 31
0.0
  0
LINE
  8
0
 10
-56.590165
 20
-26.084292
 30
0.0
 11
-56.242139
 21
-25.302612
 31
0.0
  0
LINE
  8
0
 10
-54.559188
 20
-27.119126
 30
0.0
 11
-54.13136
 21
-26.378107
 31
0.0
  0
LINE
  8
0
 10
-55.252008
 20
-26.719126
 30
0.0
 11
-54.824181
 21
-25.978107
 31
0.0
  0
LINE
  8
0
 10
-53.340326
 20
-27.960587
 30
0.0
 11
-52.837385
 21
-27.268348
 31
0.0
  0
LINE
  8
0
 10
-53.98754
 20
-27.490359
 30
0.0
 11
-53.484598
 21
-26.798119
 31
0.0
  0
LINE
  8
0
 10
-52.216098
 20
-28.924844
 30
0.0
 11
-51.643553
 21
-28.288968
 31
0.0
  0
LINE
  8
0
 10
-52.810614
 20
-28.389539
 30
0.0
 11
-52.238069
 21
-27.753664
 31
0.0
  0
LINE
  8
0
 10
-51.198821
 20
-30.001332
 30
0.0
 11
-50.562946
 21
-29.428787
 31
0.0
  0
LINE
  8
0
 10
-51.734126
 20
-29.406816
 30
0.0
 11
-51.09825
 21
-28.834271
 31
0.0
  0
LINE
  8
0
 10
-50.299641
 20
-31.178258
 30
0.0
 11
-49.607401
 21
-30.675317
 31
0.0
  0
LINE
  8
0
 10
-50.769869
 20
-30.531044
 30
0.0
 11
-50.07763
 21
-30.028103
 31
0.0
  0
LINE
  8
0
 10
-49.528408
 20
-32.442726
 30
0.0
 11
-48.787389
 21
-32.014899
 31
0.0
  0
LINE
  8
0
 10
-49.928408
 20
-31.749906
 30
0.0
 11
-49.187389
 21
-31.322078
 31
0.0
  0
LINE
  8
0
 10
-48.893574
 20
-33.780883
 30
0.0
 11
-48.111894
 21
-33.432857
 31
0.0
  0
LINE
  8
0
 10
-49.218963
 20
-33.050047
 30
0.0
 11
-48.437283
 21
-32.702021
 31
0.0
  0
LINE
  8
0
 10
-48.402092
 20
-35.178068
 30
0.0
 11
-47.588316
 21
-34.913656
 31
0.0
  0
LINE
  8
0
 10
-48.649306
 20
-34.417223
 30
0.0
 11
-47.835529
 21
-34.152811
 31
0.0
  0
LINE
  8
0
 10
-48.059348
 20
-36.618973
 30
0.0
 11
-47.222392
 21
-36.441072
 31
0.0
  0
LINE
  8
0
 10
-48.225678
 20
-35.836455
 30
0.0
 11
-47.388721
 21
-35.658554
 31
0.0
  0
LINE
  8
0
 10
-47.863474
 20
-38.08722
 30
0.0
 11
-47.018131
 21
-37.99837
 31
0.0
  0
LINE
  8
0
 10
-47.952721
 20
-37.292193
 30
0.0
 11
-47.101753
 21
-37.202753
 31
0.0
  0
LINE
  8
0
 10
-47.82777
 20
-39.568489
 30
0.0
 11
-46.97777
 21
-39.568489
 31
0.0
  0
LINE
  8
0
 10
-47.82777
 20
-38.768489
 30
0.0
 11
-46.97777
 21
-38.768489
 31
0.0
  0
LINE
  8
0
 10
-47.947097
 20
-41.045375
 30
0.0
 11
-47.101753
 21
-41.134224
 31
0.0
  0
LINE
  8
0
 10
-47.863474
 20
-40.249758
 30
0.0
 11
-47.018131
 21
-40.338607
 31
0.0
  0
LINE
  8
0
 10
-48.220147
 20
-42.501698
 30
0.0
 11
-47.388721
 21
-42.678423
 31
0.0
  0
LINE
  8
0
 10
-48.053817
 20
-41.71918
 30
0.0
 11
-47.222392
 21
-41.895905
 31
0.0
  0
LINE
  8
0
 10
-48.643928
 20
-43.921502
 30
0.0
 11
-47.835529
 21
-44.184166
 31
0.0
  0
LINE
  8
0
 10
-48.396714
 20
-43.160656
 30
0.0
 11
-47.588316
 21
-43.423321
 31
0.0
  0
LINE
  8
0
 10
-49.213797
 20
-45.28923
 30
0.0
 11
-48.437283
 21
-45.634956
 31
0.0
  0
LINE
  8
0
 10
-48.888408
 20
-44.558394
 30
0.0
 11
-48.111894
 21
-44.90412
 31
0.0
  0
LINE
  8
0
 10
-49.923511
 20
-46.589899
 30
0.0
 11
-49.187389
 21
-47.014899
 31
0.0
  0
LINE
  8
0
 10
-49.523511
 20
-45.897078
 30
0.0
 11
-48.787389
 21
-46.322078
 31
0.0
  0
LINE
  8
0
 10
-50.765294
 20
-47.809257
 30
0.0
 11
-50.07763
 21
-48.308874
 31
0.0
  0
LINE
  8
0
 10
-50.295066
 20
-47.162043
 30
0.0
 11
-49.607401
 21
-47.66166
 31
0.0
  0
LINE
  8
0
 10
-51.729923
 20
-48.933945
 30
0.0
 11
-51.09825
 21
-49.502706
 31
0.0
  0
LINE
  8
0
 10
-51.194619
 20
-48.339429
 30
0.0
 11
-50.562946
 21
-48.90819
 31
0.0
  0
LINE
  8
0
 10
-52.80683
 20
-49.95164
 30
0.0
 11
-52.238069
 21
-50.583313
 31
0.0
  0
LINE
  8
0
 10
-52.212314
 20
-49.416336
 30
0.0
 11
-51.643553
 21
-50.048009
 31
0.0
  0
LINE
  8
0
 10
-53.984216
 20
-50.851193
 30
0.0
 11
-53.484598
 21
-51.538858
 31
0.0
  0
LINE
  8
0
 10
-53.337002
 20
-50.380965
 30
0.0
 11
-52.837385
 21
-51.068629
 31
0.0
  0
LINE
  8
0
 10
-55.249181
 20
-51.622748
 30
0.0
 11
-54.824181
 21
-52.35887
 31
0.0
  0
LINE
  8
0
 10
-54.55636
 20
-51.222748
 30
0.0
 11
-54.13136
 21
-51.95887
 31
0.0
  0
LINE
  8
0
 10
-56.587865
 20
-52.257851
 30
0.0
 11
-56.242139
 21
-53.034365
 31
0.0
  0
LINE
  8
0
 10
-55.857029
 20
-51.932462
 30
0.0
 11
-55.511303
 21
-52.708976
 31
0.0
  0
LINE
  8
0
 10
-57.985603
 20
-52.749545
 30
0.0
 11
-57.722938
 21
-53.557943
 31
0.0
  0
LINE
  8
0
 10
-57.224757
 20
-52.502331
 30
0.0
 11
-56.962093
 21
-53.310729
 31
0.0
  0
LINE
  8
0
 10
-59.427079
 20
-53.092442
 30
0.0
 11
-59.250354
 21
-53.923867
 31
0.0
  0
LINE
  8
0
 10
-58.644561
 20
-52.926112
 30
0.0
 11
-58.467836
 21
-53.757538
 31
0.0
  0
LINE
  8
0
 10
-60.896501
 20
-53.282785
 30
0.0
 11
-60.807652
 21
-54.128128
 31
0.0
  0
LINE
  8
0
 10
-60.100884
 20
-53.199162
 30
0.0
 11
-60.012035
 21
-54.044506
 31
0.0
  0
LINE
  8
0
 10
-62.37777
 20
-53.318489
 30
0.0
 11
-62.37777
 21
-54.168489
 31
0.0
  0
LINE
  8
0
 10
-61.57777
 20
-53.318489
 30
0.0
 11
-61.57777
 21
-54.168489
 31
0.0
  0
LINE
  8
0
 10
-63.854657
 20
-53.199162
 30
0.0
 11
-63.943506
 21
-54.044506
 31
0.0
  0
LINE
  8
0
 10
-63.059039
 20
-53.282785
 30
0.0
 11
-63.147889
 21
-54.128128
 31
0.0
  0
LINE
  8
0
 10
-65.31098
 20
-52.926112
 30
0.0
 11
-65.487705
 21
-53.757538
 31
0.0
  0
LINE
  8
0
 10
-64.528462
 20
-53.092442
 30
0.0
 11
-64.705187
 21
-53.923867
 31
0.0
  0
LINE
  8
0
 10
-66.730784
 20
-52.502331
 30
0.0
 11
-66.993448
 21
-53.310729
 31
0.0
  0
LINE
  8
0
 10
-65.969938
 20
-52.749545
 30
0.0
 11
-66.232603
 21
-53.557943
 31
0.0
  0
LINE
  8
0
 10
-68.098512
 20
-51.932462
 30
0.0
 11
-68.444238
 21
-52.708976
 31
0.0
  0
LINE
  8
0
 10
-67.367676
 20
-52.257851
 30
0.0
 11
-67.713402
 21
-53.034365
 31
0.0
  0
LINE
  8
0
 10
-69.399181
 20
-51.222748
 30
0.0
 11
-69.824181
 21
-51.95887
 31
0.0
  0
LINE
  8
0
 10
-68.70636
 20
-51.622748
 30
0.0
 11
-69.13136
 21
-52.35887
 31
0.0
  0
LINE
  8
0
 10
-70.618539
 20
-50.380965
 30
0.0
 11
-71.118156
 21
-51.068629
 31
0.0
  0
LINE
  8
0
 10
-69.971325
 20
-50.851193
 30
0.0
 11
-70.470942
 21
-51.538858
 31
0.0
  0
LINE
  8
0
 10
-71.743226
 20
-49.416336
 30
0.0
 11
-72.311987
 21
-50.048009
 31
0.0
  0
LINE
  8
0
 10
-71.148711
 20
-49.95164
 30
0.0
 11
-71.717472
 21
-50.583313
 31
0.0
  0
LINE
  8
0
 10
-72.760922
 20
-48.339429
 30
0.0
 11
-73.392595
 21
-48.90819
 31
0.0
  0
LINE
  8
0
 10
-72.225617
 20
-48.933945
 30
0.0
 11
-72.857291
 21
-49.502706
 31
0.0
  0
LINE
  8
0
 10
-73.660475
 20
-47.162043
 30
0.0
 11
-74.348139
 21
-47.66166
 31
0.0
  0
LINE
  8
0
 10
-73.190247
 20
-47.809257
 30
0.0
 11
-73.877911
 21
-48.308874
 31
0.0
  0
LINE
  8
0
 10
-74.43203
 20
-45.897078
 30
0.0
 11
-75.168151
 21
-46.322078
 31
0.0
  0
LINE
  8
0
 10
-74.03203
 20
-46.589899
 30
0.0
 11
-74.768151
 21
-47.014899
 31
0.0
  0
LINE
  8
0
 10
-75.067133
 20
-44.558394
 30
0.0
 11
-75.843647
 21
-44.90412
 31
0.0
  0
LINE
  8
0
 10
-74.741744
 20
-45.28923
 30
0.0
 11
-75.518258
 21
-45.634956
 31
0.0
  0
LINE
  8
0
 10
-75.558827
 20
-43.160656
 30
0.0
 11
-76.367225
 21
-43.423321
 31
0.0
  0
LINE
  8
0
 10
-75.311613
 20
-43.921502
 30
0.0
 11
-76.120011
 21
-44.184166
 31
0.0
  0
LINE
  8
0
 10
-75.901724
 20
-41.71918
 30
0.0
 11
-76.733149
 21
-41.895905
 31
0.0
  0
LINE
  8
0
 10
-75.735394
 20
-42.501698
 30
0.0
 11
-76.56682
 21
-42.678423
 31
0.0
  0
LINE
  8
0
 10
-76.092067
 20
-40.249758
 30
0.0
 11
-76.93741
 21
-40.338607
 31
0.0
  0
LINE
  8
0
 10
-76.008444
 20
-41.045375
 30
0.0
 11
-76.853787
 21
-41.134224
 31
0.0
  0
LINE
  8
0
 10
-76.12777
 20
-38.768489
 30
0.0
 11
-76.97777
 21
-38.768489
 31
0.0
  0
LINE
  8
0
 10
-76.12777
 20
-39.568489
 30
0.0
 11
-76.97777
 21
-39.568489
 31
0.0
  0
LINE
  8
0
 10
-76.008444
 20
-37.291602
 30
0.0
 11
-76.853787
 21
-37.202753
 31
0.0
  0
LINE
  8
0
 10
-76.092067
 20
-38.08722
 30
0.0
 11
-76.93741
 21
-37.99837
 31
0.0
  0
LINE
  8
0
 10
-75.735394
 20
-35.835279
 30
0.0
 11
-76.56682
 21
-35.658554
 31
0.0
  0
LINE
  8
0
 10
-75.901724
 20
-36.617797
 30
0.0
 11
-76.733149
 21
-36.441072
 31
0.0
  0
LINE
  8
0
 10
-75.311613
 20
-34.415475
 30
0.0
 11
-76.120011
 21
-34.152811
 31
0.0
  0
LINE
  8
0
 10
-75.558827
 20
-35.176321
 30
0.0
 11
-76.367225
 21
-34.913656
 31
0.0
  0
LINE
  8
0
 10
-74.741744
 20
-33.047747
 30
0.0
 11
-75.518258
 21
-32.702021
 31
0.0
  0
LINE
  8
0
 10
-75.067133
 20
-33.778583
 30
0.0
 11
-75.843647
 21
-33.432857
 31
0.0
  0
LINE
  8
0
 10
-74.03203
 20
-31.747078
 30
0.0
 11
-74.768151
 21
-31.322078
 31
0.0
  0
LINE
  8
0
 10
-74.43203
 20
-32.439899
 30
0.0
 11
-75.168151
 21
-32.014899
 31
0.0
  0
LINE
  8
0
 10
-73.190247
 20
-30.52772
 30
0.0
 11
-73.877911
 21
-30.028103
 31
0.0
  0
LINE
  8
0
 10
-73.660475
 20
-31.174934
 30
0.0
 11
-74.348139
 21
-30.675317
 31
0.0
  0
LINE
  8
0
 10
-72.225617
 20
-29.403032
 30
0.0
 11
-72.857291
 21
-28.834271
 31
0.0
  0
LINE
  8
0
 10
-72.760922
 20
-29.997548
 30
0.0
 11
-73.392595
 21
-29.428787
 31
0.0
  0
LINE
  8
0
 10
-71.148711
 20
-28.385337
 30
0.0
 11
-71.717472
 21
-27.753664
 31
0.0
  0
LINE
  8
0
 10
-71.743226
 20
-28.920641
 30
0.0
 11
-72.311987
 21
-28.288968
 31
0.0
  0
LINE
  8
0
 10
-69.971325
 20
-27.485784
 30
0.0
 11
-70.470942
 21
-26.798119
 31
0.0
  0
LINE
  8
0
 10
-70.618539
 20
-27.956012
 30
0.0
 11
-71.118156
 21
-27.268348
 31
0.0
  0
LINE
  8
0
 10
-68.70636
 20
-26.714229
 30
0.0
 11
-69.13136
 21
-25.978107
 31
0.0
  0
LINE
  8
0
 10
-69.399181
 20
-27.114229
 30
0.0
 11
-69.824181
 21
-26.378107
 31
0.0
  0
LINE
  8
0
 10
-67.367676
 20
-26.079126
 30
0.0
 11
-67.713402
 21
-25.302612
 31
0.0
  0
LINE
  8
0
 10
-68.098512
 20
-26.404515
 30
0.0
 11
-68.444238
 21
-25.628001
 31
0.0
  0
LINE
  8
0
 10
-65.969938
 20
-25.587432
 30
0.0
 11
-66.232603
 21
-24.779034
 31
0.0
  0
LINE
  8
0
 10
-66.730784
 20
-25.834646
 30
0.0
 11
-66.993448
 21
-25.026248
 31
0.0
  0
LINE
  8
0
 10
-64.528462
 20
-25.244535
 30
0.0
 11
-64.705187
 21
-24.41311
 31
0.0
  0
LINE
  8
0
 10
-65.31098
 20
-25.410865
 30
0.0
 11
-65.487705
 21
-24.579439
 31
0.0
  0
LINE
  8
0
 10
-63.059039
 20
-25.054192
 30
0.0
 11
-63.147889
 21
-24.208849
 31
0.0
  0
LINE
  8
0
 10
-63.854657
 20
-25.137815
 30
0.0
 11
-63.943506
 21
-24.292471
 31
0.0
  0
LINE
  8
0
 10
-61.57777
 20
-25.018489
 30
0.0
 11
-61.57777
 21
-24.168489
 31
0.0
  0
LINE
  8
0
 10
-62.37777
 20
-25.018489
 30
0.0
 11
-62.37777
 21
-24.168489
 31
0.0
  0
CIRCLE
  8
0
 10
-61.97777
 20
-39.168489
 30
0.0
 40
14.15
  0
CIRCLE
  8
0
 10
-61.97777
 20
-39.168489
 30
0.0
 40
15.0
  0
LINE
  8
0
 10
55.970313
 20
-8.381635
 30
0.0
 11
49.170313
 21
-8.381635
 31
0.0
  0
LINE
  8
0
 10
49.170313
 20
31.429226
 30
0.0
 11
49.170313
 21
-8.381635
 31
0.0
  0
LINE
  8
0
 10
49.170313
 20
-8.381635
 30
0.0
 11
48.570313
 21
-7.781635
 31
0.0
  0
LINE
  8
0
 10
55.970313
 20
-8.381635
 30
0.0
 11
56.570313
 21
-7.781635
 31
0.0
  0
LINE
  8
0
 10
55.970313
 20
7.618365
 30
0.0
 11
55.970313
 21
-8.381635
 31
0.0
  0
LINE
  8
0
 10
56.570313
 20
7.618365
 30
0.0
 11
56.570313
 21
-7.781635
 31
0.0
  0
LINE
  8
0
 10
48.570313
 20
7.618365
 30
0.0
 11
45.570313
 21
7.618365
 31
0.0
  0
LINE
  8
0
 10
-64.47777
 20
-15.077742
 30
0.0
 11
-59.47777
 21
-15.077742
 31
0.0
  0
LINE
  8
0
 10
-64.47777
 20
-15.077742
 30
0.0
 11
-64.47777
 21
14.922258
 31
0.0
  0
LINE
  8
0
 10
-61.97777
 20
0.922258
 30
0.0
 11
-55.17777
 21
0.922258
 31
0.0
  0
LINE
  8
0
 10
-64.47777
 20
-15.077742
 30
0.0
 11
-64.97777
 21
-14.577742
 31
0.0
  0
LINE
  8
0
 10
-59.47777
 20
-15.077742
 30
0.0
 11
-58.97777
 21
-14.577742
 31
0.0
  0
LINE
  8
0
 10
-59.47777
 20
-15.077742
 30
0.0
 11
-59.47777
 21
0.922258
 31
0.0
  0
LINE
  8
0
 10
-58.97777
 20
-14.577742
 30
0.0
 11
-58.97777
 21
0.922258
 31
0.0
  0
LINE
  8
0
 10
-64.97777
 20
-14.577742
 30
0.0
 11
-58.97777
 21
-14.577742
 31
0.0
  0
LINE
  8
0
 10
-100.659112
 20
1.422258
 30
0.0
 11
-98.159112
 21
1.422258
 31
0.0
  0
LINE
  8
0
 10
-100.659112
 20
18.462361
 30
0.0
 11
-98.159112
 21
18.462361
 31
0.0
  0
LINE
  8
0
 10
-101.159112
 20
0.922258
 30
0.0
 11
-100.659112
 21
1.422258
 31
0.0
  0
INSERT
  8
0
  2
*X4
 10
0.0
 20
0.0
 30
0.0
1001
ACAD
1000
HATCH
1002
{
1070
    16
1000
ANSI31
1040
10.0
1040
0.0
1002
}
  0
LINE
  8
0
 10
48.570313
 20
-7.781635
 30
0.0
 11
56.570313
 21
-7.781635
 31
0.0
  0
LINE
  8
0
 10
-4.57708
 20
8.218365
 30
0.0
 11
-7.97708
 21
8.218365
 31
0.0
  0
LINE
  8
0
 10
-7.97708
 20
32.656382
 30
0.0
 11
-4.57708
 21
32.656382
 31
0.0
  0
LINE
  8
0
 10
-8.57708
 20
7.618365
 30
0.0
 11
-7.97708
 21
8.218365
 31
0.0
  0
INSERT
  8
0
  2
*X5
 10
0.0
 20
0.0
 30
0.0
1001
ACAD
1000
HATCH
1002
{
1070
    16
1000
ANSI31
1040
10.0
1040
0.0
1002
}
  0
ENDSEC
  0
EOF
