  0
SECTION
  2
HEADER
  9
$ACADVER
  1
AC1009
  9
$INSBASE
 10
0.0
 20
0.0
 30
0.0
  9
$EXTMIN
 10
-67.170809
 20
-76.236957
 30
0.0
  9
$EXTMAX
 10
-44.170809
 20
-11.979446
 30
0.0
  9
$LIMMIN
 10
0.0
 20
0.0
  9
$LIMMAX
 10
12.0
 20
9.0
  9
$ORTHOMODE
 70
     1
  9
$REGENMODE
 70
     1
  9
$FILLMODE
 70
     1
  9
$QTEXTMODE
 70
     0
  9
$MIRRTEXT
 70
     1
  9
$DRAGMODE
 70
     2
  9
$LTSCALE
 40
5.0
  9
$OSMODE
 70
     0
  9
$ATTMODE
 70
     1
  9
$TEXTSIZE
 40
0.2
  9
$TRACEWID
 40
0.05
  9
$TEXTSTYLE
  7
STANDARD
  9
$CLAYER
  8
0
  9
$CELTYPE
  6
BYLAYER
  9
$CECOLOR
 62
   256
  9
$DIMSCALE
 40
1.0
  9
$DIMASZ
 40
2.5
  9
$DIMEXO
 40
0.0
  9
$DIMDLI
 40
5.0
  9
$DIMRND
 40
0.0
  9
$DIMDLE
 40
0.0
  9
$DIMEXE
 40
1.0
  9
$DIMTP
 40
0.0
  9
$DIMTM
 40
0.0
  9
$DIMTXT
 40
2.5
  9
$DIMCEN
 40
0.09
  9
$DIMTSZ
 40
0.0
  9
$DIMTOL
 70
     0
  9
$DIMLIM
 70
     0
  9
$DIMTIH
 70
     0
  9
$DIMTOH
 70
     0
  9
$DIMSE1
 70
     0
  9
$DIMSE2
 70
     0
  9
$DIMTAD
 70
     1
  9
$DIMZIN
 70
     0
  9
$DIMBLK
  1

  9
$DIMASO
 70
     0
  9
$DIMSHO
 70
     0
  9
$DIMPOST
  1

  9
$DIMAPOST
  1

  9
$DIMALT
 70
     0
  9
$DIMALTD
 70
     2
  9
$DIMALTF
 40
25.4
  9
$DIMLFAC
 40
1.0
  9
$DIMTOFL
 70
     1
  9
$DIMTVP
 40
0.0
  9
$DIMTIX
 70
     0
  9
$DIMSOXD
 70
     0
  9
$DIMSAH
 70
     0
  9
$DIMBLK1
  1

  9
$DIMBLK2
  1

  9
$DIMSTYLE
  2
*UNNAMED
  9
$DIMCLRD
 70
     0
  9
$DIMCLRE
 70
     0
  9
$DIMCLRT
 70
     0
  9
$DIMTFAC
 40
1.0
  9
$DIMGAP
 40
0.09
  9
$LUNITS
 70
     2
  9
$LUPREC
 70
     4
  9
$SKETCHINC
 40
0.1
  9
$FILLETRAD
 40
1.0
  9
$AUNITS
 70
     0
  9
$AUPREC
 70
     0
  9
$MENU
  1
wiberger
  9
$ELEVATION
 40
0.0
  9
$PELEVATION
 40
0.0
  9
$THICKNESS
 40
0.0
  9
$LIMCHECK
 70
     0
  9
$BLIPMODE
 70
     1
  9
$CHAMFERA
 40
0.0
  9
$CHAMFERB
 40
0.0
  9
$SKPOLY
 70
     0
  9
$TDCREATE
 40
2450190.284726967
  9
$TDUPDATE
 40
2450218.506023958
  9
$TDINDWG
 40
0.0003045139
  9
$TDUSRTIMER
 40
0.0003045139
  9
$USRTIMER
 70
     1
  9
$ANGBASE
 50
0.0
  9
$ANGDIR
 70
     0
  9
$PDMODE
 70
     0
  9
$PDSIZE
 40
0.0
  9
$PLINEWID
 40
0.0
  9
$COORDS
 70
     2
  9
$SPLFRAME
 70
     0
  9
$SPLINETYPE
 70
     6
  9
$SPLINESEGS
 70
     8
  9
$ATTDIA
 70
     0
  9
$ATTREQ
 70
     1
  9
$HANDLING
 70
     0
  9
$HANDSEED
  5
0
  9
$SURFTAB1
 70
     6
  9
$SURFTAB2
 70
     6
  9
$SURFTYPE
 70
     6
  9
$SURFU
 70
     6
  9
$SURFV
 70
     6
  9
$UCSNAME
  2

  9
$UCSORG
 10
0.0
 20
0.0
 30
0.0
  9
$UCSXDIR
 10
1.0
 20
0.0
 30
0.0
  9
$UCSYDIR
 10
0.0
 20
1.0
 30
0.0
  9
$PUCSNAME
  2

  9
$PUCSORG
 10
0.0
 20
0.0
 30
0.0
  9
$PUCSXDIR
 10
1.0
 20
0.0
 30
0.0
  9
$PUCSYDIR
 10
0.0
 20
1.0
 30
0.0
  9
$USERI1
 70
     0
  9
$USERI2
 70
     0
  9
$USERI3
 70
     0
  9
$USERI4
 70
     0
  9
$USERI5
 70
     0
  9
$USERR1
 40
0.0
  9
$USERR2
 40
0.0
  9
$USERR3
 40
0.0
  9
$USERR4
 40
0.0
  9
$USERR5
 40
0.0
  9
$WORLDVIEW
 70
     1
  9
$SHADEDGE
 70
     3
  9
$SHADEDIF
 70
    70
  9
$TILEMODE
 70
     1
  9
$MAXACTVP
 70
    16
  9
$PINSBASE
 10
0.0
 20
0.0
 30
0.0
  9
$PLIMCHECK
 70
     0
  9
$PEXTMIN
 10
1.000000E+20
 20
1.000000E+20
 30
1.000000E+20
  9
$PEXTMAX
 10
-1.000000E+20
 20
-1.000000E+20
 30
-1.000000E+20
  9
$PLIMMIN
 10
0.0
 20
0.0
  9
$PLIMMAX
 10
12.0
 20
9.0
  9
$UNITMODE
 70
     0
  9
$VISRETAIN
 70
     0
  9
$PLINEGEN
 70
     0
  9
$PSLTSCALE
 70
     0
  9
$TREEDEPTH
 70
  3020
  9
$DWGCODEPAGE
  3
undefined
  0
ENDSEC
  0
SECTION
  2
TABLES
  0
TABLE
  2
VPORT
 70
     2
  0
VPORT
  2
*ACTIVE
 70
     0
 10
0.0
 20
0.0
 11
1.0
 21
1.0
 12
-40.57642
 22
-45.798369
 13
0.0
 23
0.0
 14
1.0
 24
1.0
 15
0.0
 25
0.0
 16
0.0
 26
0.0
 36
1.0
 17
0.0
 27
0.0
 37
0.0
 40
81.458615
 41
1.767507
 42
50.0
 43
0.0
 44
0.0
 50
0.0
 51
0.0
 71
     0
 72
   100
 73
     1
 74
     0
 75
     0
 76
     0
 77
     0
 78
     0
  0
ENDTAB
  0
TABLE
  2
LTYPE
 70
     2
  0
LTYPE
  2
CONTINUOUS
 70
    64
  3
Solid line
 72
    65
 73
     0
 40
0.0
  0
LTYPE
  2
CENTER
 70
    64
  3
____ _ ____ _ ____ _ ____ _ ____ _ ____ _ ____
 72
    65
 73
     4
 40
2.0
 49
1.25
 49
-0.25
 49
0.25
 49
-0.25
  0
ENDTAB
  0
TABLE
  2
LAYER
 70
     1
  0
LAYER
  2
0
 70
    64
 62
     7
  6
CONTINUOUS
  0
ENDTAB
  0
TABLE
  2
STYLE
 70
     1
  0
STYLE
  2
STANDARD
 70
     0
 40
0.0
 41
1.0
 50
0.0
 71
     0
 42
0.2
  3
txt
  4

  0
ENDTAB
  0
TABLE
  2
VIEW
 70
     0
  0
ENDTAB
  0
TABLE
  2
UCS
 70
     0
  0
ENDTAB
  0
TABLE
  2
APPID
 70
     1
  0
APPID
  2
ACAD
 70
    64
  0
ENDTAB
  0
TABLE
  2
DIMSTYLE
 70
     0
  0
ENDTAB
  0
ENDSEC
  0
SECTION
  2
BLOCKS
  0
BLOCK
  8
0
  2
*X0
 70
    65
 10
0.0
 20
0.0
 30
0.0
  3
*X
  0
LINE
  8
0
 62
     0
 10
-59.670809
 20
-23.060685
 30
0.0
 11
-66.749225
 21
-15.982268
 31
0.0
  0
LINE
  8
0
 62
     0
 10
-59.670809
 20
-25.182005
 30
0.0
 11
-66.816387
 21
-18.036427
 31
0.0
  0
LINE
  8
0
 62
     0
 10
-59.670809
 20
-27.303325
 30
0.0
 11
-66.883548
 21
-20.090586
 31
0.0
  0
LINE
  8
0
 62
     0
 10
-59.670809
 20
-29.424646
 30
0.0
 11
-66.95071
 21
-22.144744
 31
0.0
  0
LINE
  8
0
 62
     0
 10
-61.632889
 20
-29.583886
 30
0.0
 11
-64.670809
 21
-26.545966
 31
0.0
  0
LINE
  8
0
 62
     0
 10
-65.132889
 20
-26.083886
 30
0.0
 11
-67.017872
 21
-24.198903
 31
0.0
  0
LINE
  8
0
 62
     0
 10
-63.754209
 20
-29.583886
 30
0.0
 11
-64.670809
 21
-28.667286
 31
0.0
  0
LINE
  8
0
 62
     0
 10
-59.670809
 20
-20.939364
 30
0.0
 11
-65.775554
 21
-14.834619
 31
0.0
  0
LINE
  8
0
 62
     0
 10
-59.670809
 20
-18.818044
 30
0.0
 11
-64.049227
 21
-14.439626
 31
0.0
  0
LINE
  8
0
 62
     0
 10
-58.783646
 20
-17.583886
 30
0.0
 11
-62.25697
 21
-14.110562
 31
0.0
  0
LINE
  8
0
 62
     0
 10
-56.662326
 20
-17.583886
 30
0.0
 11
-60.392479
 21
-13.853733
 31
0.0
  0
LINE
  8
0
 62
     0
 10
-55.670809
 20
-16.454083
 30
0.0
 11
-58.447859
 21
-13.677032
 31
0.0
  0
LINE
  8
0
 62
     0
 10
-55.670809
 20
-14.332763
 30
0.0
 11
-56.413038
 21
-13.590533
 31
0.0
  0
LINE
  8
0
 62
     0
 10
-64.670809
 20
-26.487043
 30
0.0
 11
-59.670809
 21
-21.487043
 31
0.0
  0
LINE
  8
0
 62
     0
 10
-55.767652
 20
-17.583886
 30
0.0
 11
-55.670809
 21
-17.487043
 31
0.0
  0
LINE
  8
0
 62
     0
 10
-64.670809
 20
-28.608363
 30
0.0
 11
-59.670809
 21
-23.608363
 31
0.0
  0
LINE
  8
0
 62
     0
 10
-63.525011
 20
-29.583886
 30
0.0
 11
-59.670809
 21
-25.729683
 31
0.0
  0
LINE
  8
0
 62
     0
 10
-61.403691
 20
-29.583886
 30
0.0
 11
-59.670809
 21
-27.851004
 31
0.0
  0
LINE
  8
0
 62
     0
 10
-66.388972
 20
-26.083886
 30
0.0
 11
-59.670809
 21
-19.365722
 31
0.0
  0
LINE
  8
0
 62
     0
 10
-57.888972
 20
-17.583886
 30
0.0
 11
-55.670809
 21
-15.365722
 31
0.0
  0
LINE
  8
0
 62
     0
 10
-67.03114
 20
-24.604734
 30
0.0
 11
-56.011695
 21
-13.585288
 31
0.0
  0
LINE
  8
0
 62
     0
 10
-66.959439
 20
-22.411711
 30
0.0
 11
-58.209438
 21
-13.661711
 31
0.0
  0
LINE
  8
0
 62
     0
 10
-66.887737
 20
-20.218689
 30
0.0
 11
-60.539961
 21
-13.870914
 31
0.0
  0
LINE
  8
0
 62
     0
 10
-66.816035
 20
-18.025667
 30
0.0
 11
-63.033508
 21
-14.24314
 31
0.0
  0
LINE
  8
0
 62
     0
 10
-66.744333
 20
-15.832645
 30
0.0
 11
-65.736512
 21
-14.824824
 31
0.0
  0
ENDBLK
  8
0
  0
ENDSEC
  0
SECTION
  2
ENTITIES
  0
LINE
  8
0
 10
-46.670809
 20
-29.522556
 30
0.0
 11
-46.670809
 21
-26.022556
 31
0.0
  0
LINE
  8
0
 10
-64.670809
 20
-29.522556
 30
0.0
 11
-64.670809
 21
-26.022556
 31
0.0
  0
ARC
  8
0
 10
-45.596971
 20
-15.797252
 30
0.0
 40
1.0
 50
1.872645
 51
75.576776
  0
ARC
  8
0
 10
-65.744647
 20
-15.797252
 30
0.0
 40
1.0
 50
104.423224
 51
178.127355
  0
ARC
  8
0
 10
-55.670809
 20
-54.966341
 30
0.0
 40
41.443785
 50
75.576776
 51
104.423224
  0
LINE
  8
0
 10
-44.294811
 20
-25.022556
 30
0.0
 11
-44.597505
 21
-15.764574
 31
0.0
  0
LINE
  8
0
 10
-67.046807
 20
-25.022556
 30
0.0
 11
-66.744113
 21
-15.764574
 31
0.0
  0
LINE
  8
0
 10
-67.170809
 20
-25.022556
 30
0.0
 11
-67.046807
 21
-25.022556
 31
0.0
  0
LINE
  8
0
 10
-64.670809
 20
-29.522556
 30
0.0
 11
-58.670809
 21
-29.522556
 31
0.0
  0
LINE
  8
0
 10
-67.170809
 20
-26.022556
 30
0.0
 11
-64.670809
 21
-26.022556
 31
0.0
  0
LINE
  8
0
 10
-44.170809
 20
-26.022556
 30
0.0
 11
-44.170809
 21
-25.022556
 31
0.0
  0
LINE
  8
0
 10
-67.170809
 20
-26.022556
 30
0.0
 11
-67.170809
 21
-25.022556
 31
0.0
  0
CIRCLE
  8
0
 10
-55.670809
 20
-64.736957
 30
0.0
 40
10.35021
  0
ARC
  8
0
 10
-53.262079
 20
-53.404775
 30
0.0
 40
1.149774
 50
185.142201
 51
330.857799
  0
ARC
  8
0
 10
-54.490388
 20
-53.506005
 30
0.0
 40
0.083183
 50
358.744983
 51
169.255017
  0
ARC
  8
0
 10
-50.958623
 20
-54.153213
 30
0.0
 40
1.149774
 50
173.142201
 51
318.857799
  0
ARC
  8
0
 10
-52.181137
 20
-53.996851
 30
0.0
 40
0.083183
 50
346.744983
 51
157.255017
  0
ARC
  8
0
 10
-48.861111
 20
-55.364212
 30
0.0
 40
1.149774
 50
161.142201
 51
306.857799
  0
ARC
  8
0
 10
-50.024401
 20
-54.957092
 30
0.0
 40
0.083183
 50
334.744983
 51
145.255017
  0
ARC
  8
0
 10
-47.061216
 20
-56.984845
 30
0.0
 40
1.149774
 50
149.142201
 51
294.857799
  0
ARC
  8
0
 10
-48.114441
 20
-56.34476
 30
0.0
 40
0.083183
 50
322.744983
 51
133.255017
  0
ARC
  8
0
 10
-45.637602
 20
-58.944282
 30
0.0
 40
1.149774
 50
137.142201
 51
282.857799
  0
ARC
  8
0
 10
-46.53473
 20
-58.099206
 30
0.0
 40
0.083183
 50
310.744983
 51
121.255017
  0
ARC
  8
0
 10
-44.652487
 20
-61.156887
 30
0.0
 40
1.149774
 50
125.142201
 51
270.857799
  0
ARC
  8
0
 10
-45.354309
 20
-60.143755
 30
0.0
 40
0.083183
 50
298.744983
 51
109.255017
  0
ARC
  8
0
 10
-44.148925
 20
-63.525958
 30
0.0
 40
1.149774
 50
113.142201
 51
258.857799
  0
ARC
  8
0
 10
-44.624769
 20
-62.389048
 30
0.0
 40
0.083183
 50
286.744983
 51
97.255017
  0
ARC
  8
0
 10
-44.148925
 20
-65.947955
 30
0.0
 40
1.149774
 50
101.142201
 51
246.857799
  0
ARC
  8
0
 10
-44.377994
 20
-64.736957
 30
0.0
 40
0.083183
 50
274.744983
 51
85.255017
  0
ARC
  8
0
 10
-44.652487
 20
-68.317026
 30
0.0
 40
1.149774
 50
89.142201
 51
234.857799
  0
ARC
  8
0
 10
-44.624769
 20
-67.084865
 30
0.0
 40
0.083183
 50
262.744983
 51
73.255017
  0
ARC
  8
0
 10
-45.637602
 20
-70.529631
 30
0.0
 40
1.149774
 50
77.142201
 51
222.857799
  0
ARC
  8
0
 10
-45.354309
 20
-69.330158
 30
0.0
 40
0.083183
 50
250.744983
 51
61.255017
  0
ARC
  8
0
 10
-47.061216
 20
-72.489068
 30
0.0
 40
1.149774
 50
65.142201
 51
210.857799
  0
ARC
  8
0
 10
-46.53473
 20
-71.374707
 30
0.0
 40
0.083183
 50
238.744983
 51
49.255017
  0
ARC
  8
0
 10
-48.861111
 20
-74.109701
 30
0.0
 40
1.149774
 50
53.142201
 51
198.857799
  0
ARC
  8
0
 10
-48.114441
 20
-73.129154
 30
0.0
 40
0.083183
 50
226.744983
 51
37.255017
  0
ARC
  8
0
 10
-50.958623
 20
-75.3207
 30
0.0
 40
1.149774
 50
41.142201
 51
186.857799
  0
ARC
  8
0
 10
-50.024401
 20
-74.516821
 30
0.0
 40
0.083183
 50
214.744983
 51
25.255017
  0
ARC
  8
0
 10
-53.262079
 20
-76.069138
 30
0.0
 40
1.149774
 50
29.142201
 51
174.857799
  0
ARC
  8
0
 10
-52.181137
 20
-75.477062
 30
0.0
 40
0.083183
 50
202.744983
 51
13.255017
  0
ARC
  8
0
 10
-55.670809
 20
-76.322306
 30
0.0
 40
1.149774
 50
17.142201
 51
162.857799
  0
ARC
  8
0
 10
-54.490388
 20
-75.967908
 30
0.0
 40
0.083183
 50
190.744983
 51
1.255017
  0
ARC
  8
0
 10
-58.079538
 20
-76.069138
 30
0.0
 40
1.149774
 50
5.142201
 51
150.857799
  0
ARC
  8
0
 10
-56.851229
 20
-75.967908
 30
0.0
 40
0.083183
 50
178.744983
 51
349.255017
  0
ARC
  8
0
 10
-60.382995
 20
-75.3207
 30
0.0
 40
1.149774
 50
353.142201
 51
138.857799
  0
ARC
  8
0
 10
-59.160481
 20
-75.477062
 30
0.0
 40
0.083183
 50
166.744983
 51
337.255017
  0
ARC
  8
0
 10
-62.480506
 20
-74.109701
 30
0.0
 40
1.149774
 50
341.142201
 51
126.857799
  0
ARC
  8
0
 10
-61.317216
 20
-74.516821
 30
0.0
 40
0.083183
 50
154.744983
 51
325.255017
  0
ARC
  8
0
 10
-64.280401
 20
-72.489068
 30
0.0
 40
1.149774
 50
329.142201
 51
114.857799
  0
ARC
  8
0
 10
-63.227177
 20
-73.129154
 30
0.0
 40
0.083183
 50
142.744983
 51
313.255017
  0
ARC
  8
0
 10
-65.704016
 20
-70.529631
 30
0.0
 40
1.149774
 50
317.142201
 51
102.857799
  0
ARC
  8
0
 10
-64.806888
 20
-71.374707
 30
0.0
 40
0.083183
 50
130.744983
 51
301.255017
  0
ARC
  8
0
 10
-66.689131
 20
-68.317026
 30
0.0
 40
1.149774
 50
305.142201
 51
90.857799
  0
ARC
  8
0
 10
-65.987309
 20
-69.330158
 30
0.0
 40
0.083183
 50
118.744983
 51
289.255017
  0
ARC
  8
0
 10
-67.192692
 20
-65.947955
 30
0.0
 40
1.149774
 50
293.142201
 51
78.857799
  0
ARC
  8
0
 10
-66.716849
 20
-67.084865
 30
0.0
 40
0.083183
 50
106.744983
 51
277.255017
  0
ARC
  8
0
 10
-67.192692
 20
-63.525958
 30
0.0
 40
1.149774
 50
281.142201
 51
66.857799
  0
ARC
  8
0
 10
-66.963624
 20
-64.736957
 30
0.0
 40
0.083183
 50
94.744983
 51
265.255017
  0
ARC
  8
0
 10
-66.689131
 20
-61.156887
 30
0.0
 40
1.149774
 50
269.142201
 51
54.857799
  0
ARC
  8
0
 10
-66.716849
 20
-62.389048
 30
0.0
 40
0.083183
 50
82.744983
 51
253.255017
  0
ARC
  8
0
 10
-65.704016
 20
-58.944282
 30
0.0
 40
1.149774
 50
257.142201
 51
42.857799
  0
ARC
  8
0
 10
-65.987309
 20
-60.143755
 30
0.0
 40
0.083183
 50
70.744983
 51
241.255017
  0
ARC
  8
0
 10
-64.280401
 20
-56.984845
 30
0.0
 40
1.149774
 50
245.142201
 51
30.857799
  0
ARC
  8
0
 10
-64.806888
 20
-58.099206
 30
0.0
 40
0.083183
 50
58.744983
 51
229.255017
  0
ARC
  8
0
 10
-62.480506
 20
-55.364212
 30
0.0
 40
1.149774
 50
233.142201
 51
18.857799
  0
ARC
  8
0
 10
-63.227177
 20
-56.34476
 30
0.0
 40
0.083183
 50
46.744983
 51
217.255017
  0
ARC
  8
0
 10
-60.382995
 20
-54.153213
 30
0.0
 40
1.149774
 50
221.142201
 51
6.857799
  0
ARC
  8
0
 10
-61.317216
 20
-54.957092
 30
0.0
 40
0.083183
 50
34.744983
 51
205.255017
  0
ARC
  8
0
 10
-58.079538
 20
-53.404775
 30
0.0
 40
1.149774
 50
209.142201
 51
354.857799
  0
ARC
  8
0
 10
-59.160481
 20
-53.996851
 30
0.0
 40
0.083183
 50
22.744983
 51
193.255017
  0
ARC
  8
0
 10
-55.670809
 20
-53.151607
 30
0.0
 40
1.149774
 50
197.142201
 51
342.857799
  0
ARC
  8
0
 10
-56.851229
 20
-53.506005
 30
0.0
 40
0.083183
 50
10.744983
 51
181.255017
  0
CIRCLE
  8
0
 10
-55.670809
 20
-64.736957
 30
0.0
 40
11.5
  0
LINE
  8
0
 10
-44.541586
 20
-25.022556
 30
0.0
 11
-44.84428
 21
-15.998585
 31
0.0
  0
LINE
  8
0
 10
-45.271126
 20
-25.022556
 30
0.0
 11
-45.57382
 21
-15.803213
 31
0.0
  0
LINE
  8
0
 10
-46.451547
 20
-25.022556
 30
0.0
 11
-46.754241
 21
-15.517709
 31
0.0
  0
LINE
  8
0
 10
-48.031258
 20
-25.022556
 30
0.0
 11
-48.233952
 21
-15.193608
 31
0.0
  0
LINE
  8
0
 10
-49.941218
 20
-25.022556
 30
0.0
 11
-50.093912
 21
-14.88831
 31
0.0
  0
LINE
  8
0
 10
-52.200648
 20
-14.65498
 30
0.0
 11
-52.097954
 21
-25.022556
 31
0.0
  0
LINE
  8
0
 10
-54.407205
 20
-25.022556
 30
0.0
 11
-54.407205
 21
-14.545449
 31
0.0
  0
LINE
  8
0
  6
CENTER
 10
-55.670809
 20
-46.388243
 30
0.0
 11
-55.670809
 21
-11.979446
 31
0.0
  0
LINE
  8
0
 10
-55.670809
 20
-26.022556
 30
0.0
 11
-44.170809
 21
-26.022556
 31
0.0
  0
LINE
  8
0
 10
-55.670809
 20
-25.022556
 30
0.0
 11
-44.170809
 21
-25.022556
 31
0.0
  0
LINE
  8
0
 10
-59.670809
 20
-29.522556
 30
0.0
 11
-59.670809
 21
-17.522556
 31
0.0
  0
LINE
  8
0
 10
-59.670809
 20
-17.522556
 30
0.0
 11
-55.670809
 21
-17.522556
 31
0.0
  0
INSERT
  8
0
  2
*X0
 10
0.0
 20
0.06133
 30
0.0
  0
LINE
  8
0
 10
-58.170809
 20
-44.522556
 30
0.0
 11
-53.170809
 21
-44.522556
 31
0.0
  0
LINE
  8
0
 10
-58.670809
 20
-44.022556
 30
0.0
 11
-58.670809
 21
-29.522556
 31
0.0
  0
LINE
  8
0
 10
-58.170809
 20
-44.522556
 30
0.0
 11
-58.170809
 21
-30.022556
 31
0.0
  0
LINE
  8
0
 10
-55.670809
 20
-29.522556
 30
0.0
 11
-46.670809
 21
-29.522556
 31
0.0
  0
LINE
  8
0
 10
-58.170809
 20
-44.522556
 30
0.0
 11
-58.670809
 21
-44.022556
 31
0.0
  0
LINE
  8
0
 10
-53.170809
 20
-44.522556
 30
0.0
 11
-52.670809
 21
-44.022556
 31
0.0
  0
LINE
  8
0
 10
-53.170809
 20
-44.522556
 30
0.0
 11
-53.170809
 21
-30.022556
 31
0.0
  0
LINE
  8
0
 10
-52.670809
 20
-44.022556
 30
0.0
 11
-52.670809
 21
-29.522556
 31
0.0
  0
LINE
  8
0
 10
-58.670809
 20
-44.022556
 30
0.0
 11
-52.670809
 21
-44.022556
 31
0.0
  0
LINE
  8
0
 10
-58.670809
 20
-29.522556
 30
0.0
 11
-58.170809
 21
-30.022556
 31
0.0
  0
LINE
  8
0
 10
-52.670809
 20
-29.522556
 30
0.0
 11
-53.170809
 21
-30.022556
 31
0.0
  0
ENDSEC
  0
EOF
