  0
SECTION
  2
HEADER
  9
$ACADVER
  1
AC1009
  9
$INSBASE
 10
0.0
 20
0.0
 30
0.0
  9
$EXTMIN
 10
-110.40176
 20
-163.800542
 30
0.0
  9
$EXTMAX
 10
121.235483
 20
140.914053
 30
0.0
  9
$LIMMIN
 10
0.0
 20
0.0
  9
$LIMMAX
 10
12.0
 20
9.0
  9
$ORTHOMODE
 70
     1
  9
$REGENMODE
 70
     1
  9
$FILLMODE
 70
     1
  9
$QTEXTMODE
 70
     0
  9
$MIRRTEXT
 70
     1
  9
$DRAGMODE
 70
     2
  9
$LTSCALE
 40
8.0
  9
$OSMODE
 70
     0
  9
$ATTMODE
 70
     1
  9
$TEXTSIZE
 40
10.889069
  9
$TRACEWID
 40
0.05
  9
$TEXTSTYLE
  7
STANDARD
  9
$CLAYER
  8
0
  9
$CELTYPE
  6
BYLAYER
  9
$CECOLOR
 62
   256
  9
$DIMSCALE
 40
1.0
  9
$DIMASZ
 40
2.5
  9
$DIMEXO
 40
0.0
  9
$DIMDLI
 40
5.0
  9
$DIMRND
 40
0.0
  9
$DIMDLE
 40
0.0
  9
$DIMEXE
 40
1.0
  9
$DIMTP
 40
0.0
  9
$DIMTM
 40
0.0
  9
$DIMTXT
 40
2.5
  9
$DIMCEN
 40
0.09
  9
$DIMTSZ
 40
0.0
  9
$DIMTOL
 70
     0
  9
$DIMLIM
 70
     0
  9
$DIMTIH
 70
     0
  9
$DIMTOH
 70
     0
  9
$DIMSE1
 70
     0
  9
$DIMSE2
 70
     0
  9
$DIMTAD
 70
     1
  9
$DIMZIN
 70
     0
  9
$DIMBLK
  1

  9
$DIMASO
 70
     0
  9
$DIMSHO
 70
     0
  9
$DIMPOST
  1

  9
$DIMAPOST
  1

  9
$DIMALT
 70
     0
  9
$DIMALTD
 70
     2
  9
$DIMALTF
 40
25.4
  9
$DIMLFAC
 40
1.0
  9
$DIMTOFL
 70
     1
  9
$DIMTVP
 40
0.0
  9
$DIMTIX
 70
     0
  9
$DIMSOXD
 70
     0
  9
$DIMSAH
 70
     0
  9
$DIMBLK1
  1

  9
$DIMBLK2
  1

  9
$DIMSTYLE
  2
*UNNAMED
  9
$DIMCLRD
 70
     0
  9
$DIMCLRE
 70
     0
  9
$DIMCLRT
 70
     0
  9
$DIMTFAC
 40
1.0
  9
$DIMGAP
 40
0.09
  9
$LUNITS
 70
     2
  9
$LUPREC
 70
     4
  9
$SKETCHINC
 40
0.1
  9
$FILLETRAD
 40
0.0
  9
$AUNITS
 70
     0
  9
$AUPREC
 70
     0
  9
$MENU
  1
wiberger
  9
$ELEVATION
 40
0.0
  9
$PELEVATION
 40
0.0
  9
$THICKNESS
 40
0.0
  9
$LIMCHECK
 70
     0
  9
$BLIPMODE
 70
     1
  9
$CHAMFERA
 40
0.0
  9
$CHAMFERB
 40
0.0
  9
$SKPOLY
 70
     0
  9
$TDCREATE
 40
2450192.528011342
  9
$TDUPDATE
 40
2450218.634752430
  9
$TDINDWG
 40
0.0122349537
  9
$TDUSRTIMER
 40
0.0122349537
  9
$USRTIMER
 70
     1
  9
$ANGBASE
 50
0.0
  9
$ANGDIR
 70
     0
  9
$PDMODE
 70
     0
  9
$PDSIZE
 40
0.0
  9
$PLINEWID
 40
0.0
  9
$COORDS
 70
     0
  9
$SPLFRAME
 70
     0
  9
$SPLINETYPE
 70
     6
  9
$SPLINESEGS
 70
     8
  9
$ATTDIA
 70
     0
  9
$ATTREQ
 70
     1
  9
$HANDLING
 70
     0
  9
$HANDSEED
  5
0
  9
$SURFTAB1
 70
     6
  9
$SURFTAB2
 70
     6
  9
$SURFTYPE
 70
     6
  9
$SURFU
 70
     6
  9
$SURFV
 70
     6
  9
$UCSNAME
  2

  9
$UCSORG
 10
0.0
 20
0.0
 30
0.0
  9
$UCSXDIR
 10
1.0
 20
0.0
 30
0.0
  9
$UCSYDIR
 10
0.0
 20
1.0
 30
0.0
  9
$PUCSNAME
  2

  9
$PUCSORG
 10
0.0
 20
0.0
 30
0.0
  9
$PUCSXDIR
 10
1.0
 20
0.0
 30
0.0
  9
$PUCSYDIR
 10
0.0
 20
1.0
 30
0.0
  9
$USERI1
 70
     0
  9
$USERI2
 70
     0
  9
$USERI3
 70
     0
  9
$USERI4
 70
     0
  9
$USERI5
 70
     0
  9
$USERR1
 40
0.0
  9
$USERR2
 40
0.0
  9
$USERR3
 40
0.0
  9
$USERR4
 40
0.0
  9
$USERR5
 40
0.0
  9
$WORLDVIEW
 70
     1
  9
$SHADEDGE
 70
     3
  9
$SHADEDIF
 70
    70
  9
$TILEMODE
 70
     1
  9
$MAXACTVP
 70
    16
  9
$PINSBASE
 10
0.0
 20
0.0
 30
0.0
  9
$PLIMCHECK
 70
     0
  9
$PEXTMIN
 10
1.000000E+20
 20
1.000000E+20
 30
1.000000E+20
  9
$PEXTMAX
 10
-1.000000E+20
 20
-1.000000E+20
 30
-1.000000E+20
  9
$PLIMMIN
 10
0.0
 20
0.0
  9
$PLIMMAX
 10
12.0
 20
9.0
  9
$UNITMODE
 70
     0
  9
$VISRETAIN
 70
     0
  9
$PLINEGEN
 70
     0
  9
$PSLTSCALE
 70
     0
  9
$TREEDEPTH
 70
  3020
  9
$DWGCODEPAGE
  3
undefined
  0
ENDSEC
  0
SECTION
  2
TABLES
  0
TABLE
  2
VPORT
 70
     2
  0
VPORT
  2
*ACTIVE
 70
     0
 10
0.0
 20
0.0
 11
1.0
 21
1.0
 12
81.034456
 22
-11.443244
 13
0.0
 23
0.0
 14
1.0
 24
1.0
 15
0.0
 25
0.0
 16
0.0
 26
0.0
 36
1.0
 17
0.0
 27
0.0
 37
0.0
 40
338.571772
 41
1.767507
 42
50.0
 43
0.0
 44
0.0
 50
0.0
 51
0.0
 71
     0
 72
   100
 73
     1
 74
     0
 75
     0
 76
     0
 77
     0
 78
     0
  0
ENDTAB
  0
TABLE
  2
LTYPE
 70
     2
  0
LTYPE
  2
CONTINUOUS
 70
    64
  3
Solid line
 72
    65
 73
     0
 40
0.0
  0
LTYPE
  2
CENTER
 70
    64
  3
____ _ ____ _ ____ _ ____ _ ____ _ ____ _ ____
 72
    65
 73
     4
 40
2.0
 49
1.25
 49
-0.25
 49
0.25
 49
-0.25
  0
ENDTAB
  0
TABLE
  2
LAYER
 70
     1
  0
LAYER
  2
0
 70
    64
 62
     7
  6
CONTINUOUS
  0
ENDTAB
  0
TABLE
  2
STYLE
 70
     1
  0
STYLE
  2
STANDARD
 70
     0
 40
0.0
 41
1.0
 50
0.0
 71
     0
 42
10.889069
  3
txt
  4

  0
ENDTAB
  0
TABLE
  2
VIEW
 70
     0
  0
ENDTAB
  0
TABLE
  2
UCS
 70
     0
  0
ENDTAB
  0
TABLE
  2
APPID
 70
     1
  0
APPID
  2
ACAD
 70
    64
  0
ENDTAB
  0
TABLE
  2
DIMSTYLE
 70
     0
  0
ENDTAB
  0
ENDSEC
  0
SECTION
  2
BLOCKS
  0
BLOCK
  8
0
  2
*X0
 70
    65
 10
0.0
 20
0.0
 30
0.0
  3
*X
  0
LINE
  8
0
 62
     0
 10
-62.344964
 20
88.799111
 30
0.0
 11
-56.780009
 21
94.364065
 31
0.0
  0
LINE
  8
0
 62
     0
 10
-62.344964
 20
91.450761
 30
0.0
 11
-56.780009
 21
97.015716
 31
0.0
  0
LINE
  8
0
 62
     0
 10
-62.344964
 20
94.102411
 30
0.0
 11
-56.780009
 21
99.667366
 31
0.0
  0
LINE
  8
0
 62
     0
 10
-62.344964
 20
96.754062
 30
0.0
 11
-56.780009
 21
102.319016
 31
0.0
  0
LINE
  8
0
 62
     0
 10
-62.344964
 20
99.405712
 30
0.0
 11
-56.780009
 21
104.970667
 31
0.0
  0
LINE
  8
0
 62
     0
 10
-62.344964
 20
102.057363
 30
0.0
 11
-57.124
 21
107.278327
 31
0.0
  0
LINE
  8
0
 62
     0
 10
-62.344964
 20
104.709013
 30
0.0
 11
-59.36964
 21
107.684337
 31
0.0
  0
LINE
  8
0
 62
     0
 10
-62.344964
 20
86.14746
 30
0.0
 11
-56.780009
 21
91.712415
 31
0.0
  0
LINE
  8
0
 62
     0
 10
-62.344964
 20
83.49581
 30
0.0
 11
-56.780009
 21
89.060764
 31
0.0
  0
LINE
  8
0
 62
     0
 10
-62.344964
 20
80.844159
 30
0.0
 11
-56.780009
 21
86.409114
 31
0.0
  0
LINE
  8
0
 62
     0
 10
-62.084015
 20
78.453458
 30
0.0
 11
-56.780009
 21
83.757463
 31
0.0
  0
LINE
  8
0
 62
     0
 10
-60.188846
 20
77.696976
 30
0.0
 11
-56.780009
 21
81.105813
 31
0.0
  0
LINE
  8
0
 62
     0
 10
-57.549835
 20
77.684337
 30
0.0
 11
-56.780009
 21
78.454163
 31
0.0
  0
ENDBLK
  8
0
  0
BLOCK
  8
0
  2
*X1
 70
    65
 10
0.0
 20
0.0
 30
0.0
  3
*X
  0
LINE
  8
0
 62
     0
 10
-30.711409
 20
91.264511
 30
0.0
 11
-24.841754
 21
97.134166
 31
0.0
  0
LINE
  8
0
 62
     0
 10
-30.711409
 20
93.916161
 30
0.0
 11
-24.841754
 21
99.785817
 31
0.0
  0
LINE
  8
0
 62
     0
 10
-30.711409
 20
96.567812
 30
0.0
 11
-24.841754
 21
102.437467
 31
0.0
  0
LINE
  8
0
 62
     0
 10
-30.711409
 20
99.219462
 30
0.0
 11
-24.841754
 21
105.089117
 31
0.0
  0
LINE
  8
0
 62
     0
 10
-30.711409
 20
101.871113
 30
0.0
 11
-24.841754
 21
107.740768
 31
0.0
  0
LINE
  8
0
 62
     0
 10
-30.711409
 20
104.522763
 30
0.0
 11
-24.841754
 21
110.392418
 31
0.0
  0
LINE
  8
0
 62
     0
 10
-30.711409
 20
107.174414
 30
0.0
 11
-24.971619
 21
112.914203
 31
0.0
  0
LINE
  8
0
 62
     0
 10
-30.711409
 20
109.826064
 30
0.0
 11
-26.853136
 21
113.684337
 31
0.0
  0
LINE
  8
0
 62
     0
 10
-30.711409
 20
88.612861
 30
0.0
 11
-24.841754
 21
94.482516
 31
0.0
  0
LINE
  8
0
 62
     0
 10
-30.711409
 20
85.96121
 30
0.0
 11
-24.841754
 21
91.830865
 31
0.0
  0
LINE
  8
0
 62
     0
 10
-30.711409
 20
83.30956
 30
0.0
 11
-24.841754
 21
89.179215
 31
0.0
  0
LINE
  8
0
 62
     0
 10
-30.711409
 20
80.657909
 30
0.0
 11
-24.841754
 21
86.527564
 31
0.0
  0
LINE
  8
0
 62
     0
 10
-30.173684
 20
78.543984
 30
0.0
 11
-24.841754
 21
83.875914
 31
0.0
  0
LINE
  8
0
 62
     0
 10
-28.358326
 20
77.707691
 30
0.0
 11
-24.841754
 21
81.224264
 31
0.0
  0
ENDBLK
  8
0
  0
BLOCK
  8
0
  2
*X2
 70
    65
 10
0.0
 20
0.0
 30
0.0
  3
*X
  0
LINE
  8
0
 62
     0
 10
3.987929
 20
94.144043
 30
0.0
 11
10.689635
 21
100.845749
 31
0.0
  0
LINE
  8
0
 62
     0
 10
3.987929
 20
96.795694
 30
0.0
 11
10.689635
 21
103.4974
 31
0.0
  0
LINE
  8
0
 62
     0
 10
3.987929
 20
99.447344
 30
0.0
 11
10.689635
 21
106.14905
 31
0.0
  0
LINE
  8
0
 62
     0
 10
3.987929
 20
102.098995
 30
0.0
 11
10.689635
 21
108.8007
 31
0.0
  0
LINE
  8
0
 62
     0
 10
3.987929
 20
104.750645
 30
0.0
 11
10.689635
 21
111.452351
 31
0.0
  0
LINE
  8
0
 62
     0
 10
3.987929
 20
107.402295
 30
0.0
 11
10.689635
 21
114.104001
 31
0.0
  0
LINE
  8
0
 62
     0
 10
3.987929
 20
110.053946
 30
0.0
 11
10.689635
 21
116.755652
 31
0.0
  0
LINE
  8
0
 62
     0
 10
3.987929
 20
112.705596
 30
0.0
 11
10.328152
 21
119.04582
 31
0.0
  0
LINE
  8
0
 62
     0
 10
3.987929
 20
115.357247
 30
0.0
 11
8.315019
 21
119.684337
 31
0.0
  0
LINE
  8
0
 62
     0
 10
4.041152
 20
118.062121
 30
0.0
 11
4.969885
 21
118.990854
 31
0.0
  0
LINE
  8
0
 62
     0
 10
3.987929
 20
91.492393
 30
0.0
 11
10.689635
 21
98.194099
 31
0.0
  0
LINE
  8
0
 62
     0
 10
3.987929
 20
88.840742
 30
0.0
 11
10.689635
 21
95.542448
 31
0.0
  0
LINE
  8
0
 62
     0
 10
3.987929
 20
86.189092
 30
0.0
 11
10.689635
 21
92.890798
 31
0.0
  0
LINE
  8
0
 62
     0
 10
3.987929
 20
83.537442
 30
0.0
 11
10.689635
 21
90.239147
 31
0.0
  0
LINE
  8
0
 62
     0
 10
3.987929
 20
80.885791
 30
0.0
 11
10.689635
 21
87.587497
 31
0.0
  0
LINE
  8
0
 62
     0
 10
4.510865
 20
78.757077
 30
0.0
 11
10.689635
 21
84.935847
 31
0.0
  0
LINE
  8
0
 62
     0
 10
6.21063
 20
77.805192
 30
0.0
 11
10.689635
 21
82.284196
 31
0.0
  0
LINE
  8
0
 62
     0
 10
8.741426
 20
77.684337
 30
0.0
 11
10.689635
 21
79.632546
 31
0.0
  0
ENDBLK
  8
0
  0
BLOCK
  8
0
  2
*X3
 70
    65
 10
0.0
 20
0.0
 30
0.0
  3
*X
  0
LINE
  8
0
 62
     0
 10
44.086124
 20
97.119132
 30
0.0
 11
50.94253
 21
103.975539
 31
0.0
  0
LINE
  8
0
 62
     0
 10
44.086124
 20
99.770783
 30
0.0
 11
50.94253
 21
106.627189
 31
0.0
  0
LINE
  8
0
 62
     0
 10
44.086124
 20
102.422433
 30
0.0
 11
50.94253
 21
109.27884
 31
0.0
  0
LINE
  8
0
 62
     0
 10
44.086124
 20
105.074084
 30
0.0
 11
50.94253
 21
111.93049
 31
0.0
  0
LINE
  8
0
 62
     0
 10
44.086124
 20
107.725734
 30
0.0
 11
50.94253
 21
114.582141
 31
0.0
  0
LINE
  8
0
 62
     0
 10
44.086124
 20
110.377385
 30
0.0
 11
50.94253
 21
117.233791
 31
0.0
  0
LINE
  8
0
 62
     0
 10
44.086124
 20
113.029035
 30
0.0
 11
50.94253
 21
119.885441
 31
0.0
  0
LINE
  8
0
 62
     0
 10
44.086124
 20
115.680685
 30
0.0
 11
50.94253
 21
122.537092
 31
0.0
  0
LINE
  8
0
 62
     0
 10
44.086124
 20
118.332336
 30
0.0
 11
50.690328
 21
124.93654
 31
0.0
  0
LINE
  8
0
 62
     0
 10
44.086124
 20
120.983986
 30
0.0
 11
48.786475
 21
125.684337
 31
0.0
  0
LINE
  8
0
 62
     0
 10
44.086124
 20
123.635637
 30
0.0
 11
45.688966
 21
125.238479
 31
0.0
  0
LINE
  8
0
 62
     0
 10
44.086124
 20
94.467482
 30
0.0
 11
50.94253
 21
101.323888
 31
0.0
  0
LINE
  8
0
 62
     0
 10
44.086124
 20
91.815832
 30
0.0
 11
50.94253
 21
98.672238
 31
0.0
  0
LINE
  8
0
 62
     0
 10
44.086124
 20
89.164181
 30
0.0
 11
50.94253
 21
96.020588
 31
0.0
  0
LINE
  8
0
 62
     0
 10
44.086124
 20
86.512531
 30
0.0
 11
50.94253
 21
93.368937
 31
0.0
  0
LINE
  8
0
 62
     0
 10
44.086124
 20
83.86088
 30
0.0
 11
50.94253
 21
90.717287
 31
0.0
  0
LINE
  8
0
 62
     0
 10
44.086124
 20
81.20923
 30
0.0
 11
50.94253
 21
88.065636
 31
0.0
  0
LINE
  8
0
 62
     0
 10
44.533047
 20
79.004503
 30
0.0
 11
50.94253
 21
85.413986
 31
0.0
  0
LINE
  8
0
 62
     0
 10
46.12113
 20
77.940935
 30
0.0
 11
50.94253
 21
82.762335
 31
0.0
  0
LINE
  8
0
 62
     0
 10
48.516182
 20
77.684337
 30
0.0
 11
50.94253
 21
80.110685
 31
0.0
  0
ENDBLK
  8
0
  0
BLOCK
  8
0
  2
*X4
 70
    65
 10
0.0
 20
0.0
 30
0.0
  3
*X
  0
LINE
  8
0
 62
     0
 10
86.594467
 20
100.736602
 30
0.0
 11
95.164975
 21
109.30711
 31
0.0
  0
LINE
  8
0
 62
     0
 10
86.594467
 20
104.272136
 30
0.0
 11
95.164975
 21
112.842644
 31
0.0
  0
LINE
  8
0
 62
     0
 10
86.594467
 20
107.80767
 30
0.0
 11
95.164975
 21
116.378178
 31
0.0
  0
LINE
  8
0
 62
     0
 10
86.594467
 20
111.343204
 30
0.0
 11
95.164975
 21
119.913712
 31
0.0
  0
LINE
  8
0
 62
     0
 10
86.594467
 20
114.878738
 30
0.0
 11
95.164975
 21
123.449246
 31
0.0
  0
LINE
  8
0
 62
     0
 10
86.594467
 20
118.414272
 30
0.0
 11
95.164975
 21
126.98478
 31
0.0
  0
LINE
  8
0
 62
     0
 10
86.594467
 20
121.949806
 30
0.0
 11
95.164975
 21
130.520314
 31
0.0
  0
LINE
  8
0
 62
     0
 10
86.594467
 20
125.48534
 30
0.0
 11
95.164975
 21
134.055848
 31
0.0
  0
LINE
  8
0
 62
     0
 10
86.594467
 20
129.020874
 30
0.0
 11
94.586452
 21
137.012859
 31
0.0
  0
LINE
  8
0
 62
     0
 10
86.594467
 20
132.556407
 30
0.0
 11
91.722396
 21
137.684337
 31
0.0
  0
LINE
  8
0
 62
     0
 10
86.594467
 20
97.201068
 30
0.0
 11
95.164975
 21
105.771576
 31
0.0
  0
LINE
  8
0
 62
     0
 10
86.594467
 20
93.665534
 30
0.0
 11
95.164975
 21
102.236043
 31
0.0
  0
LINE
  8
0
 62
     0
 10
86.594467
 20
90.130001
 30
0.0
 11
95.164975
 21
98.700509
 31
0.0
  0
LINE
  8
0
 62
     0
 10
86.594467
 20
86.594467
 30
0.0
 11
95.164975
 21
95.164975
 31
0.0
  0
LINE
  8
0
 62
     0
 10
86.594467
 20
83.058933
 30
0.0
 11
95.164975
 21
91.629441
 31
0.0
  0
LINE
  8
0
 62
     0
 10
86.787851
 20
79.716783
 30
0.0
 11
95.164975
 21
88.093907
 31
0.0
  0
LINE
  8
0
 62
     0
 10
88.7602
 20
78.153599
 30
0.0
 11
95.164975
 21
84.558373
 31
0.0
  0
LINE
  8
0
 62
     0
 10
91.826473
 20
77.684337
 30
0.0
 11
95.164975
 21
81.022839
 31
0.0
  0
ENDBLK
  8
0
  0
BLOCK
  8
0
  2
*X5
 70
    65
 10
0.0
 20
0.0
 30
0.0
  3
*X
  0
LINE
  8
0
 62
     0
 10
-110.048566
 20
-64.086625
 30
0.0
 11
-99.763956
 21
-53.802015
 31
0.0
  0
LINE
  8
0
 62
     0
 10
-110.048566
 20
-60.551091
 30
0.0
 11
-99.763956
 21
-50.266481
 31
0.0
  0
LINE
  8
0
 62
     0
 10
-110.048566
 20
-57.015557
 30
0.0
 11
-99.763956
 21
-46.730947
 31
0.0
  0
LINE
  8
0
 62
     0
 10
-110.048566
 20
-53.480023
 30
0.0
 11
-99.763956
 21
-43.195414
 31
0.0
  0
LINE
  8
0
 62
     0
 10
-110.048566
 20
-49.944489
 30
0.0
 11
-99.763956
 21
-39.65988
 31
0.0
  0
LINE
  8
0
 62
     0
 10
-110.048566
 20
-46.408955
 30
0.0
 11
-99.763956
 21
-36.124346
 31
0.0
  0
LINE
  8
0
 62
     0
 10
-110.048566
 20
-42.873422
 30
0.0
 11
-99.763956
 21
-32.588812
 31
0.0
  0
LINE
  8
0
 62
     0
 10
-110.048566
 20
-39.337888
 30
0.0
 11
-99.763956
 21
-29.053278
 31
0.0
  0
LINE
  8
0
 62
     0
 10
-110.048566
 20
-35.802354
 30
0.0
 11
-99.763956
 21
-25.517744
 31
0.0
  0
LINE
  8
0
 62
     0
 10
-110.048566
 20
-32.26682
 30
0.0
 11
-99.763956
 21
-21.98221
 31
0.0
  0
LINE
  8
0
 62
     0
 10
-110.048566
 20
-28.731286
 30
0.0
 11
-101.758028
 21
-20.440748
 31
0.0
  0
LINE
  8
0
 62
     0
 10
-110.048566
 20
-25.195752
 30
0.0
 11
-105.310445
 21
-20.457631
 31
0.0
  0
LINE
  8
0
 62
     0
 10
-110.048566
 20
-67.622159
 30
0.0
 11
-99.763956
 21
-57.337549
 31
0.0
  0
LINE
  8
0
 62
     0
 10
-110.048566
 20
-71.157693
 30
0.0
 11
-99.763956
 21
-60.873083
 31
0.0
  0
LINE
  8
0
 62
     0
 10
-110.048566
 20
-74.693227
 30
0.0
 11
-99.763956
 21
-64.408617
 31
0.0
  0
LINE
  8
0
 62
     0
 10
-110.048566
 20
-78.228761
 30
0.0
 11
-99.763956
 21
-67.944151
 31
0.0
  0
LINE
  8
0
 62
     0
 10
-110.048566
 20
-81.764294
 30
0.0
 11
-99.763956
 21
-71.479685
 31
0.0
  0
LINE
  8
0
 62
     0
 10
-110.048566
 20
-85.299828
 30
0.0
 11
-99.763956
 21
-75.015219
 31
0.0
  0
LINE
  8
0
 62
     0
 10
-110.048566
 20
-88.835362
 30
0.0
 11
-99.763956
 21
-78.550753
 31
0.0
  0
LINE
  8
0
 62
     0
 10
-108.747901
 20
-91.070232
 30
0.0
 11
-99.763956
 21
-82.086286
 31
0.0
  0
LINE
  8
0
 62
     0
 10
-106.38991
 20
-92.247775
 30
0.0
 11
-99.763956
 21
-85.62182
 31
0.0
  0
LINE
  8
0
 62
     0
 10
-103.04735
 20
-92.440748
 30
0.0
 11
-99.763956
 21
-89.157354
 31
0.0
  0
ENDBLK
  8
0
  0
BLOCK
  8
0
  2
*X6
 70
    65
 10
0.0
 20
0.0
 30
0.0
  3
*X
  0
LINE
  8
0
 62
     0
 10
-49.027486
 20
-52.56302
 30
0.0
 11
-35.719373
 21
-39.254907
 31
0.0
  0
LINE
  8
0
 62
     0
 10
-49.027486
 20
-49.027486
 30
0.0
 11
-35.719373
 21
-35.719373
 31
0.0
  0
LINE
  8
0
 62
     0
 10
-49.027486
 20
-45.491952
 30
0.0
 11
-35.719373
 21
-32.183839
 31
0.0
  0
LINE
  8
0
 62
     0
 10
-49.027486
 20
-41.956418
 30
0.0
 11
-35.719373
 21
-28.648306
 31
0.0
  0
LINE
  8
0
 62
     0
 10
-49.027486
 20
-38.420884
 30
0.0
 11
-35.719373
 21
-25.112772
 31
0.0
  0
LINE
  8
0
 62
     0
 10
-49.027486
 20
-34.88535
 30
0.0
 11
-35.719373
 21
-21.577238
 31
0.0
  0
LINE
  8
0
 62
     0
 10
-49.027486
 20
-31.349816
 30
0.0
 11
-35.719373
 21
-18.041704
 31
0.0
  0
LINE
  8
0
 62
     0
 10
-49.027486
 20
-27.814282
 30
0.0
 11
-35.719373
 21
-14.50617
 31
0.0
  0
LINE
  8
0
 62
     0
 10
-49.027486
 20
-24.278748
 30
0.0
 11
-35.719373
 21
-10.970636
 31
0.0
  0
LINE
  8
0
 62
     0
 10
-49.027486
 20
-20.743215
 30
0.0
 11
-35.719373
 21
-7.435102
 31
0.0
  0
LINE
  8
0
 62
     0
 10
-49.027486
 20
-17.207681
 30
0.0
 11
-35.864963
 21
-4.045158
 31
0.0
  0
LINE
  8
0
 62
     0
 10
-49.027486
 20
-13.672147
 30
0.0
 11
-37.796087
 21
-2.440748
 31
0.0
  0
LINE
  8
0
 62
     0
 10
-49.027486
 20
-10.136613
 30
0.0
 11
-41.331621
 21
-2.440748
 31
0.0
  0
LINE
  8
0
 62
     0
 10
-49.027486
 20
-6.601079
 30
0.0
 11
-45.506909
 21
-3.080502
 31
0.0
  0
LINE
  8
0
 62
     0
 10
-49.027486
 20
-56.098554
 30
0.0
 11
-35.719373
 21
-42.790441
 31
0.0
  0
LINE
  8
0
 62
     0
 10
-49.027486
 20
-59.634088
 30
0.0
 11
-35.719373
 21
-46.325975
 31
0.0
  0
LINE
  8
0
 62
     0
 10
-49.027486
 20
-63.169621
 30
0.0
 11
-35.719373
 21
-49.861509
 31
0.0
  0
LINE
  8
0
 62
     0
 10
-49.027486
 20
-66.705155
 30
0.0
 11
-35.719373
 21
-53.397043
 31
0.0
  0
LINE
  8
0
 62
     0
 10
-49.027486
 20
-70.240689
 30
0.0
 11
-35.719373
 21
-56.932577
 31
0.0
  0
LINE
  8
0
 62
     0
 10
-49.027486
 20
-73.776223
 30
0.0
 11
-35.719373
 21
-60.468111
 31
0.0
  0
LINE
  8
0
 62
     0
 10
-49.027486
 20
-77.311757
 30
0.0
 11
-35.719373
 21
-64.003645
 31
0.0
  0
LINE
  8
0
 62
     0
 10
-49.027486
 20
-80.847291
 30
0.0
 11
-35.719373
 21
-67.539179
 31
0.0
  0
LINE
  8
0
 62
     0
 10
-49.027486
 20
-84.382825
 30
0.0
 11
-35.719373
 21
-71.074712
 31
0.0
  0
LINE
  8
0
 62
     0
 10
-49.027486
 20
-87.918359
 30
0.0
 11
-35.719373
 21
-74.610246
 31
0.0
  0
LINE
  8
0
 62
     0
 10
-47.840032
 20
-90.266439
 30
0.0
 11
-35.719373
 21
-78.14578
 31
0.0
  0
LINE
  8
0
 62
     0
 10
-45.736423
 20
-91.698364
 30
0.0
 11
-35.719373
 21
-81.681314
 31
0.0
  0
LINE
  8
0
 62
     0
 10
-42.925047
 20
-92.422522
 30
0.0
 11
-35.719373
 21
-85.216848
 31
0.0
  0
LINE
  8
0
 62
     0
 10
-39.407739
 20
-92.440748
 30
0.0
 11
-35.719373
 21
-88.752382
 31
0.0
  0
ENDBLK
  8
0
  0
BLOCK
  8
0
  2
*X7
 70
    65
 10
0.0
 20
0.0
 30
0.0
  3
*X
  0
LINE
  8
0
 62
     0
 10
28.040342
 20
-46.20587
 30
0.0
 11
43.794607
 21
-30.451605
 31
0.0
  0
LINE
  8
0
 62
     0
 10
28.040342
 20
-42.670336
 30
0.0
 11
43.794607
 21
-26.916071
 31
0.0
  0
LINE
  8
0
 62
     0
 10
28.040342
 20
-39.134802
 30
0.0
 11
43.794607
 21
-23.380537
 31
0.0
  0
LINE
  8
0
 62
     0
 10
28.040342
 20
-35.599268
 30
0.0
 11
43.794607
 21
-19.845003
 31
0.0
  0
LINE
  8
0
 62
     0
 10
28.040342
 20
-32.063734
 30
0.0
 11
43.794607
 21
-16.309469
 31
0.0
  0
LINE
  8
0
 62
     0
 10
28.040342
 20
-28.5282
 30
0.0
 11
43.794607
 21
-12.773935
 31
0.0
  0
LINE
  8
0
 62
     0
 10
28.040342
 20
-24.992666
 30
0.0
 11
43.794607
 21
-9.238401
 31
0.0
  0
LINE
  8
0
 62
     0
 10
28.040342
 20
-21.457132
 30
0.0
 11
43.794607
 21
-5.702867
 31
0.0
  0
LINE
  8
0
 62
     0
 10
28.040342
 20
-17.921598
 30
0.0
 11
43.794607
 21
-2.167333
 31
0.0
  0
LINE
  8
0
 62
     0
 10
28.040342
 20
-14.386064
 30
0.0
 11
43.794607
 21
1.3682
 31
0.0
  0
LINE
  8
0
 62
     0
 10
28.040342
 20
-10.85053
 30
0.0
 11
43.794607
 21
4.903734
 31
0.0
  0
LINE
  8
0
 62
     0
 10
28.040342
 20
-7.314997
 30
0.0
 11
43.794607
 21
8.439268
 31
0.0
  0
LINE
  8
0
 62
     0
 10
28.040342
 20
-3.779463
 30
0.0
 11
43.794607
 21
11.974802
 31
0.0
  0
LINE
  8
0
 62
     0
 10
28.040342
 20
-0.243929
 30
0.0
 11
42.819065
 21
14.534794
 31
0.0
  0
LINE
  8
0
 62
     0
 10
28.040342
 20
3.291605
 30
0.0
 11
40.307989
 21
15.559252
 31
0.0
  0
LINE
  8
0
 62
     0
 10
28.040342
 20
6.827139
 30
0.0
 11
36.772456
 21
15.559252
 31
0.0
  0
LINE
  8
0
 62
     0
 10
28.040342
 20
10.362673
 30
0.0
 11
32.622862
 21
14.945192
 31
0.0
  0
LINE
  8
0
 62
     0
 10
28.040342
 20
-49.741403
 30
0.0
 11
43.794607
 21
-33.987139
 31
0.0
  0
LINE
  8
0
 62
     0
 10
28.040342
 20
-53.276937
 30
0.0
 11
43.794607
 21
-37.522673
 31
0.0
  0
LINE
  8
0
 62
     0
 10
28.040342
 20
-56.812471
 30
0.0
 11
43.794607
 21
-41.058206
 31
0.0
  0
LINE
  8
0
 62
     0
 10
28.040342
 20
-60.348005
 30
0.0
 11
43.794607
 21
-44.59374
 31
0.0
  0
LINE
  8
0
 62
     0
 10
28.040342
 20
-63.883539
 30
0.0
 11
43.794607
 21
-48.129274
 31
0.0
  0
LINE
  8
0
 62
     0
 10
28.040342
 20
-67.419073
 30
0.0
 11
43.794607
 21
-51.664808
 31
0.0
  0
LINE
  8
0
 62
     0
 10
28.040342
 20
-70.954607
 30
0.0
 11
43.794607
 21
-55.200342
 31
0.0
  0
LINE
  8
0
 62
     0
 10
28.040342
 20
-74.490141
 30
0.0
 11
43.794607
 21
-58.735876
 31
0.0
  0
LINE
  8
0
 62
     0
 10
28.040342
 20
-78.025675
 30
0.0
 11
43.794607
 21
-62.27141
 31
0.0
  0
LINE
  8
0
 62
     0
 10
28.040342
 20
-81.561209
 30
0.0
 11
43.794607
 21
-65.806944
 31
0.0
  0
LINE
  8
0
 62
     0
 10
28.040342
 20
-85.096743
 30
0.0
 11
43.794607
 21
-69.342478
 31
0.0
  0
LINE
  8
0
 62
     0
 10
28.239155
 20
-88.433464
 30
0.0
 11
43.794607
 21
-72.878012
 31
0.0
  0
LINE
  8
0
 62
     0
 10
29.940182
 20
-90.267971
 30
0.0
 11
43.794607
 21
-76.413546
 31
0.0
  0
LINE
  8
0
 62
     0
 10
32.122818
 20
-91.620869
 30
0.0
 11
43.794607
 21
-79.949079
 31
0.0
  0
LINE
  8
0
 62
     0
 10
34.900072
 20
-92.379148
 30
0.0
 11
43.794607
 21
-83.484613
 31
0.0
  0
LINE
  8
0
 62
     0
 10
38.374007
 20
-92.440748
 30
0.0
 11
43.794607
 21
-87.020147
 31
0.0
  0
ENDBLK
  8
0
  0
BLOCK
  8
0
  2
*X8
 70
    65
 10
0.0
 20
0.0
 30
0.0
  3
*X
  0
LINE
  8
0
 62
     0
 10
-110.048566
 20
84.405799
 30
0.0
 11
-106.775063
 21
87.679302
 31
0.0
  0
LINE
  8
0
 62
     0
 10
-110.048566
 20
86.173566
 30
0.0
 11
-106.775063
 21
89.447069
 31
0.0
  0
LINE
  8
0
 62
     0
 10
-110.048566
 20
87.941333
 30
0.0
 11
-106.775063
 21
91.214836
 31
0.0
  0
LINE
  8
0
 62
     0
 10
-110.048566
 20
89.7091
 30
0.0
 11
-106.775063
 21
92.982603
 31
0.0
  0
LINE
  8
0
 62
     0
 10
-110.048566
 20
91.476867
 30
0.0
 11
-106.775063
 21
94.75037
 31
0.0
  0
LINE
  8
0
 62
     0
 10
-110.048566
 20
93.244634
 30
0.0
 11
-107.608863
 21
95.684337
 31
0.0
  0
LINE
  8
0
 62
     0
 10
-110.048566
 20
95.012401
 30
0.0
 11
-109.485138
 21
95.575829
 31
0.0
  0
LINE
  8
0
 62
     0
 10
-110.048566
 20
82.638032
 30
0.0
 11
-106.775063
 21
85.911535
 31
0.0
  0
LINE
  8
0
 62
     0
 10
-110.048566
 20
80.870265
 30
0.0
 11
-106.775063
 21
84.143768
 31
0.0
  0
LINE
  8
0
 62
     0
 10
-110.048566
 20
79.102498
 30
0.0
 11
-106.775063
 21
82.376001
 31
0.0
  0
LINE
  8
0
 62
     0
 10
-109.568514
 20
77.814783
 30
0.0
 11
-106.775063
 21
80.608234
 31
0.0
  0
LINE
  8
0
 62
     0
 10
-107.931193
 20
77.684337
 30
0.0
 11
-106.775063
 21
78.840467
 31
0.0
  0
ENDBLK
  8
0
  0
BLOCK
  8
0
  2
*X9
 70
    65
 10
0.0
 20
0.0
 30
0.0
  3
*X
  0
LINE
  8
0
 62
     0
 10
-88.474874
 20
86.534054
 30
0.0
 11
-84.369321
 21
90.639608
 31
0.0
  0
LINE
  8
0
 62
     0
 10
-88.474874
 20
88.301821
 30
0.0
 11
-84.369321
 21
92.407375
 31
0.0
  0
LINE
  8
0
 62
     0
 10
-88.474874
 20
90.069588
 30
0.0
 11
-84.369321
 21
94.175142
 31
0.0
  0
LINE
  8
0
 62
     0
 10
-88.474874
 20
91.837355
 30
0.0
 11
-84.369321
 21
95.942908
 31
0.0
  0
LINE
  8
0
 62
     0
 10
-88.474874
 20
93.605122
 30
0.0
 11
-84.369321
 21
97.710675
 31
0.0
  0
LINE
  8
0
 62
     0
 10
-88.474874
 20
95.372889
 30
0.0
 11
-84.369321
 21
99.478442
 31
0.0
  0
LINE
  8
0
 62
     0
 10
-88.474874
 20
97.140656
 30
0.0
 11
-84.450257
 21
101.165273
 31
0.0
  0
LINE
  8
0
 62
     0
 10
-88.474874
 20
98.908423
 30
0.0
 11
-85.69896
 21
101.684337
 31
0.0
  0
LINE
  8
0
 62
     0
 10
-88.474874
 20
100.67619
 30
0.0
 11
-87.60298
 21
101.548084
 31
0.0
  0
LINE
  8
0
 62
     0
 10
-88.474874
 20
84.766287
 30
0.0
 11
-84.369321
 21
88.871841
 31
0.0
  0
LINE
  8
0
 62
     0
 10
-88.474874
 20
82.99852
 30
0.0
 11
-84.369321
 21
87.104074
 31
0.0
  0
LINE
  8
0
 62
     0
 10
-88.474874
 20
81.230753
 30
0.0
 11
-84.369321
 21
85.336307
 31
0.0
  0
LINE
  8
0
 62
     0
 10
-88.474874
 20
79.462986
 30
0.0
 11
-84.369321
 21
83.56854
 31
0.0
  0
LINE
  8
0
 62
     0
 10
-88.151227
 20
78.018867
 30
0.0
 11
-84.369321
 21
81.800773
 31
0.0
  0
LINE
  8
0
 62
     0
 10
-86.716153
 20
77.686173
 30
0.0
 11
-84.369321
 21
80.033006
 31
0.0
  0
ENDBLK
  8
0
  0
ENDSEC
  0
SECTION
  2
ENTITIES
  0
LINE
  8
0
 10
-77.216544
 20
42.877503
 30
0.0
 11
-84.722097
 21
42.877503
 31
0.0
  0
LINE
  8
0
 10
-73.463767
 20
49.377503
 30
0.0
 11
-77.216544
 21
42.877503
 31
0.0
  0
LINE
  8
0
 10
-77.216544
 20
55.877503
 30
0.0
 11
-73.463767
 21
49.377503
 31
0.0
  0
LINE
  8
0
 10
-84.722097
 20
55.877503
 30
0.0
 11
-77.216544
 21
55.877503
 31
0.0
  0
LINE
  8
0
 10
-88.474874
 20
49.377503
 30
0.0
 11
-84.722097
 21
55.877503
 31
0.0
  0
LINE
  8
0
 10
-84.722097
 20
42.877503
 30
0.0
 11
-88.474874
 21
49.377503
 31
0.0
  0
CIRCLE
  8
0
 10
-80.969321
 20
49.377503
 30
0.0
 40
6.5
  0
CIRCLE
  8
0
 10
-80.969321
 20
49.377503
 30
0.0
 40
4.0
  0
CIRCLE
  8
0
 10
-80.969321
 20
49.377503
 30
0.0
 40
3.4
  0
LINE
  8
0
 10
-101.388312
 20
44.377503
 30
0.0
 11
-107.161814
 21
44.377503
 31
0.0
  0
LINE
  8
0
 10
-98.50156
 20
49.377503
 30
0.0
 11
-101.388312
 21
44.377503
 31
0.0
  0
LINE
  8
0
 10
-101.388312
 20
54.377503
 30
0.0
 11
-98.50156
 21
49.377503
 31
0.0
  0
LINE
  8
0
 10
-107.161814
 20
54.377503
 30
0.0
 11
-101.388312
 21
54.377503
 31
0.0
  0
LINE
  8
0
 10
-110.048566
 20
49.377503
 30
0.0
 11
-107.161814
 21
54.377503
 31
0.0
  0
LINE
  8
0
 10
-107.161814
 20
44.377503
 30
0.0
 11
-110.048566
 21
49.377503
 31
0.0
  0
LINE
  8
0
 10
-110.048566
 20
77.984337
 30
0.0
 11
-110.048566
 21
95.384337
 31
0.0
  0
LINE
  8
0
 10
-98.50156
 20
77.984337
 30
0.0
 11
-98.50156
 21
95.384337
 31
0.0
  0
LINE
  8
0
  6
CENTER
 10
-104.275063
 20
76.693094
 30
0.0
 11
-104.275063
 21
96.915773
 31
0.0
  0
CIRCLE
  8
0
 10
-104.275063
 20
49.377503
 30
0.0
 40
5.0
  0
LINE
  8
0
 10
-101.388312
 20
77.984337
 30
0.0
 11
-101.388312
 21
95.384337
 31
0.0
  0
CIRCLE
  8
0
 10
-104.275063
 20
49.377503
 30
0.0
 40
3.0
  0
CIRCLE
  8
0
 10
-104.275063
 20
49.377503
 30
0.0
 40
2.5
  0
LINE
  8
0
 10
-99.944936
 20
95.684337
 30
0.0
 11
-108.605191
 21
95.684337
 31
0.0
  0
ARC
  8
0
 10
-108.60519
 20
92.062115
 30
0.0
 40
3.622222
 50
90.000013
 51
113.483062
  0
ARC
  8
0
 10
-99.944936
 20
92.062115
 30
0.0
 40
3.622222
 50
66.516938
 51
113.483062
  0
ARC
  8
0
 10
-104.275063
 20
81.645448
 30
0.0
 40
14.038889
 50
78.133892
 51
90.0
  0
LINE
  8
0
 10
-106.775063
 20
78.184337
 30
0.0
 11
-106.775063
 21
95.184337
 31
0.0
  0
LINE
  8
0
 10
-107.275063
 20
77.684337
 30
0.0
 11
-107.275063
 21
95.684337
 31
0.0
  0
LINE
  8
0
 10
-107.275063
 20
95.684337
 30
0.0
 11
-106.775063
 21
95.184337
 31
0.0
  0
LINE
  8
0
 10
-107.275063
 20
77.684337
 30
0.0
 11
-106.775063
 21
78.184337
 31
0.0
  0
LINE
  8
0
 10
-106.775063
 20
95.184337
 30
0.0
 11
-104.275063
 21
95.184337
 31
0.0
  0
LINE
  8
0
 10
-106.775063
 20
78.184337
 30
0.0
 11
-104.275063
 21
78.184337
 31
0.0
  0
ARC
  8
0
 10
-80.969321
 20
87.351004
 30
0.0
 40
14.333333
 50
74.821821
 51
90.0
  0
ARC
  8
0
 10
-75.340156
 20
97.913504
 30
0.0
 40
3.770833
 50
60.158276
 51
119.841724
  0
ARC
  8
0
 10
-86.598486
 20
97.913504
 30
0.0
 40
3.770833
 50
90.0
 51
119.841724
  0
LINE
  8
0
 10
-77.216544
 20
78.184337
 30
0.0
 11
-77.216544
 21
101.184337
 31
0.0
  0
LINE
  8
0
 10
-73.463767
 20
78.184337
 30
0.0
 11
-73.463767
 21
101.184337
 31
0.0
  0
LINE
  8
0
 10
-88.474874
 20
78.184337
 30
0.0
 11
-88.474874
 21
101.184337
 31
0.0
  0
LINE
  8
0
  6
CENTER
 10
-80.969321
 20
75.714739
 30
0.0
 11
-80.969321
 21
103.49767
 31
0.0
  0
LINE
  8
0
 10
-86.598487
 20
101.684337
 30
0.0
 11
-75.340156
 21
101.684337
 31
0.0
  0
LINE
  8
0
  6
CONTINUOUS
 10
-84.969321
 20
77.684337
 30
0.0
 11
-84.969321
 21
101.684337
 31
0.0
  0
LINE
  8
0
  6
CONTINUOUS
 10
-84.369321
 20
78.284337
 30
0.0
 11
-84.369321
 21
101.084337
 31
0.0
  0
LINE
  8
0
 10
-84.969321
 20
77.684337
 30
0.0
 11
-84.369321
 21
78.284337
 31
0.0
  0
LINE
  8
0
 10
-84.969321
 20
101.684337
 30
0.0
 11
-84.369321
 21
101.084337
 31
0.0
  0
LINE
  8
0
 10
-84.369321
 20
101.084337
 30
0.0
 11
-80.969321
 21
101.084337
 31
0.0
  0
LINE
  8
0
 10
-84.369321
 20
78.284337
 30
0.0
 11
-80.969321
 21
78.284337
 31
0.0
  0
CIRCLE
  8
0
 10
-52.530009
 20
49.377503
 30
0.0
 40
5.0
  0
CIRCLE
  8
0
 10
-52.530009
 20
49.377503
 30
0.0
 40
4.25
  0
CIRCLE
  8
0
 10
-52.530009
 20
49.377503
 30
0.0
 40
8.5
  0
LINE
  8
0
 10
-57.437487
 20
40.877503
 30
0.0
 11
-47.622532
 21
40.877503
 31
0.0
  0
LINE
  8
0
 10
-47.622532
 20
40.877503
 30
0.0
 11
-42.715055
 21
49.377503
 31
0.0
  0
LINE
  8
0
 10
-42.715055
 20
49.377503
 30
0.0
 11
-47.622532
 21
57.877503
 31
0.0
  0
LINE
  8
0
 10
-47.622532
 20
57.877503
 30
0.0
 11
-57.437487
 21
57.877503
 31
0.0
  0
LINE
  8
0
 10
-57.437487
 20
57.877503
 30
0.0
 11
-62.344964
 21
49.377503
 31
0.0
  0
LINE
  8
0
 10
-62.344964
 20
49.377503
 30
0.0
 11
-57.437487
 21
40.877503
 31
0.0
  0
LINE
  8
0
  6
CENTER
 10
-52.530009
 20
76.186026
 30
0.0
 11
-52.530009
 21
109.068693
 31
0.0
  0
LINE
  8
0
 10
-62.344964
 20
78.684337
 30
0.0
 11
-62.344964
 21
106.684337
 31
0.0
  0
LINE
  8
0
 10
-42.715055
 20
78.684337
 30
0.0
 11
-42.715055
 21
106.684337
 31
0.0
  0
LINE
  8
0
 10
-47.622532
 20
78.684337
 30
0.0
 11
-47.622532
 21
106.684337
 31
0.0
  0
LINE
  8
0
 10
-59.891226
 20
107.684337
 30
0.0
 11
-45.168793
 21
107.684337
 31
0.0
  0
ARC
  8
0
 10
-59.891225
 20
104.17392
 30
0.0
 40
3.510417
 50
90.000007
 51
134.345856
  0
ARC
  8
0
 10
-45.168793
 20
104.17392
 30
0.0
 40
3.510417
 50
45.654144
 51
134.345856
  0
ARC
  8
0
 10
-52.530009
 20
95.14267
 30
0.0
 40
12.541667
 50
66.964968
 51
90.0
  0
LINE
  8
0
 10
-56.780009
 20
78.434337
 30
0.0
 11
-56.780009
 21
106.934337
 31
0.0
  0
LINE
  8
0
 10
-57.530009
 20
77.684337
 30
0.0
 11
-57.530009
 21
107.684337
 31
0.0
  0
LINE
  8
0
 10
-57.530009
 20
77.684337
 30
0.0
 11
-56.780009
 21
78.434337
 31
0.0
  0
LINE
  8
0
 10
-57.530009
 20
107.684337
 30
0.0
 11
-56.780009
 21
106.934337
 31
0.0
  0
LINE
  8
0
 10
-56.780009
 20
78.434337
 30
0.0
 11
-52.530009
 21
78.434337
 31
0.0
  0
LINE
  8
0
 10
-56.780009
 20
106.934337
 30
0.0
 11
-52.530009
 21
106.934337
 31
0.0
  0
CIRCLE
  8
0
 10
-19.741754
 20
49.377503
 30
0.0
 40
6.0
  0
CIRCLE
  8
0
 10
-19.741754
 20
49.377503
 30
0.0
 40
5.1
  0
CIRCLE
  8
0
 10
-19.741754
 20
49.377503
 30
0.0
 40
9.5
  0
LINE
  8
0
 10
-25.226581
 20
58.877503
 30
0.0
 11
-30.711409
 21
49.377503
 31
0.0
  0
LINE
  8
0
 10
-30.711409
 20
49.377503
 30
0.0
 11
-25.226581
 21
39.877503
 31
0.0
  0
LINE
  8
0
 10
-25.226581
 20
39.877503
 30
0.0
 11
-14.256926
 21
39.877503
 31
0.0
  0
LINE
  8
0
 10
-14.256926
 20
39.877503
 30
0.0
 11
-8.772099
 21
49.377503
 31
0.0
  0
LINE
  8
0
 10
-8.772099
 20
49.377503
 30
0.0
 11
-14.256926
 21
58.877503
 31
0.0
  0
LINE
  8
0
 10
-14.256926
 20
58.877503
 30
0.0
 11
-25.226581
 21
58.877503
 31
0.0
  0
LINE
  8
0
 10
-8.772099
 20
79.184337
 30
0.0
 11
-8.772099
 21
112.184337
 31
0.0
  0
LINE
  8
0
 10
-14.256926
 20
79.184337
 30
0.0
 11
-14.256926
 21
112.184337
 31
0.0
  0
LINE
  8
0
 10
-24.841754
 20
78.584337
 30
0.0
 11
-24.841754
 21
112.784337
 31
0.0
  0
LINE
  8
0
 10
-25.741754
 20
77.684337
 30
0.0
 11
-25.741754
 21
113.684337
 31
0.0
  0
LINE
  8
0
 10
-30.711409
 20
79.184337
 30
0.0
 11
-30.711409
 21
112.184337
 31
0.0
  0
LINE
  8
0
 10
-27.968995
 20
113.684337
 30
0.0
 11
-11.514512
 21
113.684337
 31
0.0
  0
ARC
  8
0
 10
-11.514512
 20
110.427393
 30
0.0
 40
3.256944
 50
32.645908
 51
147.354092
  0
ARC
  8
0
 10
-27.968995
 20
110.427393
 30
0.0
 40
3.256944
 50
90.000001
 51
147.354092
  0
ARC
  8
0
 10
-19.741754
 20
102.906559
 30
0.0
 40
10.777778
 50
59.409311
 51
90.0
  0
LINE
  8
0
 10
-25.741754
 20
77.684337
 30
0.0
 11
-24.841754
 21
78.584337
 31
0.0
  0
LINE
  8
0
 10
-24.841754
 20
78.584337
 30
0.0
 11
-19.741754
 21
78.584337
 31
0.0
  0
LINE
  8
0
 10
-25.741754
 20
113.684337
 30
0.0
 11
-24.841754
 21
112.784337
 31
0.0
  0
LINE
  8
0
 10
-24.841754
 20
112.784337
 30
0.0
 11
-19.741754
 21
112.784337
 31
0.0
  0
LINE
  8
0
  6
CENTER
 10
-19.741754
 20
74.734546
 30
0.0
 11
-19.741754
 21
116.408512
 31
0.0
  0
CIRCLE
  8
0
 10
16.689635
 20
49.377503
 30
0.0
 40
7.0
  0
CIRCLE
  8
0
 10
16.689635
 20
49.377503
 30
0.0
 40
6.0
  0
CIRCLE
  8
0
 10
16.689635
 20
49.377503
 30
0.0
 40
11.0
  0
LINE
  8
0
 10
23.040488
 20
60.377503
 30
0.0
 11
10.338782
 21
60.377503
 31
0.0
  0
LINE
  8
0
 10
10.338782
 20
60.377503
 30
0.0
 11
3.987929
 21
49.377503
 31
0.0
  0
LINE
  8
0
 10
3.987929
 20
49.377503
 30
0.0
 11
10.338782
 21
38.377503
 31
0.0
  0
LINE
  8
0
 10
10.338782
 20
38.377503
 30
0.0
 11
23.040488
 21
38.377503
 31
0.0
  0
LINE
  8
0
 10
23.040488
 20
38.377503
 30
0.0
 11
29.39134
 21
49.377503
 31
0.0
  0
LINE
  8
0
 10
29.39134
 20
49.377503
 30
0.0
 11
23.040488
 21
60.377503
 31
0.0
  0
LINE
  8
0
 10
29.39134
 20
79.384337
 30
0.0
 11
29.39134
 21
117.984337
 31
0.0
  0
LINE
  8
0
 10
23.040488
 20
79.384337
 30
0.0
 11
23.040488
 21
117.984337
 31
0.0
  0
LINE
  8
0
 10
10.689635
 20
78.684337
 30
0.0
 11
10.689635
 21
118.684337
 31
0.0
  0
LINE
  8
0
 10
9.689635
 20
77.684337
 30
0.0
 11
9.689635
 21
119.684337
 31
0.0
  0
LINE
  8
0
 10
3.987929
 20
79.384337
 30
0.0
 11
3.987929
 21
117.984337
 31
0.0
  0
LINE
  8
0
 10
7.163355
 20
119.684337
 30
0.0
 11
26.215914
 21
119.684337
 31
0.0
  0
ARC
  8
0
 10
26.215914
 20
115.868651
 30
0.0
 40
3.815686
 50
33.674266
 51
146.325734
  0
ARC
  8
0
 10
7.163355
 20
115.868651
 30
0.0
 40
3.815686
 50
90.0
 51
146.325734
  0
ARC
  8
0
 10
16.689635
 20
106.971592
 30
0.0
 40
12.712745
 50
60.028721
 51
89.999998
  0
LINE
  8
0
  6
CENTER
 10
16.689635
 20
76.109542
 30
0.0
 11
16.689635
 21
122.963749
 31
0.0
  0
LINE
  8
0
 10
9.689635
 20
77.684337
 30
0.0
 11
10.689635
 21
78.684337
 31
0.0
  0
LINE
  8
0
 10
9.689635
 20
119.684337
 30
0.0
 11
10.689635
 21
118.684337
 31
0.0
  0
LINE
  8
0
 10
10.689635
 20
118.684337
 30
0.0
 11
16.689635
 21
118.684337
 31
0.0
  0
LINE
  8
0
 10
10.689635
 20
78.684337
 30
0.0
 11
16.689635
 21
78.684337
 31
0.0
  0
CIRCLE
  8
0
 10
57.94253
 20
49.377503
 30
0.0
 40
8.0
  0
CIRCLE
  8
0
 10
57.94253
 20
49.377503
 30
0.0
 40
7.0
  0
CIRCLE
  8
0
 10
57.94253
 20
49.377503
 30
0.0
 40
12.0
  0
LINE
  8
0
 10
51.014327
 20
37.377503
 30
0.0
 11
64.870734
 21
37.377503
 31
0.0
  0
LINE
  8
0
 10
64.870734
 20
37.377503
 30
0.0
 11
71.798937
 21
49.377503
 31
0.0
  0
LINE
  8
0
 10
71.798937
 20
49.377503
 30
0.0
 11
64.870734
 21
61.377503
 31
0.0
  0
LINE
  8
0
 10
64.870734
 20
61.377503
 30
0.0
 11
51.014327
 21
61.377503
 31
0.0
  0
LINE
  8
0
 10
51.014327
 20
61.377503
 30
0.0
 11
44.086124
 21
49.377503
 31
0.0
  0
LINE
  8
0
 10
44.086124
 20
49.377503
 30
0.0
 11
51.014327
 21
37.377503
 31
0.0
  0
LINE
  8
0
 10
71.798937
 20
79.584337
 30
0.0
 11
71.798937
 21
123.784337
 31
0.0
  0
LINE
  8
0
 10
64.870734
 20
79.584337
 30
0.0
 11
64.870734
 21
123.784337
 31
0.0
  0
LINE
  8
0
 10
50.94253
 20
78.684337
 30
0.0
 11
50.94253
 21
124.684337
 31
0.0
  0
LINE
  8
0
 10
49.94253
 20
77.684337
 30
0.0
 11
49.94253
 21
125.684337
 31
0.0
  0
LINE
  8
0
 10
47.550226
 20
125.684337
 30
0.0
 11
68.334836
 21
125.684337
 31
0.0
  0
LINE
  8
0
 10
44.086124
 20
79.584337
 30
0.0
 11
44.086124
 21
123.784337
 31
0.0
  0
LINE
  8
0
  6
CENTER
 10
57.94253
 20
74.543082
 30
0.0
 11
57.94253
 21
128.133172
 31
0.0
  0
ARC
  8
0
 10
68.334835
 20
121.576442
 30
0.0
 40
4.107895
 50
32.511982
 51
147.488018
  0
ARC
  8
0
 10
47.550225
 20
121.576442
 30
0.0
 40
4.107895
 50
89.999991
 51
147.488018
  0
ARC
  8
0
 10
57.94253
 20
112.102758
 30
0.0
 40
13.581579
 50
59.328333
 51
89.999995
  0
LINE
  8
0
 10
49.94253
 20
77.684337
 30
0.0
 11
50.94253
 21
78.684337
 31
0.0
  0
LINE
  8
0
 10
49.94253
 20
125.684337
 30
0.0
 11
50.94253
 21
124.684337
 31
0.0
  0
LINE
  8
0
 10
50.94253
 20
124.684337
 30
0.0
 11
57.94253
 21
124.684337
 31
0.0
  0
LINE
  8
0
 10
57.94253
 20
124.684337
 30
0.0
 11
57.94253
 21
122.645382
 31
0.0
  0
LINE
  8
0
 10
50.94253
 20
78.684337
 30
0.0
 11
57.94253
 21
78.684337
 31
0.0
  0
CIRCLE
  8
0
 10
103.914975
 20
49.377503
 30
0.0
 40
10.0
  0
CIRCLE
  8
0
 10
103.914975
 20
49.377503
 30
0.0
 40
8.75
  0
CIRCLE
  8
0
 10
103.914975
 20
49.377503
 30
0.0
 40
15.0
  0
LINE
  8
0
 10
95.254721
 20
34.377503
 30
0.0
 11
112.575229
 21
34.377503
 31
0.0
  0
LINE
  8
0
 10
112.575229
 20
34.377503
 30
0.0
 11
121.235483
 21
49.377503
 31
0.0
  0
LINE
  8
0
 10
121.235483
 20
49.377503
 30
0.0
 11
112.575229
 21
64.377503
 31
0.0
  0
LINE
  8
0
 10
95.254721
 20
64.377503
 30
0.0
 11
86.594467
 21
49.377503
 31
0.0
  0
LINE
  8
0
 10
86.594467
 20
49.377503
 30
0.0
 11
95.254721
 21
34.377503
 31
0.0
  0
LINE
  8
0
 10
112.575229
 20
79.984337
 30
0.0
 11
112.575229
 21
135.384337
 31
0.0
  0
LINE
  8
0
 10
95.164975
 20
78.934337
 30
0.0
 11
95.164975
 21
136.434337
 31
0.0
  0
LINE
  8
0
 10
93.914975
 20
77.684337
 30
0.0
 11
93.914975
 21
137.684337
 31
0.0
  0
LINE
  8
0
 10
90.924595
 20
137.684337
 30
0.0
 11
116.905357
 21
137.684337
 31
0.0
  0
LINE
  8
0
 10
121.235483
 20
79.984337
 30
0.0
 11
121.235483
 21
135.384337
 31
0.0
  0
LINE
  8
0
 10
86.594467
 20
79.984337
 30
0.0
 11
86.594467
 21
135.384337
 31
0.0
  0
ARC
  8
0
 10
116.905356
 20
132.45825
 30
0.0
 40
5.226087
 50
34.048894
 51
145.951106
  0
ARC
  8
0
 10
90.924594
 20
132.45825
 30
0.0
 40
5.226087
 50
89.999983
 51
145.951106
  0
ARC
  8
0
 10
103.914975
 20
120.229989
 30
0.0
 40
17.454348
 50
60.253333
 51
89.999996
  0
LINE
  8
0
  6
CENTER
 10
103.914975
 20
73.887661
 30
0.0
 11
103.914975
 21
140.914053
 31
0.0
  0
LINE
  8
0
 10
93.914975
 20
137.684337
 30
0.0
 11
95.164975
 21
136.434337
 31
0.0
  0
LINE
  8
0
 10
95.164975
 20
136.434337
 30
0.0
 11
103.914975
 21
136.434337
 31
0.0
  0
LINE
  8
0
 10
93.914975
 20
77.684337
 30
0.0
 11
95.164975
 21
78.934337
 31
0.0
  0
LINE
  8
0
 10
95.164975
 20
78.934337
 30
0.0
 11
103.914975
 21
78.934337
 31
0.0
  0
CIRCLE
  8
0
 10
-89.263956
 20
-136.300542
 30
0.0
 40
12.0
  0
CIRCLE
  8
0
 10
-89.263956
 20
-136.300542
 30
0.0
 40
10.5
  0
CIRCLE
  8
0
 10
-89.263956
 20
-136.300542
 30
0.0
 40
18.0
  0
LINE
  8
0
 10
-99.656261
 20
-154.300542
 30
0.0
 11
-78.871651
 21
-154.300542
 31
0.0
  0
LINE
  8
0
 10
-78.871651
 20
-154.300542
 30
0.0
 11
-68.479346
 21
-136.300542
 31
0.0
  0
LINE
  8
0
 10
-68.479346
 20
-136.300542
 30
0.0
 11
-78.871651
 21
-118.300542
 31
0.0
  0
LINE
  8
0
 10
-78.871651
 20
-118.300542
 30
0.0
 11
-99.656261
 21
-118.300542
 31
0.0
  0
LINE
  8
0
 10
-99.656261
 20
-118.300542
 30
0.0
 11
-110.048566
 21
-136.300542
 31
0.0
  0
LINE
  8
0
 10
-110.048566
 20
-136.300542
 30
0.0
 11
-99.656261
 21
-154.300542
 31
0.0
  0
LINE
  8
0
 10
-68.479346
 20
-89.640748
 30
0.0
 11
-68.479346
 21
-23.240748
 31
0.0
  0
LINE
  8
0
 10
-78.871651
 20
-89.640748
 30
0.0
 11
-78.871651
 21
-23.240748
 31
0.0
  0
LINE
  8
0
 10
-99.763956
 20
-90.940748
 30
0.0
 11
-99.763956
 21
-21.940748
 31
0.0
  0
LINE
  8
0
 10
-101.263956
 20
-92.440748
 30
0.0
 11
-101.263956
 21
-20.440748
 31
0.0
  0
LINE
  8
0
 10
-110.048566
 20
-89.640748
 30
0.0
 11
-110.048566
 21
-23.240748
 31
0.0
  0
LINE
  8
0
 10
-104.852413
 20
-20.440748
 30
0.0
 11
-73.675499
 21
-20.440748
 31
0.0
  0
ARC
  8
0
 10
-73.675499
 20
-26.662177
 30
0.0
 40
6.221429
 50
33.363075
 51
146.636925
  0
ARC
  8
0
 10
-104.852413
 20
-26.662177
 30
0.0
 40
6.221429
 50
90.0
 51
146.636925
  0
ARC
  8
0
 10
-89.263956
 20
-41.126462
 30
0.0
 40
20.685714
 50
59.841724
 51
90.0
  0
LINE
  8
0
  6
CENTER
 10
-89.263956
 20
-96.827845
 30
0.0
 11
-89.263956
 21
-16.311716
 31
0.0
  0
LINE
  8
0
 10
-101.263956
 20
-20.440748
 30
0.0
 11
-99.763956
 21
-21.940748
 31
0.0
  0
LINE
  8
0
 10
-99.763956
 20
-21.940748
 30
0.0
 11
-89.263956
 21
-21.940748
 31
0.0
  0
LINE
  8
0
 10
-101.263956
 20
-92.440748
 30
0.0
 11
-99.763956
 21
-90.940748
 31
0.0
  0
LINE
  8
0
 10
-99.763956
 20
-90.940748
 30
0.0
 11
-89.263956
 21
-90.940748
 31
0.0
  0
CIRCLE
  8
0
 10
-22.469373
 20
-136.300542
 30
0.0
 40
15.0
  0
CIRCLE
  8
0
 10
-22.469373
 20
-136.300542
 30
0.0
 40
13.25
  0
CIRCLE
  8
0
 10
-22.469373
 20
-136.300542
 30
0.0
 40
23.0
  0
LINE
  8
0
 10
-9.190317
 20
-113.300542
 30
0.0
 11
-35.74843
 21
-113.300542
 31
0.0
  0
LINE
  8
0
 10
-35.74843
 20
-113.300542
 30
0.0
 11
-49.027486
 21
-136.300542
 31
0.0
  0
LINE
  8
0
 10
-49.027486
 20
-136.300542
 30
0.0
 11
-35.74843
 21
-159.300542
 31
0.0
  0
LINE
  8
0
 10
-35.74843
 20
-159.300542
 30
0.0
 11
-9.190317
 21
-159.300542
 31
0.0
  0
LINE
  8
0
 10
-9.190317
 20
-159.300542
 30
0.0
 11
4.088739
 21
-136.300542
 31
0.0
  0
LINE
  8
0
 10
4.088739
 20
-136.300542
 30
0.0
 11
-9.190317
 21
-113.300542
 31
0.0
  0
LINE
  8
0
 10
4.088739
 20
-88.840748
 30
0.0
 11
4.088739
 21
-6.040748
 31
0.0
  0
LINE
  8
0
 10
-9.190317
 20
-88.840748
 30
0.0
 11
-9.190317
 21
-6.040748
 31
0.0
  0
LINE
  8
0
 10
-35.719373
 20
-90.690748
 30
0.0
 11
-35.719373
 21
-4.190748
 31
0.0
  0
LINE
  8
0
 10
-37.469373
 20
-92.440748
 30
0.0
 11
-37.469373
 21
-2.440748
 31
0.0
  0
LINE
  8
0
 10
-49.027486
 20
-88.840748
 30
0.0
 11
-49.027486
 21
-6.040748
 31
0.0
  0
LINE
  8
0
 10
-42.387958
 20
-2.440748
 30
0.0
 11
-2.55079
 21
-2.440748
 31
0.0
  0
ARC
  8
0
 10
-2.550789
 20
-10.363433
 30
0.0
 40
7.922685
 50
33.066263
 51
146.933737
  0
ARC
  8
0
 10
-42.387958
 20
-10.363433
 30
0.0
 40
7.922685
 50
90.0
 51
146.933737
  0
ARC
  8
0
 10
-22.469373
 20
-28.731489
 30
0.0
 40
26.290741
 50
59.663012
 51
90.0
  0
LINE
  8
0
 10
-37.469373
 20
-2.440748
 30
0.0
 11
-35.719373
 21
-4.190748
 31
0.0
  0
LINE
  8
0
 10
-35.719373
 20
-4.190748
 30
0.0
 11
-22.469373
 21
-4.190748
 31
0.0
  0
LINE
  8
0
 10
-37.469373
 20
-92.440748
 30
0.0
 11
-35.719373
 21
-90.690748
 31
0.0
  0
LINE
  8
0
 10
-35.719373
 20
-90.690748
 30
0.0
 11
-22.469373
 21
-90.690748
 31
0.0
  0
LINE
  8
0
  6
CENTER
 10
-22.469373
 20
-99.543713
 30
0.0
 11
-22.469373
 21
2.313895
 31
0.0
  0
CIRCLE
  8
0
 10
59.794607
 20
-136.300542
 30
0.0
 40
18.0
  0
CIRCLE
  8
0
 10
59.794607
 20
-136.300542
 30
0.0
 40
16.0
  0
CIRCLE
  8
0
 10
59.794607
 20
-136.300542
 30
0.0
 40
27.5
  0
LINE
  8
0
 10
43.917475
 20
-163.800542
 30
0.0
 11
75.67174
 21
-163.800542
 31
0.0
  0
LINE
  8
0
 10
75.67174
 20
-163.800542
 30
0.0
 11
91.548872
 21
-136.300542
 31
0.0
  0
LINE
  8
0
 10
91.548872
 20
-136.300542
 30
0.0
 11
75.67174
 21
-108.800542
 31
0.0
  0
LINE
  8
0
 10
75.67174
 20
-108.800542
 30
0.0
 11
43.917475
 21
-108.800542
 31
0.0
  0
LINE
  8
0
 10
43.917475
 20
-108.800542
 30
0.0
 11
28.040342
 21
-136.300542
 31
0.0
  0
LINE
  8
0
 10
28.040342
 20
-136.300542
 30
0.0
 11
43.917475
 21
-163.800542
 31
0.0
  0
LINE
  8
0
 10
91.548872
 20
-88.140748
 30
0.0
 11
91.548872
 21
11.259252
 31
0.0
  0
LINE
  8
0
 10
75.67174
 20
-88.140748
 30
0.0
 11
75.67174
 21
11.259252
 31
0.0
  0
LINE
  8
0
 10
43.794607
 20
-90.440748
 30
0.0
 11
43.794607
 21
13.559252
 31
0.0
  0
LINE
  8
0
 10
41.794607
 20
-92.440748
 30
0.0
 11
41.794607
 21
15.559252
 31
0.0
  0
LINE
  8
0
 10
28.040342
 20
-88.140748
 30
0.0
 11
28.040342
 21
11.259252
 31
0.0
  0
LINE
  8
0
 10
35.978909
 20
15.559252
 30
0.0
 11
83.610306
 21
15.559252
 31
0.0
  0
ARC
  8
0
 10
83.610306
 20
6.081248
 30
0.0
 40
9.478004
 50
33.114775
 51
146.885225
  0
ARC
  8
0
 10
35.978909
 20
6.081248
 30
0.0
 40
9.478004
 50
90.0
 51
146.885225
  0
ARC
  8
0
 10
59.794607
 20
-15.902763
 30
0.0
 40
31.462016
 50
59.692245
 51
90.0
  0
LINE
  8
0
  6
CENTER
 10
59.794607
 20
-98.795749
 30
0.0
 11
59.794607
 21
22.024997
 31
0.0
  0
LINE
  8
0
 10
41.794607
 20
15.559252
 30
0.0
 11
43.794607
 21
13.559252
 31
0.0
  0
LINE
  8
0
 10
41.794607
 20
-92.440748
 30
0.0
 11
43.794607
 21
-90.440748
 31
0.0
  0
LINE
  8
0
 10
43.794607
 20
13.559252
 30
0.0
 11
59.794607
 21
13.559252
 31
0.0
  0
LINE
  8
0
 10
43.794607
 20
-90.440748
 30
0.0
 11
59.794607
 21
-90.440748
 31
0.0
  0
LINE
  8
0
 10
112.575229
 20
64.377503
 30
0.0
 11
95.254721
 21
64.377503
 31
0.0
  0
ARC
  8
0
 10
-108.60519
 20
81.306559
 30
0.0
 40
3.622222
 50
246.516938
 51
269.999987
  0
LINE
  8
0
 10
-99.944936
 20
77.684337
 30
0.0
 11
-108.605191
 21
77.684337
 31
0.0
  0
ARC
  8
0
 10
-104.275063
 20
91.723226
 30
0.0
 40
14.038889
 50
270.0
 51
281.866108
  0
ARC
  8
0
 10
-99.944936
 20
81.306559
 30
0.0
 40
3.622222
 50
246.516938
 51
293.483062
  0
LINE
  8
0
 10
-86.598487
 20
77.684337
 30
0.0
 11
-75.340156
 21
77.684337
 31
0.0
  0
ARC
  8
0
 10
-86.598486
 20
81.45517
 30
0.0
 40
3.770833
 50
240.158276
 51
270.0
  0
ARC
  8
0
 10
-75.340156
 20
81.45517
 30
0.0
 40
3.770833
 50
240.158276
 51
299.841724
  0
ARC
  8
0
 10
-80.969321
 20
92.01767
 30
0.0
 40
14.333333
 50
270.0
 51
285.178179
  0
ARC
  8
0
 10
-59.891225
 20
81.194754
 30
0.0
 40
3.510417
 50
225.654144
 51
269.999993
  0
LINE
  8
0
 10
-59.891226
 20
77.684337
 30
0.0
 11
-45.168793
 21
77.684337
 31
0.0
  0
ARC
  8
0
 10
-52.530009
 20
90.226004
 30
0.0
 40
12.541667
 50
270.0
 51
293.035032
  0
ARC
  8
0
 10
-45.168793
 20
81.194754
 30
0.0
 40
3.510417
 50
225.654144
 51
314.345856
  0
ARC
  8
0
 10
-27.968995
 20
80.941281
 30
0.0
 40
3.256944
 50
212.645908
 51
269.999999
  0
LINE
  8
0
 10
-27.968995
 20
77.684337
 30
0.0
 11
-11.514512
 21
77.684337
 31
0.0
  0
ARC
  8
0
 10
-19.741754
 20
88.462115
 30
0.0
 40
10.777778
 50
270.0
 51
300.590689
  0
ARC
  8
0
 10
-11.514512
 20
80.941281
 30
0.0
 40
3.256944
 50
212.645908
 51
327.354092
  0
ARC
  8
0
 10
7.163355
 20
81.500023
 30
0.0
 40
3.815686
 50
213.674266
 51
270.0
  0
LINE
  8
0
 10
7.163355
 20
77.684337
 30
0.0
 11
26.215914
 21
77.684337
 31
0.0
  0
ARC
  8
0
 10
16.689635
 20
90.397082
 30
0.0
 40
12.712745
 50
270.000002
 51
299.971279
  0
ARC
  8
0
 10
26.215914
 20
81.500023
 30
0.0
 40
3.815686
 50
213.674266
 51
326.325734
  0
ARC
  8
0
 10
47.550225
 20
81.792232
 30
0.0
 40
4.107895
 50
212.511982
 51
270.000009
  0
LINE
  8
0
 10
47.550226
 20
77.684337
 30
0.0
 11
68.334836
 21
77.684337
 31
0.0
  0
ARC
  8
0
 10
68.334835
 20
81.792232
 30
0.0
 40
4.107895
 50
212.511982
 51
327.488018
  0
ARC
  8
0
 10
57.94253
 20
91.265916
 30
0.0
 40
13.581579
 50
270.000005
 51
300.671667
  0
ARC
  8
0
 10
90.924594
 20
82.910424
 30
0.0
 40
5.226087
 50
214.048894
 51
270.000017
  0
LINE
  8
0
 10
90.924595
 20
77.684337
 30
0.0
 11
116.905357
 21
77.684337
 31
0.0
  0
ARC
  8
0
 10
116.905356
 20
82.910424
 30
0.0
 40
5.226087
 50
214.048894
 51
325.951106
  0
ARC
  8
0
 10
103.914975
 20
95.138685
 30
0.0
 40
17.454348
 50
270.000004
 51
299.746667
  0
ARC
  8
0
 10
-104.852413
 20
-86.219319
 30
0.0
 40
6.221429
 50
213.363075
 51
270.0
  0
LINE
  8
0
 10
-104.852413
 20
-92.440748
 30
0.0
 11
-73.675499
 21
-92.440748
 31
0.0
  0
ARC
  8
0
 10
-73.675499
 20
-86.219319
 30
0.0
 40
6.221429
 50
213.363075
 51
326.636925
  0
ARC
  8
0
 10
-89.263956
 20
-71.755034
 30
0.0
 40
20.685714
 50
270.0
 51
300.158276
  0
ARC
  8
0
 10
-42.387958
 20
-84.518063
 30
0.0
 40
7.922685
 50
213.066263
 51
270.0
  0
LINE
  8
0
 10
-42.387958
 20
-92.440748
 30
0.0
 11
-2.55079
 21
-92.440748
 31
0.0
  0
ARC
  8
0
 10
-22.469373
 20
-66.150007
 30
0.0
 40
26.290741
 50
270.0
 51
300.336988
  0
ARC
  8
0
 10
-2.550789
 20
-84.518063
 30
0.0
 40
7.922685
 50
213.066263
 51
326.933737
  0
ARC
  8
0
 10
35.978909
 20
-82.962744
 30
0.0
 40
9.478004
 50
213.114775
 51
270.0
  0
ARC
  8
0
 10
83.610306
 20
-82.962744
 30
0.0
 40
9.478004
 50
213.114775
 51
326.885225
  0
ARC
  8
0
 10
59.794607
 20
-60.978732
 30
0.0
 40
31.462016
 50
270.0
 51
300.307755
  0
LINE
  8
0
 10
35.978909
 20
-92.440748
 30
0.0
 11
83.610306
 21
-92.440748
 31
0.0
  0
ARC
  8
0
 10
-99.944936
 20
92.062115
 30
0.0
 40
3.622222
 50
66.516938
 51
89.999987
  0
ARC
  8
0
 10
-99.944936
 20
81.306559
 30
0.0
 40
3.622222
 50
270.000013
 51
293.483062
  0
ARC
  8
0
 10
-75.340156
 20
81.45517
 30
0.0
 40
3.770833
 50
270.0
 51
299.841724
  0
ARC
  8
0
 10
-75.340156
 20
97.913504
 30
0.0
 40
3.770833
 50
60.158276
 51
90.0
  0
INSERT
  8
0
  2
*X0
 10
0.0
 20
0.0
 30
0.0
1001
ACAD
1000
HATCH
1002
{
1070
    16
1000
ANSI31
1040
15.0
1040
0.0
1002
}
  0
INSERT
  8
0
  2
*X1
 10
0.0
 20
0.0
 30
0.0
1001
ACAD
1000
HATCH
1002
{
1070
    16
1000
ANSI31
1040
15.0
1040
0.0
1002
}
  0
INSERT
  8
0
  2
*X2
 10
0.0
 20
0.0
 30
0.0
1001
ACAD
1000
HATCH
1002
{
1070
    16
1000
ANSI31
1040
15.0
1040
0.0
1002
}
  0
INSERT
  8
0
  2
*X3
 10
0.0
 20
0.0
 30
0.0
1001
ACAD
1000
HATCH
1002
{
1070
    16
1000
ANSI31
1040
15.0
1040
0.0
1002
}
  0
INSERT
  8
0
  2
*X4
 10
0.0
 20
0.0
 30
0.0
1001
ACAD
1000
HATCH
1002
{
1070
    16
1000
ANSI31
1040
20.0
1040
0.0
1002
}
  0
INSERT
  8
0
  2
*X5
 10
0.0
 20
0.0
 30
0.0
1001
ACAD
1000
HATCH
1002
{
1070
    16
1000
ANSI31
1040
20.0
1040
0.0
1002
}
  0
INSERT
  8
0
  2
*X6
 10
0.0
 20
0.0
 30
0.0
1001
ACAD
1000
HATCH
1002
{
1070
    16
1000
ANSI31
1040
20.0
1040
0.0
1002
}
  0
INSERT
  8
0
  2
*X7
 10
0.0
 20
0.0
 30
0.0
1001
ACAD
1000
HATCH
1002
{
1070
    16
1000
ANSI31
1040
20.0
1040
0.0
1002
}
  0
INSERT
  8
0
  2
*X8
 10
0.0
 20
0.0
 30
0.0
1001
ACAD
1000
HATCH
1002
{
1070
    16
1000
ANSI31
1040
10.0
1040
0.0
1002
}
  0
INSERT
  8
0
  2
*X9
 10
0.0
 20
0.0
 30
0.0
1001
ACAD
1000
HATCH
1002
{
1070
    16
1000
ANSI31
1040
10.0
1040
0.0
1002
}
  0
ENDSEC
  0
EOF
