  0
SECTION
  2
HEADER
  9
$ACADVER
  1
AC1009
  9
$INSBASE
 10
0.0
 20
0.0
 30
0.0
  9
$EXTMIN
 10
-101.568344
 20
-85.231554
 30
0.0
  9
$EXTMAX
 10
-87.177007
 20
-42.86172
 30
0.0
  9
$LIMMIN
 10
0.0
 20
0.0
  9
$LIMMAX
 10
12.0
 20
9.0
  9
$ORTHOMODE
 70
     1
  9
$REGENMODE
 70
     1
  9
$FILLMODE
 70
     1
  9
$QTEXTMODE
 70
     0
  9
$MIRRTEXT
 70
     1
  9
$DRAGMODE
 70
     2
  9
$LTSCALE
 40
5.0
  9
$OSMODE
 70
     0
  9
$ATTMODE
 70
     1
  9
$TEXTSIZE
 40
0.2
  9
$TRACEWID
 40
0.05
  9
$TEXTSTYLE
  7
STANDARD
  9
$CLAYER
  8
0
  9
$CELTYPE
  6
BYLAYER
  9
$CECOLOR
 62
   256
  9
$DIMSCALE
 40
1.0
  9
$DIMASZ
 40
2.5
  9
$DIMEXO
 40
0.0
  9
$DIMDLI
 40
5.0
  9
$DIMRND
 40
0.0
  9
$DIMDLE
 40
0.0
  9
$DIMEXE
 40
1.0
  9
$DIMTP
 40
0.0
  9
$DIMTM
 40
0.0
  9
$DIMTXT
 40
2.5
  9
$DIMCEN
 40
0.09
  9
$DIMTSZ
 40
0.0
  9
$DIMTOL
 70
     0
  9
$DIMLIM
 70
     0
  9
$DIMTIH
 70
     0
  9
$DIMTOH
 70
     0
  9
$DIMSE1
 70
     0
  9
$DIMSE2
 70
     0
  9
$DIMTAD
 70
     1
  9
$DIMZIN
 70
     0
  9
$DIMBLK
  1

  9
$DIMASO
 70
     0
  9
$DIMSHO
 70
     0
  9
$DIMPOST
  1

  9
$DIMAPOST
  1

  9
$DIMALT
 70
     0
  9
$DIMALTD
 70
     2
  9
$DIMALTF
 40
25.4
  9
$DIMLFAC
 40
1.0
  9
$DIMTOFL
 70
     1
  9
$DIMTVP
 40
0.0
  9
$DIMTIX
 70
     0
  9
$DIMSOXD
 70
     0
  9
$DIMSAH
 70
     0
  9
$DIMBLK1
  1

  9
$DIMBLK2
  1

  9
$DIMSTYLE
  2
*UNNAMED
  9
$DIMCLRD
 70
     0
  9
$DIMCLRE
 70
     0
  9
$DIMCLRT
 70
     0
  9
$DIMTFAC
 40
1.0
  9
$DIMGAP
 40
0.09
  9
$LUNITS
 70
     2
  9
$LUPREC
 70
     4
  9
$SKETCHINC
 40
0.1
  9
$FILLETRAD
 40
0.3
  9
$AUNITS
 70
     0
  9
$AUPREC
 70
     0
  9
$MENU
  1
wiberger
  9
$ELEVATION
 40
0.0
  9
$PELEVATION
 40
0.0
  9
$THICKNESS
 40
0.0
  9
$LIMCHECK
 70
     0
  9
$BLIPMODE
 70
     1
  9
$CHAMFERA
 40
0.0
  9
$CHAMFERB
 40
0.0
  9
$SKPOLY
 70
     0
  9
$TDCREATE
 40
2450190.283499421
  9
$TDUPDATE
 40
2450218.505757523
  9
$TDINDWG
 40
0.0012486111
  9
$TDUSRTIMER
 40
0.0012486111
  9
$USRTIMER
 70
     1
  9
$ANGBASE
 50
0.0
  9
$ANGDIR
 70
     0
  9
$PDMODE
 70
     3
  9
$PDSIZE
 40
1.0
  9
$PLINEWID
 40
0.0
  9
$COORDS
 70
     2
  9
$SPLFRAME
 70
     0
  9
$SPLINETYPE
 70
     6
  9
$SPLINESEGS
 70
     8
  9
$ATTDIA
 70
     0
  9
$ATTREQ
 70
     1
  9
$HANDLING
 70
     0
  9
$HANDSEED
  5
0
  9
$SURFTAB1
 70
     6
  9
$SURFTAB2
 70
     6
  9
$SURFTYPE
 70
     6
  9
$SURFU
 70
     6
  9
$SURFV
 70
     6
  9
$UCSNAME
  2

  9
$UCSORG
 10
0.0
 20
0.0
 30
0.0
  9
$UCSXDIR
 10
1.0
 20
0.0
 30
0.0
  9
$UCSYDIR
 10
0.0
 20
1.0
 30
0.0
  9
$PUCSNAME
  2

  9
$PUCSORG
 10
0.0
 20
0.0
 30
0.0
  9
$PUCSXDIR
 10
1.0
 20
0.0
 30
0.0
  9
$PUCSYDIR
 10
0.0
 20
1.0
 30
0.0
  9
$USERI1
 70
     0
  9
$USERI2
 70
     0
  9
$USERI3
 70
     0
  9
$USERI4
 70
     0
  9
$USERI5
 70
     0
  9
$USERR1
 40
0.0
  9
$USERR2
 40
0.0
  9
$USERR3
 40
0.0
  9
$USERR4
 40
0.0
  9
$USERR5
 40
0.0
  9
$WORLDVIEW
 70
     1
  9
$SHADEDGE
 70
     3
  9
$SHADEDIF
 70
    70
  9
$TILEMODE
 70
     1
  9
$MAXACTVP
 70
    16
  9
$PINSBASE
 10
0.0
 20
0.0
 30
0.0
  9
$PLIMCHECK
 70
     0
  9
$PEXTMIN
 10
1.000000E+20
 20
1.000000E+20
 30
1.000000E+20
  9
$PEXTMAX
 10
-1.000000E+20
 20
-1.000000E+20
 30
-1.000000E+20
  9
$PLIMMIN
 10
0.0
 20
0.0
  9
$PLIMMAX
 10
12.0
 20
9.0
  9
$UNITMODE
 70
     0
  9
$VISRETAIN
 70
     0
  9
$PLINEGEN
 70
     0
  9
$PSLTSCALE
 70
     0
  9
$TREEDEPTH
 70
  3020
  9
$DWGCODEPAGE
  3
undefined
  0
ENDSEC
  0
SECTION
  2
TABLES
  0
TABLE
  2
VPORT
 70
     2
  0
VPORT
  2
*ACTIVE
 70
     0
 10
0.0
 20
0.0
 11
1.0
 21
1.0
 12
-82.004623
 22
-64.046637
 13
0.0
 23
0.0
 14
1.0
 24
1.0
 15
0.0
 25
0.0
 16
0.0
 26
0.0
 36
1.0
 17
0.0
 27
0.0
 37
0.0
 40
47.077593
 41
1.767507
 42
50.0
 43
0.0
 44
0.0
 50
0.0
 51
0.0
 71
     0
 72
   100
 73
     1
 74
     0
 75
     0
 76
     0
 77
     0
 78
     0
  0
ENDTAB
  0
TABLE
  2
LTYPE
 70
     3
  0
LTYPE
  2
CONTINUOUS
 70
    64
  3
Solid line
 72
    65
 73
     0
 40
0.0
  0
LTYPE
  2
CENTER
 70
    64
  3
____ _ ____ _ ____ _ ____ _ ____ _ ____ _ ____
 72
    65
 73
     4
 40
2.0
 49
1.25
 49
-0.25
 49
0.25
 49
-0.25
  0
LTYPE
  2
DASHED
 70
    64
  3
__ __ __ __ __ __ __ __ __ __ __ __ __ __ __
 72
    65
 73
     2
 40
0.75
 49
0.5
 49
-0.25
  0
ENDTAB
  0
TABLE
  2
LAYER
 70
     1
  0
LAYER
  2
0
 70
    64
 62
     7
  6
CONTINUOUS
  0
ENDTAB
  0
TABLE
  2
STYLE
 70
     1
  0
STYLE
  2
STANDARD
 70
     0
 40
0.0
 41
1.0
 50
0.0
 71
     0
 42
0.2
  3
txt
  4

  0
ENDTAB
  0
TABLE
  2
VIEW
 70
     0
  0
ENDTAB
  0
TABLE
  2
UCS
 70
     0
  0
ENDTAB
  0
TABLE
  2
APPID
 70
     1
  0
APPID
  2
ACAD
 70
    64
  0
ENDTAB
  0
TABLE
  2
DIMSTYLE
 70
     0
  0
ENDTAB
  0
ENDSEC
  0
SECTION
  2
BLOCKS
  0
BLOCK
  8
0
  2
*X0
 70
    65
 10
0.0
 20
0.0
 30
0.0
  3
*X
  0
LINE
  8
0
 62
     0
 10
-80.500453
 20
-55.044609
 30
0.0
 11
-77.511891
 21
-52.056046
 31
0.0
  0
LINE
  8
0
 62
     0
 10
-77.009564
 20
-51.55372
 30
0.0
 11
-73.511891
 21
-48.056046
 31
0.0
  0
LINE
  8
0
 62
     0
 10
-80.500453
 20
-52.923288
 30
0.0
 11
-73.511891
 21
-45.934726
 31
0.0
  0
LINE
  8
0
 62
     0
 10
-80.500453
 20
-50.801968
 30
0.0
 11
-74.552205
 21
-44.85372
 31
0.0
  0
LINE
  8
0
 62
     0
 10
-80.500453
 20
-48.680648
 30
0.0
 11
-76.673525
 21
-44.85372
 31
0.0
  0
LINE
  8
0
 62
     0
 10
-80.500453
 20
-46.559327
 30
0.0
 11
-78.511891
 21
-44.570765
 31
0.0
  0
LINE
  8
0
 62
     0
 10
-80.492816
 20
-44.43037
 30
0.0
 11
-79.623803
 21
-43.561357
 31
0.0
  0
LINE
  8
0
 62
     0
 10
-79.511891
 20
-56.177367
 30
0.0
 11
-77.511891
 21
-54.177367
 31
0.0
  0
LINE
  8
0
 62
     0
 10
-74.888244
 20
-51.55372
 30
0.0
 11
-73.511891
 21
-50.177367
 31
0.0
  0
LINE
  8
0
 62
     0
 10
-78.766924
 20
-57.55372
 30
0.0
 11
-77.511891
 21
-56.298687
 31
0.0
  0
LINE
  8
0
 62
     0
 10
-75.7255
 20
-51.55372
 30
0.0
 11
-80.500453
 21
-46.778768
 31
0.0
  0
LINE
  8
0
 62
     0
 10
-77.511891
 20
-51.88865
 30
0.0
 11
-80.500453
 21
-48.900088
 31
0.0
  0
LINE
  8
0
 62
     0
 10
-77.511891
 20
-54.009971
 30
0.0
 11
-80.500453
 21
-51.021409
 31
0.0
  0
LINE
  8
0
 62
     0
 10
-77.511891
 20
-56.131291
 30
0.0
 11
-80.500453
 21
-53.142729
 31
0.0
  0
LINE
  8
0
 62
     0
 10
-78.210782
 20
-57.55372
 30
0.0
 11
-79.511891
 21
-56.252611
 31
0.0
  0
LINE
  8
0
 62
     0
 10
-73.60418
 20
-51.55372
 30
0.0
 11
-80.500453
 21
-44.657448
 31
0.0
  0
LINE
  8
0
 62
     0
 10
-73.511891
 20
-49.524689
 30
0.0
 11
-78.18286
 21
-44.85372
 31
0.0
  0
LINE
  8
0
 62
     0
 10
-78.511891
 20
-44.524689
 30
0.0
 11
-79.48286
 21
-43.55372
 31
0.0
  0
LINE
  8
0
 62
     0
 10
-73.511891
 20
-47.403369
 30
0.0
 11
-76.061539
 21
-44.85372
 31
0.0
  0
LINE
  8
0
 62
     0
 10
-73.511891
 20
-45.282049
 30
0.0
 11
-73.940219
 21
-44.85372
 31
0.0
  0
ENDBLK
  8
0
  0
ENDSEC
  0
SECTION
  2
ENTITIES
  0
LINE
  8
0
 10
-101.361238
 20
-55.05372
 30
0.0
 11
-101.361238
 21
-44.55372
 31
0.0
  0
LINE
  8
0
 10
-87.384113
 20
-55.05372
 30
0.0
 11
-87.384113
 21
-44.55372
 31
0.0
  0
LINE
  8
0
 10
-101.361238
 20
-55.05372
 30
0.0
 11
-100.372675
 21
-55.05372
 31
0.0
  0
LINE
  8
0
 10
-100.372675
 20
-57.55372
 30
0.0
 11
-96.372675
 21
-57.55372
 31
0.0
  0
LINE
  8
0
  6
CENTER
 10
-94.372675
 20
-63.187642
 30
0.0
 11
-94.372675
 21
-42.86172
 31
0.0
  0
LINE
  8
0
 10
-100.361238
 20
-43.55372
 30
0.0
 11
-88.384113
 21
-43.55372
 31
0.0
  0
ARC
  8
0
 10
-100.361238
 20
-44.55372
 30
0.0
 40
1.0
 50
90.0
 51
180.0
  0
ARC
  8
0
 10
-88.384113
 20
-44.55372
 30
0.0
 40
1.0
 50
0.0
 51
90.0
  0
LINE
  8
0
 10
-100.372675
 20
-57.55372
 30
0.0
 11
-100.372675
 21
-55.05372
 31
0.0
  0
LINE
  8
0
 10
-91.372675
 20
-57.55372
 30
0.0
 11
-91.372675
 21
-55.05372
 31
0.0
  0
LINE
  8
0
 10
-88.372675
 20
-57.55372
 30
0.0
 11
-88.372675
 21
-55.05372
 31
0.0
  0
LINE
  8
0
 10
-93.972675
 20
-55.05372
 30
0.0
 11
-93.972675
 21
-44.55372
 31
0.0
  0
LINE
  8
0
 10
-92.950273
 20
-55.05372
 30
0.0
 11
-92.950273
 21
-44.55372
 31
0.0
  0
LINE
  8
0
 10
-92.177532
 20
-55.05372
 30
0.0
 11
-92.177532
 21
-44.55372
 31
0.0
  0
LINE
  8
0
 10
-91.224805
 20
-55.05372
 30
0.0
 11
-91.224805
 21
-44.55372
 31
0.0
  0
LINE
  8
0
 10
-90.531984
 20
-55.05372
 30
0.0
 11
-90.531984
 21
-44.55372
 31
0.0
  0
LINE
  8
0
 10
-89.713859
 20
-55.05372
 30
0.0
 11
-89.713859
 21
-44.55372
 31
0.0
  0
LINE
  8
0
 10
-89.148173
 20
-55.05372
 30
0.0
 11
-89.148173
 21
-44.55372
 31
0.0
  0
LINE
  8
0
 10
-88.520403
 20
-55.05372
 30
0.0
 11
-88.520403
 21
-44.55372
 31
0.0
  0
LINE
  8
0
 10
-88.120403
 20
-55.05372
 30
0.0
 11
-88.120403
 21
-44.55372
 31
0.0
  0
LINE
  8
0
 10
-87.72577
 20
-55.05372
 30
0.0
 11
-87.72577
 21
-44.55372
 31
0.0
  0
LINE
  8
0
 10
-87.518715
 20
-55.05372
 30
0.0
 11
-87.518715
 21
-44.55372
 31
0.0
  0
LINE
  8
0
 10
-99.372675
 20
-44.85372
 30
0.0
 11
-99.372675
 21
-43.55372
 31
0.0
  0
LINE
  8
0
 10
-99.372675
 20
-44.85372
 30
0.0
 11
-94.372675
 21
-44.85372
 31
0.0
  0
LINE
  8
0
 10
-94.372675
 20
-55.05372
 30
0.0
 11
-87.384113
 21
-55.05372
 31
0.0
  0
LINE
  8
0
 10
-98.372675
 20
-51.55372
 30
0.0
 11
-94.372675
 21
-51.55372
 31
0.0
  0
POLYLINE
  8
0
  6
DASHED
 66
     1
 10
0.0
 20
0.0
 30
0.0
 70
     1
  0
VERTEX
  8
0
  6
DASHED
 10
-97.374897
 20
-73.031554
 30
0.0
  0
VERTEX
  8
0
  6
DASHED
 10
-100.377118
 20
-78.231554
 30
0.0
  0
VERTEX
  8
0
  6
DASHED
 10
-97.374897
 20
-83.431554
 30
0.0
  0
VERTEX
  8
0
  6
DASHED
 10
-91.370454
 20
-83.431554
 30
0.0
  0
VERTEX
  8
0
  6
DASHED
 10
-88.368233
 20
-78.231554
 30
0.0
  0
VERTEX
  8
0
  6
DASHED
 10
-91.370454
 20
-73.031554
 30
0.0
  0
SEQEND
  8
0
  6
DASHED
  0
ARC
  8
0
 10
-90.372675
 20
-78.231554
 30
0.0
 40
1.0
 50
270.0
 51
90.0
  0
ARC
  8
0
 10
-98.372675
 20
-78.231554
 30
0.0
 40
1.0
 50
90.0
 51
270.0
  0
LINE
  8
0
 10
-98.372675
 20
-79.231554
 30
0.0
 11
-90.372675
 21
-79.231554
 31
0.0
  0
LINE
  8
0
 10
-98.372675
 20
-77.231554
 30
0.0
 11
-90.372675
 21
-77.231554
 31
0.0
  0
ARC
  8
0
 10
-94.372675
 20
-78.231554
 30
0.0
 40
6.3
 50
79.552071
 51
85.447929
  0
LINE
  8
0
 10
-93.923131
 20
-71.593986
 30
0.0
 11
-93.872675
 21
-71.951427
 31
0.0
  0
LINE
  8
0
 10
-94.82222
 20
-71.593986
 30
0.0
 11
-94.872675
 21
-71.951427
 31
0.0
  0
ARC
  8
0
 10
-94.372675
 20
-71.691568
 30
0.0
 40
0.460014
 50
12.247199
 51
167.752801
  0
ARC
  8
0
 10
-96.065348
 20
-71.914413
 30
0.0
 40
0.460014
 50
27.247199
 51
182.752801
  0
LINE
  8
0
 10
-96.524832
 20
-71.936506
 30
0.0
 11
-96.481055
 21
-72.294826
 31
0.0
  0
LINE
  8
0
 10
-95.656378
 20
-71.703804
 30
0.0
 11
-95.515129
 21
-72.036007
 31
0.0
  0
ARC
  8
0
 10
-94.372675
 20
-78.231554
 30
0.0
 40
6.3
 50
94.552071
 51
100.447929
  0
ARC
  8
0
 10
-97.642668
 20
-72.56776
 30
0.0
 40
0.460014
 50
42.247199
 51
197.752801
  0
LINE
  8
0
 10
-98.080777
 20
-72.708024
 30
0.0
 11
-97.945752
 21
-73.042804
 31
0.0
  0
LINE
  8
0
 10
-97.302142
 20
-72.258479
 30
0.0
 11
-97.079726
 21
-72.542804
 31
0.0
  0
ARC
  8
0
 10
-94.372675
 20
-78.231554
 30
0.0
 40
6.3
 50
109.552071
 51
115.447929
  0
ARC
  8
0
 10
-98.997144
 20
-73.607086
 30
0.0
 40
0.460014
 50
57.247199
 51
212.752801
  0
LINE
  8
0
 10
-99.384021
 20
-73.855961
 30
0.0
 11
-99.166949
 21
-74.144387
 31
0.0
  0
LINE
  8
0
 10
-98.748269
 20
-73.220208
 30
0.0
 11
-98.459843
 21
-73.43728
 31
0.0
  0
ARC
  8
0
 10
-94.372675
 20
-78.231554
 30
0.0
 40
6.3
 50
124.552071
 51
130.447929
  0
ARC
  8
0
 10
-100.036469
 20
-74.961561
 30
0.0
 40
0.460014
 50
72.247199
 51
227.752801
  0
LINE
  8
0
 10
-100.345751
 20
-75.302087
 30
0.0
 11
-100.061425
 21
-75.524503
 31
0.0
  0
LINE
  8
0
 10
-99.896206
 20
-74.523453
 30
0.0
 11
-99.561425
 21
-74.658478
 31
0.0
  0
ARC
  8
0
 10
-94.372675
 20
-78.231554
 30
0.0
 40
6.3
 50
139.552071
 51
145.447929
  0
ARC
  8
0
 10
-100.689817
 20
-76.538881
 30
0.0
 40
0.460014
 50
87.247199
 51
242.752801
  0
LINE
  8
0
 10
-100.900425
 20
-76.947852
 30
0.0
 11
-100.568222
 21
-77.089101
 31
0.0
  0
LINE
  8
0
 10
-100.667724
 20
-76.079398
 30
0.0
 11
-100.309403
 21
-76.123175
 31
0.0
  0
ARC
  8
0
 10
-94.372675
 20
-78.231554
 30
0.0
 40
6.3
 50
154.552071
 51
160.447929
  0
ARC
  8
0
 10
-100.912661
 20
-78.231554
 30
0.0
 40
0.460014
 50
102.247199
 51
257.752801
  0
LINE
  8
0
 10
-101.010244
 20
-78.681099
 30
0.0
 11
-100.652803
 21
-78.731554
 31
0.0
  0
LINE
  8
0
 10
-101.010244
 20
-77.782009
 30
0.0
 11
-100.652803
 21
-77.731554
 31
0.0
  0
ARC
  8
0
 10
-94.372675
 20
-78.231554
 30
0.0
 40
6.3
 50
169.552071
 51
175.447929
  0
ARC
  8
0
 10
-100.689817
 20
-79.924227
 30
0.0
 40
0.460014
 50
117.247199
 51
272.752801
  0
LINE
  8
0
 10
-100.667724
 20
-80.38371
 30
0.0
 11
-100.309403
 21
-80.339934
 31
0.0
  0
LINE
  8
0
 10
-100.900425
 20
-79.515256
 30
0.0
 11
-100.568222
 21
-79.374008
 31
0.0
  0
ARC
  8
0
 10
-94.372675
 20
-78.231554
 30
0.0
 40
6.3
 50
184.552071
 51
190.447929
  0
ARC
  8
0
 10
-100.036469
 20
-81.501547
 30
0.0
 40
0.460014
 50
132.247199
 51
287.752801
  0
LINE
  8
0
 10
-99.896206
 20
-81.939656
 30
0.0
 11
-99.561425
 21
-81.804631
 31
0.0
  0
LINE
  8
0
 10
-100.345751
 20
-81.161021
 30
0.0
 11
-100.061425
 21
-80.938605
 31
0.0
  0
ARC
  8
0
 10
-94.372675
 20
-78.231554
 30
0.0
 40
6.3
 50
199.552071
 51
205.447929
  0
ARC
  8
0
 10
-98.997144
 20
-82.856023
 30
0.0
 40
0.460014
 50
147.247199
 51
302.752801
  0
LINE
  8
0
 10
-98.748269
 20
-83.2429
 30
0.0
 11
-98.459843
 21
-83.025828
 31
0.0
  0
LINE
  8
0
 10
-99.384021
 20
-82.607148
 30
0.0
 11
-99.166949
 21
-82.318721
 31
0.0
  0
ARC
  8
0
 10
-94.372675
 20
-78.231554
 30
0.0
 40
6.3
 50
214.552071
 51
220.447929
  0
ARC
  8
0
 10
-97.642668
 20
-83.895348
 30
0.0
 40
0.460014
 50
162.247199
 51
317.752801
  0
LINE
  8
0
 10
-97.302142
 20
-84.20463
 30
0.0
 11
-97.079726
 21
-83.920304
 31
0.0
  0
LINE
  8
0
 10
-98.080777
 20
-83.755085
 30
0.0
 11
-97.945752
 21
-83.420304
 31
0.0
  0
ARC
  8
0
 10
-94.372675
 20
-78.231554
 30
0.0
 40
6.3
 50
229.552071
 51
235.447929
  0
ARC
  8
0
 10
-96.065348
 20
-84.548695
 30
0.0
 40
0.460014
 50
177.247199
 51
332.752801
  0
LINE
  8
0
 10
-95.656378
 20
-84.759304
 30
0.0
 11
-95.515129
 21
-84.427101
 31
0.0
  0
LINE
  8
0
 10
-96.524832
 20
-84.526602
 30
0.0
 11
-96.481055
 21
-84.168282
 31
0.0
  0
ARC
  8
0
 10
-94.372675
 20
-78.231554
 30
0.0
 40
6.3
 50
244.552071
 51
250.447929
  0
ARC
  8
0
 10
-94.372675
 20
-84.77154
 30
0.0
 40
0.460014
 50
192.247199
 51
347.752801
  0
LINE
  8
0
 10
-93.923131
 20
-84.869123
 30
0.0
 11
-93.872675
 21
-84.511682
 31
0.0
  0
LINE
  8
0
 10
-94.82222
 20
-84.869123
 30
0.0
 11
-94.872675
 21
-84.511682
 31
0.0
  0
ARC
  8
0
 10
-94.372675
 20
-78.231554
 30
0.0
 40
6.3
 50
259.552071
 51
265.447929
  0
ARC
  8
0
 10
-92.680003
 20
-84.548695
 30
0.0
 40
0.460014
 50
207.247199
 51
2.752801
  0
LINE
  8
0
 10
-92.220519
 20
-84.526602
 30
0.0
 11
-92.264296
 21
-84.168282
 31
0.0
  0
LINE
  8
0
 10
-93.088973
 20
-84.759304
 30
0.0
 11
-93.230222
 21
-84.427101
 31
0.0
  0
ARC
  8
0
 10
-94.372675
 20
-78.231554
 30
0.0
 40
6.3
 50
274.552071
 51
280.447929
  0
ARC
  8
0
 10
-91.102683
 20
-83.895348
 30
0.0
 40
0.460014
 50
222.247199
 51
17.752801
  0
LINE
  8
0
 10
-90.664574
 20
-83.755085
 30
0.0
 11
-90.799599
 21
-83.420304
 31
0.0
  0
LINE
  8
0
 10
-91.443208
 20
-84.20463
 30
0.0
 11
-91.665624
 21
-83.920304
 31
0.0
  0
ARC
  8
0
 10
-94.372675
 20
-78.231554
 30
0.0
 40
6.3
 50
289.552071
 51
295.447929
  0
ARC
  8
0
 10
-89.748207
 20
-82.856023
 30
0.0
 40
0.460014
 50
237.247199
 51
32.752801
  0
LINE
  8
0
 10
-89.361329
 20
-82.607148
 30
0.0
 11
-89.578401
 21
-82.318721
 31
0.0
  0
LINE
  8
0
 10
-89.997082
 20
-83.2429
 30
0.0
 11
-90.285508
 21
-83.025828
 31
0.0
  0
ARC
  8
0
 10
-94.372675
 20
-78.231554
 30
0.0
 40
6.3
 50
304.552071
 51
310.447929
  0
ARC
  8
0
 10
-88.708882
 20
-81.501547
 30
0.0
 40
0.460014
 50
252.247199
 51
47.752801
  0
LINE
  8
0
 10
-88.3996
 20
-81.161021
 30
0.0
 11
-88.683926
 21
-80.938605
 31
0.0
  0
LINE
  8
0
 10
-88.849145
 20
-81.939656
 30
0.0
 11
-89.183926
 21
-81.804631
 31
0.0
  0
ARC
  8
0
 10
-94.372675
 20
-78.231554
 30
0.0
 40
6.3
 50
319.552071
 51
325.447929
  0
ARC
  8
0
 10
-88.055534
 20
-79.924227
 30
0.0
 40
0.460014
 50
267.247199
 51
62.752801
  0
LINE
  8
0
 10
-87.844926
 20
-79.515256
 30
0.0
 11
-88.177129
 21
-79.374008
 31
0.0
  0
LINE
  8
0
 10
-88.077627
 20
-80.38371
 30
0.0
 11
-88.435948
 21
-80.339934
 31
0.0
  0
ARC
  8
0
 10
-94.372675
 20
-78.231554
 30
0.0
 40
6.3
 50
334.552071
 51
340.447929
  0
ARC
  8
0
 10
-87.83269
 20
-78.231554
 30
0.0
 40
0.460014
 50
282.247199
 51
77.752801
  0
LINE
  8
0
 10
-87.735107
 20
-77.782009
 30
0.0
 11
-88.092548
 21
-77.731554
 31
0.0
  0
LINE
  8
0
 10
-87.735107
 20
-78.681099
 30
0.0
 11
-88.092548
 21
-78.731554
 31
0.0
  0
ARC
  8
0
 10
-94.372675
 20
-78.231554
 30
0.0
 40
6.3
 50
349.552071
 51
355.447929
  0
ARC
  8
0
 10
-88.055534
 20
-76.538881
 30
0.0
 40
0.460014
 50
297.247199
 51
92.752801
  0
LINE
  8
0
 10
-88.077627
 20
-76.079398
 30
0.0
 11
-88.435948
 21
-76.123175
 31
0.0
  0
LINE
  8
0
 10
-87.844926
 20
-76.947852
 30
0.0
 11
-88.177129
 21
-77.089101
 31
0.0
  0
ARC
  8
0
 10
-94.372675
 20
-78.231554
 30
0.0
 40
6.3
 50
4.552071
 51
10.447929
  0
ARC
  8
0
 10
-88.708882
 20
-74.961561
 30
0.0
 40
0.460014
 50
312.247199
 51
107.752801
  0
LINE
  8
0
 10
-88.849145
 20
-74.523453
 30
0.0
 11
-89.183926
 21
-74.658478
 31
0.0
  0
LINE
  8
0
 10
-88.3996
 20
-75.302087
 30
0.0
 11
-88.683926
 21
-75.524503
 31
0.0
  0
ARC
  8
0
 10
-94.372675
 20
-78.231554
 30
0.0
 40
6.3
 50
19.552071
 51
25.447929
  0
ARC
  8
0
 10
-89.748207
 20
-73.607086
 30
0.0
 40
0.460014
 50
327.247199
 51
122.752801
  0
LINE
  8
0
 10
-89.997082
 20
-73.220208
 30
0.0
 11
-90.285508
 21
-73.43728
 31
0.0
  0
LINE
  8
0
 10
-89.361329
 20
-73.855961
 30
0.0
 11
-89.578401
 21
-74.144387
 31
0.0
  0
ARC
  8
0
 10
-94.372675
 20
-78.231554
 30
0.0
 40
6.3
 50
34.552071
 51
40.447929
  0
ARC
  8
0
 10
-91.102683
 20
-72.56776
 30
0.0
 40
0.460014
 50
342.247199
 51
137.752801
  0
LINE
  8
0
 10
-91.443208
 20
-72.258479
 30
0.0
 11
-91.665624
 21
-72.542804
 31
0.0
  0
LINE
  8
0
 10
-90.664574
 20
-72.708024
 30
0.0
 11
-90.799599
 21
-73.042804
 31
0.0
  0
ARC
  8
0
 10
-94.372675
 20
-78.231554
 30
0.0
 40
6.3
 50
49.552071
 51
55.447929
  0
ARC
  8
0
 10
-92.680003
 20
-71.914413
 30
0.0
 40
0.460014
 50
357.247199
 51
152.752801
  0
LINE
  8
0
 10
-93.088973
 20
-71.703804
 30
0.0
 11
-93.230222
 21
-72.036007
 31
0.0
  0
LINE
  8
0
 10
-92.220519
 20
-71.936506
 30
0.0
 11
-92.264296
 21
-72.294826
 31
0.0
  0
ARC
  8
0
 10
-94.372675
 20
-78.231554
 30
0.0
 40
6.3
 50
64.552071
 51
70.447929
  0
LINE
  8
0
 10
-98.372675
 20
-51.55372
 30
0.0
 11
-98.372675
 21
-57.55372
 31
0.0
  0
LINE
  8
0
 10
-96.022675
 20
-62.55372
 30
0.0
 11
-92.722675
 21
-62.55372
 31
0.0
  0
LINE
  8
0
 10
-96.372675
 20
-57.55372
 30
0.0
 11
-96.372675
 21
-62.20372
 31
0.0
  0
LINE
  8
0
 10
-92.372675
 20
-57.55372
 30
0.0
 11
-92.372675
 21
-62.20372
 31
0.0
  0
LINE
  8
0
 10
-96.022675
 20
-57.90372
 30
0.0
 11
-96.022675
 21
-62.55372
 31
0.0
  0
LINE
  8
0
 10
-92.722675
 20
-57.90372
 30
0.0
 11
-92.722675
 21
-62.55372
 31
0.0
  0
LINE
  8
0
 10
-96.022675
 20
-62.55372
 30
0.0
 11
-96.372675
 21
-62.20372
 31
0.0
  0
LINE
  8
0
 10
-92.722675
 20
-62.55372
 30
0.0
 11
-92.372675
 21
-62.20372
 31
0.0
  0
LINE
  8
0
 10
-94.372675
 20
-57.55372
 30
0.0
 11
-88.372675
 21
-57.55372
 31
0.0
  0
INSERT
  8
0
  2
*X0
 10
-20.860785
 20
0.0
 30
0.0
  0
LINE
  8
0
 10
-96.372675
 20
-62.20372
 30
0.0
 11
-92.372675
 21
-62.20372
 31
0.0
  0
LINE
  8
0
 10
-96.372675
 20
-57.55372
 30
0.0
 11
-96.022675
 21
-57.90372
 31
0.0
  0
LINE
  8
0
 10
-92.372675
 20
-57.55372
 30
0.0
 11
-92.722675
 21
-57.90372
 31
0.0
  0
ENDSEC
  0
EOF
