  0
SECTION
  2
HEADER
  9
$ACADVER
  1
AC1009
  9
$INSBASE
 10
0.0
 20
0.0
 30
0.0
  9
$EXTMIN
 10
235.374958
 20
-261.775193
 30
0.0
  9
$EXTMAX
 10
783.851776
 20
-96.145837
 30
0.0
  9
$LIMMIN
 10
0.0
 20
0.0
  9
$LIMMAX
 10
12.0
 20
9.0
  9
$ORTHOMODE
 70
     1
  9
$REGENMODE
 70
     1
  9
$FILLMODE
 70
     1
  9
$QTEXTMODE
 70
     0
  9
$MIRRTEXT
 70
     1
  9
$DRAGMODE
 70
     2
  9
$LTSCALE
 40
10.0
  9
$OSMODE
 70
     0
  9
$ATTMODE
 70
     1
  9
$TEXTSIZE
 40
0.2
  9
$TRACEWID
 40
0.05
  9
$TEXTSTYLE
  7
STANDARD
  9
$CLAYER
  8
0
  9
$CELTYPE
  6
BYLAYER
  9
$CECOLOR
 62
   256
  9
$DIMSCALE
 40
1.0
  9
$DIMASZ
 40
2.5
  9
$DIMEXO
 40
0.0
  9
$DIMDLI
 40
5.0
  9
$DIMRND
 40
0.0
  9
$DIMDLE
 40
0.0
  9
$DIMEXE
 40
1.0
  9
$DIMTP
 40
0.0
  9
$DIMTM
 40
0.0
  9
$DIMTXT
 40
2.5
  9
$DIMCEN
 40
0.09
  9
$DIMTSZ
 40
0.0
  9
$DIMTOL
 70
     0
  9
$DIMLIM
 70
     0
  9
$DIMTIH
 70
     0
  9
$DIMTOH
 70
     0
  9
$DIMSE1
 70
     0
  9
$DIMSE2
 70
     0
  9
$DIMTAD
 70
     1
  9
$DIMZIN
 70
     0
  9
$DIMBLK
  1

  9
$DIMASO
 70
     0
  9
$DIMSHO
 70
     0
  9
$DIMPOST
  1

  9
$DIMAPOST
  1

  9
$DIMALT
 70
     0
  9
$DIMALTD
 70
     2
  9
$DIMALTF
 40
25.4
  9
$DIMLFAC
 40
1.0
  9
$DIMTOFL
 70
     1
  9
$DIMTVP
 40
0.0
  9
$DIMTIX
 70
     0
  9
$DIMSOXD
 70
     0
  9
$DIMSAH
 70
     0
  9
$DIMBLK1
  1

  9
$DIMBLK2
  1

  9
$DIMSTYLE
  2
*UNNAMED
  9
$DIMCLRD
 70
     0
  9
$DIMCLRE
 70
     0
  9
$DIMCLRT
 70
     0
  9
$DIMTFAC
 40
1.0
  9
$DIMGAP
 40
0.09
  9
$LUNITS
 70
     2
  9
$LUPREC
 70
     4
  9
$SKETCHINC
 40
0.1
  9
$FILLETRAD
 40
1.4
  9
$AUNITS
 70
     0
  9
$AUPREC
 70
     0
  9
$MENU
  1
wiberger
  9
$ELEVATION
 40
0.0
  9
$PELEVATION
 40
0.0
  9
$THICKNESS
 40
0.0
  9
$LIMCHECK
 70
     0
  9
$BLIPMODE
 70
     1
  9
$CHAMFERA
 40
1.0
  9
$CHAMFERB
 40
1.0
  9
$SKPOLY
 70
     0
  9
$TDCREATE
 40
2450190.519714005
  9
$TDUPDATE
 40
2450210.374544791
  9
$TDINDWG
 40
0.0013210648
  9
$TDUSRTIMER
 40
0.0013210648
  9
$USRTIMER
 70
     1
  9
$ANGBASE
 50
0.0
  9
$ANGDIR
 70
     0
  9
$PDMODE
 70
     0
  9
$PDSIZE
 40
0.0
  9
$PLINEWID
 40
0.0
  9
$COORDS
 70
     2
  9
$SPLFRAME
 70
     0
  9
$SPLINETYPE
 70
     6
  9
$SPLINESEGS
 70
     8
  9
$ATTDIA
 70
     0
  9
$ATTREQ
 70
     1
  9
$HANDLING
 70
     0
  9
$HANDSEED
  5
0
  9
$SURFTAB1
 70
     6
  9
$SURFTAB2
 70
     6
  9
$SURFTYPE
 70
     6
  9
$SURFU
 70
     6
  9
$SURFV
 70
     6
  9
$UCSNAME
  2

  9
$UCSORG
 10
0.0
 20
0.0
 30
0.0
  9
$UCSXDIR
 10
1.0
 20
0.0
 30
0.0
  9
$UCSYDIR
 10
0.0
 20
1.0
 30
0.0
  9
$PUCSNAME
  2

  9
$PUCSORG
 10
0.0
 20
0.0
 30
0.0
  9
$PUCSXDIR
 10
1.0
 20
0.0
 30
0.0
  9
$PUCSYDIR
 10
0.0
 20
1.0
 30
0.0
  9
$USERI1
 70
     0
  9
$USERI2
 70
     0
  9
$USERI3
 70
     0
  9
$USERI4
 70
     0
  9
$USERI5
 70
     0
  9
$USERR1
 40
0.0
  9
$USERR2
 40
0.0
  9
$USERR3
 40
0.0
  9
$USERR4
 40
0.0
  9
$USERR5
 40
0.0
  9
$WORLDVIEW
 70
     1
  9
$SHADEDGE
 70
     3
  9
$SHADEDIF
 70
    70
  9
$TILEMODE
 70
     1
  9
$MAXACTVP
 70
    16
  9
$PINSBASE
 10
0.0
 20
0.0
 30
0.0
  9
$PLIMCHECK
 70
     0
  9
$PEXTMIN
 10
1.000000E+20
 20
1.000000E+20
 30
1.000000E+20
  9
$PEXTMAX
 10
-1.000000E+20
 20
-1.000000E+20
 30
-1.000000E+20
  9
$PLIMMIN
 10
0.0
 20
0.0
  9
$PLIMMAX
 10
12.0
 20
9.0
  9
$UNITMODE
 70
     0
  9
$VISRETAIN
 70
     0
  9
$PLINEGEN
 70
     0
  9
$PSLTSCALE
 70
     0
  9
$TREEDEPTH
 70
  3020
  9
$DWGCODEPAGE
  3
undefined
  0
ENDSEC
  0
SECTION
  2
TABLES
  0
TABLE
  2
VPORT
 70
     2
  0
VPORT
  2
*ACTIVE
 70
     0
 10
0.0
 20
0.0
 11
1.0
 21
1.0
 12
590.144526
 22
-157.110204
 13
0.0
 23
0.0
 14
1.0
 24
1.0
 15
0.0
 25
0.0
 16
0.0
 26
0.0
 36
1.0
 17
0.0
 27
0.0
 37
0.0
 40
425.149117
 41
1.767507
 42
50.0
 43
0.0
 44
0.0
 50
0.0
 51
0.0
 71
     0
 72
   100
 73
     1
 74
     0
 75
     0
 76
     0
 77
     0
 78
     0
  0
ENDTAB
  0
TABLE
  2
LTYPE
 70
     2
  0
LTYPE
  2
CONTINUOUS
 70
    64
  3
Solid line
 72
    65
 73
     0
 40
0.0
  0
LTYPE
  2
CENTER
 70
    64
  3
____ _ ____ _ ____ _ ____ _ ____ _ ____ _ ____
 72
    65
 73
     4
 40
2.0
 49
1.25
 49
-0.25
 49
0.25
 49
-0.25
  0
ENDTAB
  0
TABLE
  2
LAYER
 70
     2
  0
LAYER
  2
0
 70
    64
 62
     7
  6
CONTINUOUS
  0
LAYER
  2
SLASK
 70
     0
 62
     1
  6
CONTINUOUS
  0
ENDTAB
  0
TABLE
  2
STYLE
 70
     1
  0
STYLE
  2
STANDARD
 70
     0
 40
0.0
 41
1.0
 50
0.0
 71
     0
 42
0.2
  3
txt
  4

  0
ENDTAB
  0
TABLE
  2
VIEW
 70
     0
  0
ENDTAB
  0
TABLE
  2
UCS
 70
     0
  0
ENDTAB
  0
TABLE
  2
APPID
 70
     1
  0
APPID
  2
ACAD
 70
    64
  0
ENDTAB
  0
TABLE
  2
DIMSTYLE
 70
     0
  0
ENDTAB
  0
ENDSEC
  0
SECTION
  2
BLOCKS
  0
BLOCK
  8
0
  2
*X0
 70
    65
 10
0.0
 20
0.0
 30
0.0
  3
*X
  0
LINE
  8
0
 62
     0
 10
287.212976
 20
-96.294145
 30
0.0
 11
281.212952
 21
-90.294121
 31
0.0
  0
LINE
  8
0
 62
     0
 10
287.212976
 20
-98.415465
 30
0.0
 11
281.212952
 21
-92.415441
 31
0.0
  0
LINE
  8
0
 62
     0
 10
287.212976
 20
-100.536786
 30
0.0
 11
281.212952
 21
-94.536762
 31
0.0
  0
LINE
  8
0
 62
     0
 10
287.212976
 20
-102.658106
 30
0.0
 11
281.212952
 21
-96.658082
 31
0.0
  0
LINE
  8
0
 62
     0
 10
287.712976
 20
-105.279426
 30
0.0
 11
281.26225
 21
-98.8287
 31
0.0
  0
LINE
  8
0
 62
     0
 10
287.712976
 20
-107.400747
 30
0.0
 11
281.583014
 21
-101.270785
 31
0.0
  0
LINE
  8
0
 62
     0
 10
287.712976
 20
-109.522067
 30
0.0
 11
281.903778
 21
-103.712869
 31
0.0
  0
LINE
  8
0
 62
     0
 10
287.712976
 20
-111.643387
 30
0.0
 11
282.224542
 21
-106.154954
 31
0.0
  0
LINE
  8
0
 62
     0
 10
287.712976
 20
-113.764708
 30
0.0
 11
282.545306
 21
-108.597038
 31
0.0
  0
LINE
  8
0
 62
     0
 10
287.712976
 20
-115.886028
 30
0.0
 11
282.866071
 21
-111.039123
 31
0.0
  0
LINE
  8
0
 62
     0
 10
287.712976
 20
-118.007348
 30
0.0
 11
283.186835
 21
-113.481207
 31
0.0
  0
LINE
  8
0
 62
     0
 10
287.712976
 20
-120.128669
 30
0.0
 11
283.507599
 21
-115.923292
 31
0.0
  0
LINE
  8
0
 62
     0
 10
287.712976
 20
-122.249989
 30
0.0
 11
283.828363
 21
-118.365376
 31
0.0
  0
LINE
  8
0
 62
     0
 10
287.712976
 20
-124.371309
 30
0.0
 11
284.149127
 21
-120.807461
 31
0.0
  0
LINE
  8
0
 62
     0
 10
287.673566
 20
-126.453219
 30
0.0
 11
284.469892
 21
-123.249545
 31
0.0
  0
LINE
  8
0
 62
     0
 10
285.251069
 20
-126.152044
 30
0.0
 11
285.019767
 21
-125.920741
 31
0.0
  0
LINE
  8
0
 62
     0
 10
287.212976
 20
-94.172825
 30
0.0
 11
281.212952
 21
-88.172801
 31
0.0
  0
LINE
  8
0
 62
     0
 10
287.212976
 20
-92.051504
 30
0.0
 11
281.212952
 21
-86.05148
 31
0.0
  0
LINE
  8
0
 62
     0
 10
287.212976
 20
-89.930184
 30
0.0
 11
281.212952
 21
-83.93016
 31
0.0
  0
LINE
  8
0
 62
     0
 10
287.212976
 20
-87.808864
 30
0.0
 11
281.212952
 21
-81.80884
 31
0.0
  0
LINE
  8
0
 62
     0
 10
287.212976
 20
-85.687543
 30
0.0
 11
281.212952
 21
-79.687519
 31
0.0
  0
LINE
  8
0
 62
     0
 10
287.212976
 20
-83.566223
 30
0.0
 11
281.212952
 21
-77.566199
 31
0.0
  0
LINE
  8
0
 62
     0
 10
287.212976
 20
-81.444903
 30
0.0
 11
281.212952
 21
-75.444879
 31
0.0
  0
LINE
  8
0
 62
     0
 10
287.212976
 20
-79.323582
 30
0.0
 11
281.212952
 21
-73.323558
 31
0.0
  0
LINE
  8
0
 62
     0
 10
287.212976
 20
-77.202262
 30
0.0
 11
281.212952
 21
-71.202238
 31
0.0
  0
LINE
  8
0
 62
     0
 10
287.212976
 20
-75.080941
 30
0.0
 11
281.212952
 21
-69.080917
 31
0.0
  0
LINE
  8
0
 62
     0
 10
287.212976
 20
-72.959621
 30
0.0
 11
281.212952
 21
-66.959597
 31
0.0
  0
LINE
  8
0
 62
     0
 10
287.212976
 20
-70.838301
 30
0.0
 11
281.212952
 21
-64.838277
 31
0.0
  0
LINE
  8
0
 62
     0
 10
287.212976
 20
-68.71698
 30
0.0
 11
281.212952
 21
-62.716956
 31
0.0
  0
LINE
  8
0
 62
     0
 10
287.212976
 20
-66.59566
 30
0.0
 11
281.212952
 21
-60.595636
 31
0.0
  0
LINE
  8
0
 62
     0
 10
287.212976
 20
-64.47434
 30
0.0
 11
281.289816
 21
-58.55118
 31
0.0
  0
LINE
  8
0
 62
     0
 10
287.212976
 20
-62.353019
 30
0.0
 11
282.471191
 21
-57.611234
 31
0.0
  0
LINE
  8
0
 62
     0
 10
287.212976
 20
-60.231699
 30
0.0
 11
284.284213
 21
-57.302936
 31
0.0
  0
LINE
  8
0
 62
     0
 10
287.212976
 20
-58.110379
 30
0.0
 11
286.1401
 21
-57.037503
 31
0.0
  0
LINE
  8
0
 62
     0
 10
281.212952
 20
-94.260749
 30
0.0
 11
287.212976
 21
-88.260725
 31
0.0
  0
LINE
  8
0
 62
     0
 10
281.212952
 20
-96.382069
 30
0.0
 11
287.212976
 21
-90.382045
 31
0.0
  0
LINE
  8
0
 62
     0
 10
281.218758
 20
-98.497584
 30
0.0
 11
287.212976
 21
-92.503366
 31
0.0
  0
LINE
  8
0
 62
     0
 10
281.465041
 20
-100.372621
 30
0.0
 11
287.212976
 21
-94.624686
 31
0.0
  0
LINE
  8
0
 62
     0
 10
281.711325
 20
-102.247658
 30
0.0
 11
287.212976
 21
-96.746006
 31
0.0
  0
LINE
  8
0
 62
     0
 10
281.957608
 20
-104.122695
 30
0.0
 11
287.212976
 21
-98.867327
 31
0.0
  0
LINE
  8
0
 62
     0
 10
282.203891
 20
-105.997732
 30
0.0
 11
287.212976
 21
-100.988647
 31
0.0
  0
LINE
  8
0
 62
     0
 10
282.450175
 20
-107.872769
 30
0.0
 11
287.212976
 21
-103.109967
 31
0.0
  0
LINE
  8
0
 62
     0
 10
282.696458
 20
-109.747806
 30
0.0
 11
287.712976
 21
-104.731288
 31
0.0
  0
LINE
  8
0
 62
     0
 10
282.942741
 20
-111.622843
 30
0.0
 11
287.712976
 21
-106.852608
 31
0.0
  0
LINE
  8
0
 62
     0
 10
283.189025
 20
-113.49788
 30
0.0
 11
287.712976
 21
-108.973928
 31
0.0
  0
LINE
  8
0
 62
     0
 10
283.435308
 20
-115.372917
 30
0.0
 11
287.712976
 21
-111.095249
 31
0.0
  0
LINE
  8
0
 62
     0
 10
283.681591
 20
-117.247954
 30
0.0
 11
287.712976
 21
-113.216569
 31
0.0
  0
LINE
  8
0
 62
     0
 10
283.927875
 20
-119.122991
 30
0.0
 11
287.712976
 21
-115.337889
 31
0.0
  0
LINE
  8
0
 62
     0
 10
284.174158
 20
-120.998028
 30
0.0
 11
287.712976
 21
-117.45921
 31
0.0
  0
LINE
  8
0
 62
     0
 10
284.420441
 20
-122.873065
 30
0.0
 11
287.712976
 21
-119.58053
 31
0.0
  0
LINE
  8
0
 62
     0
 10
284.666725
 20
-124.748102
 30
0.0
 11
287.712976
 21
-121.70185
 31
0.0
  0
LINE
  8
0
 62
     0
 10
285.327713
 20
-126.208434
 30
0.0
 11
287.712976
 21
-123.823171
 31
0.0
  0
LINE
  8
0
 62
     0
 10
287.204248
 20
-126.453219
 30
0.0
 11
287.712976
 21
-125.944491
 31
0.0
  0
LINE
  8
0
 62
     0
 10
281.212952
 20
-92.139429
 30
0.0
 11
287.212976
 21
-86.139405
 31
0.0
  0
LINE
  8
0
 62
     0
 10
281.212952
 20
-90.018108
 30
0.0
 11
287.212976
 21
-84.018084
 31
0.0
  0
LINE
  8
0
 62
     0
 10
281.212952
 20
-87.896788
 30
0.0
 11
287.212976
 21
-81.896764
 31
0.0
  0
LINE
  8
0
 62
     0
 10
281.212952
 20
-85.775468
 30
0.0
 11
287.212976
 21
-79.775444
 31
0.0
  0
LINE
  8
0
 62
     0
 10
281.212952
 20
-83.654147
 30
0.0
 11
287.212976
 21
-77.654123
 31
0.0
  0
LINE
  8
0
 62
     0
 10
281.212952
 20
-81.532827
 30
0.0
 11
287.212976
 21
-75.532803
 31
0.0
  0
LINE
  8
0
 62
     0
 10
281.212952
 20
-79.411507
 30
0.0
 11
287.212976
 21
-73.411483
 31
0.0
  0
LINE
  8
0
 62
     0
 10
281.212952
 20
-77.290186
 30
0.0
 11
287.212976
 21
-71.290162
 31
0.0
  0
LINE
  8
0
 62
     0
 10
281.212952
 20
-75.168866
 30
0.0
 11
287.212976
 21
-69.168842
 31
0.0
  0
LINE
  8
0
 62
     0
 10
281.212952
 20
-73.047546
 30
0.0
 11
287.212976
 21
-67.047522
 31
0.0
  0
LINE
  8
0
 62
     0
 10
281.212952
 20
-70.926225
 30
0.0
 11
287.212976
 21
-64.926201
 31
0.0
  0
LINE
  8
0
 62
     0
 10
281.212952
 20
-68.804905
 30
0.0
 11
287.212976
 21
-62.804881
 31
0.0
  0
LINE
  8
0
 62
     0
 10
281.212952
 20
-66.683585
 30
0.0
 11
287.212976
 21
-60.683561
 31
0.0
  0
LINE
  8
0
 62
     0
 10
281.212952
 20
-64.562264
 30
0.0
 11
287.212976
 21
-58.56224
 31
0.0
  0
LINE
  8
0
 62
     0
 10
281.212952
 20
-62.440944
 30
0.0
 11
286.683693
 21
-56.970202
 31
0.0
  0
LINE
  8
0
 62
     0
 10
281.212952
 20
-60.319623
 30
0.0
 11
284.219467
 21
-57.313108
 31
0.0
  0
ENDBLK
  8
0
  0
BLOCK
  8
0
  2
*X1
 70
    65
 10
0.0
 20
0.0
 30
0.0
  3
*X
  0
LINE
  8
0
 62
     0
 10
334.838852
 20
-298.776406
 30
0.0
 11
330.338852
 21
-294.276406
 31
0.0
  0
LINE
  8
0
 62
     0
 10
332.717531
 20
-298.776406
 30
0.0
 11
328.217531
 21
-294.276406
 31
0.0
  0
LINE
  8
0
 62
     0
 10
330.596211
 20
-298.776406
 30
0.0
 11
326.096211
 21
-294.276406
 31
0.0
  0
LINE
  8
0
 62
     0
 10
328.474891
 20
-298.776406
 30
0.0
 11
323.974891
 21
-294.276406
 31
0.0
  0
LINE
  8
0
 62
     0
 10
326.35357
 20
-298.776406
 30
0.0
 11
321.85357
 21
-294.276406
 31
0.0
  0
LINE
  8
0
 62
     0
 10
324.23225
 20
-298.776406
 30
0.0
 11
319.73225
 21
-294.276406
 31
0.0
  0
LINE
  8
0
 62
     0
 10
322.36093
 20
-299.026406
 30
0.0
 11
317.61093
 21
-294.276406
 31
0.0
  0
LINE
  8
0
 62
     0
 10
320.239609
 20
-299.026406
 30
0.0
 11
315.489609
 21
-294.276406
 31
0.0
  0
LINE
  8
0
 62
     0
 10
318.118289
 20
-299.026406
 30
0.0
 11
313.368289
 21
-294.276406
 31
0.0
  0
LINE
  8
0
 62
     0
 10
315.996969
 20
-299.026406
 30
0.0
 11
311.246969
 21
-294.276406
 31
0.0
  0
LINE
  8
0
 62
     0
 10
313.875648
 20
-299.026406
 30
0.0
 11
309.125648
 21
-294.276406
 31
0.0
  0
LINE
  8
0
 62
     0
 10
311.754328
 20
-299.026406
 30
0.0
 11
307.004328
 21
-294.276406
 31
0.0
  0
LINE
  8
0
 62
     0
 10
309.633008
 20
-299.026406
 30
0.0
 11
304.883008
 21
-294.276406
 31
0.0
  0
LINE
  8
0
 62
     0
 10
307.511687
 20
-299.026406
 30
0.0
 11
302.761687
 21
-294.276406
 31
0.0
  0
LINE
  8
0
 62
     0
 10
305.390367
 20
-299.026406
 30
0.0
 11
300.640367
 21
-294.276406
 31
0.0
  0
LINE
  8
0
 62
     0
 10
303.269047
 20
-299.026406
 30
0.0
 11
298.519047
 21
-294.276406
 31
0.0
  0
LINE
  8
0
 62
     0
 10
301.147726
 20
-299.026406
 30
0.0
 11
296.397726
 21
-294.276406
 31
0.0
  0
LINE
  8
0
 62
     0
 10
299.026406
 20
-299.026406
 30
0.0
 11
294.276406
 21
-294.276406
 31
0.0
  0
LINE
  8
0
 62
     0
 10
296.905086
 20
-299.026406
 30
0.0
 11
292.155086
 21
-294.276406
 31
0.0
  0
LINE
  8
0
 62
     0
 10
294.783765
 20
-299.026406
 30
0.0
 11
290.277374
 21
-294.520014
 31
0.0
  0
LINE
  8
0
 62
     0
 10
292.662445
 20
-299.026406
 30
0.0
 11
289.083527
 21
-295.447488
 31
0.0
  0
LINE
  8
0
 62
     0
 10
290.541125
 20
-299.026406
 30
0.0
 11
288.477954
 21
-296.963236
 31
0.0
  0
LINE
  8
0
 62
     0
 10
336.960172
 20
-298.776406
 30
0.0
 11
332.460172
 21
-294.276406
 31
0.0
  0
LINE
  8
0
 62
     0
 10
339.081492
 20
-298.776406
 30
0.0
 11
334.581492
 21
-294.276406
 31
0.0
  0
LINE
  8
0
 62
     0
 10
341.202813
 20
-298.776406
 30
0.0
 11
336.702813
 21
-294.276406
 31
0.0
  0
LINE
  8
0
 62
     0
 10
343.324133
 20
-298.776406
 30
0.0
 11
338.824133
 21
-294.276406
 31
0.0
  0
LINE
  8
0
 62
     0
 10
345.445453
 20
-298.776406
 30
0.0
 11
340.945453
 21
-294.276406
 31
0.0
  0
LINE
  8
0
 62
     0
 10
347.566774
 20
-298.776406
 30
0.0
 11
343.066774
 21
-294.276406
 31
0.0
  0
LINE
  8
0
 62
     0
 10
349.688094
 20
-298.776406
 30
0.0
 11
345.188094
 21
-294.276406
 31
0.0
  0
LINE
  8
0
 62
     0
 10
351.809414
 20
-298.776406
 30
0.0
 11
347.309414
 21
-294.276406
 31
0.0
  0
LINE
  8
0
 62
     0
 10
353.930735
 20
-298.776406
 30
0.0
 11
349.430735
 21
-294.276406
 31
0.0
  0
LINE
  8
0
 62
     0
 10
356.052055
 20
-298.776406
 30
0.0
 11
351.552055
 21
-294.276406
 31
0.0
  0
LINE
  8
0
 62
     0
 10
358.173376
 20
-298.776406
 30
0.0
 11
353.673376
 21
-294.276406
 31
0.0
  0
LINE
  8
0
 62
     0
 10
360.294696
 20
-298.776406
 30
0.0
 11
355.794696
 21
-294.276406
 31
0.0
  0
LINE
  8
0
 62
     0
 10
362.416016
 20
-298.776406
 30
0.0
 11
357.916016
 21
-294.276406
 31
0.0
  0
LINE
  8
0
 62
     0
 10
364.537337
 20
-298.776406
 30
0.0
 11
360.037337
 21
-294.276406
 31
0.0
  0
LINE
  8
0
 62
     0
 10
366.658657
 20
-298.776406
 30
0.0
 11
362.158657
 21
-294.276406
 31
0.0
  0
LINE
  8
0
 62
     0
 10
368.779977
 20
-298.776406
 30
0.0
 11
364.279977
 21
-294.276406
 31
0.0
  0
LINE
  8
0
 62
     0
 10
370.901298
 20
-298.776406
 30
0.0
 11
366.401298
 21
-294.276406
 31
0.0
  0
LINE
  8
0
 62
     0
 10
373.022618
 20
-298.776406
 30
0.0
 11
368.522618
 21
-294.276406
 31
0.0
  0
LINE
  8
0
 62
     0
 10
375.143938
 20
-298.776406
 30
0.0
 11
370.643938
 21
-294.276406
 31
0.0
  0
LINE
  8
0
 62
     0
 10
377.252216
 20
-298.763364
 30
0.0
 11
372.765259
 21
-294.276406
 31
0.0
  0
LINE
  8
0
 62
     0
 10
378.399335
 20
-297.789162
 30
0.0
 11
374.886579
 21
-294.276406
 31
0.0
  0
LINE
  8
0
 62
     0
 10
331.255736
 20
-298.776406
 30
0.0
 11
335.755736
 21
-294.276406
 31
0.0
  0
LINE
  8
0
 62
     0
 10
333.377056
 20
-298.776406
 30
0.0
 11
337.877056
 21
-294.276406
 31
0.0
  0
LINE
  8
0
 62
     0
 10
335.498377
 20
-298.776406
 30
0.0
 11
339.998377
 21
-294.276406
 31
0.0
  0
LINE
  8
0
 62
     0
 10
337.619697
 20
-298.776406
 30
0.0
 11
342.119697
 21
-294.276406
 31
0.0
  0
LINE
  8
0
 62
     0
 10
339.741018
 20
-298.776406
 30
0.0
 11
344.241018
 21
-294.276406
 31
0.0
  0
LINE
  8
0
 62
     0
 10
341.862338
 20
-298.776406
 30
0.0
 11
346.362338
 21
-294.276406
 31
0.0
  0
LINE
  8
0
 62
     0
 10
343.983658
 20
-298.776406
 30
0.0
 11
348.483658
 21
-294.276406
 31
0.0
  0
LINE
  8
0
 62
     0
 10
346.104979
 20
-298.776406
 30
0.0
 11
350.604979
 21
-294.276406
 31
0.0
  0
LINE
  8
0
 62
     0
 10
348.226299
 20
-298.776406
 30
0.0
 11
352.726299
 21
-294.276406
 31
0.0
  0
LINE
  8
0
 62
     0
 10
350.347619
 20
-298.776406
 30
0.0
 11
354.847619
 21
-294.276406
 31
0.0
  0
LINE
  8
0
 62
     0
 10
352.46894
 20
-298.776406
 30
0.0
 11
356.96894
 21
-294.276406
 31
0.0
  0
LINE
  8
0
 62
     0
 10
354.59026
 20
-298.776406
 30
0.0
 11
359.09026
 21
-294.276406
 31
0.0
  0
LINE
  8
0
 62
     0
 10
356.71158
 20
-298.776406
 30
0.0
 11
361.21158
 21
-294.276406
 31
0.0
  0
LINE
  8
0
 62
     0
 10
358.832901
 20
-298.776406
 30
0.0
 11
363.332901
 21
-294.276406
 31
0.0
  0
LINE
  8
0
 62
     0
 10
360.954221
 20
-298.776406
 30
0.0
 11
365.454221
 21
-294.276406
 31
0.0
  0
LINE
  8
0
 62
     0
 10
363.075541
 20
-298.776406
 30
0.0
 11
367.575541
 21
-294.276406
 31
0.0
  0
LINE
  8
0
 62
     0
 10
365.196862
 20
-298.776406
 30
0.0
 11
369.696862
 21
-294.276406
 31
0.0
  0
LINE
  8
0
 62
     0
 10
367.318182
 20
-298.776406
 30
0.0
 11
371.818182
 21
-294.276406
 31
0.0
  0
LINE
  8
0
 62
     0
 10
369.439502
 20
-298.776406
 30
0.0
 11
373.939502
 21
-294.276406
 31
0.0
  0
LINE
  8
0
 62
     0
 10
371.560823
 20
-298.776406
 30
0.0
 11
376.010224
 21
-294.327004
 31
0.0
  0
LINE
  8
0
 62
     0
 10
373.682143
 20
-298.776406
 30
0.0
 11
377.438568
 21
-295.019981
 31
0.0
  0
LINE
  8
0
 62
     0
 10
375.803463
 20
-298.776406
 30
0.0
 11
378.293495
 21
-296.286374
 31
0.0
  0
LINE
  8
0
 62
     0
 10
329.134416
 20
-298.776406
 30
0.0
 11
333.634416
 21
-294.276406
 31
0.0
  0
LINE
  8
0
 62
     0
 10
327.013095
 20
-298.776406
 30
0.0
 11
331.513095
 21
-294.276406
 31
0.0
  0
LINE
  8
0
 62
     0
 10
324.891775
 20
-298.776406
 30
0.0
 11
329.391775
 21
-294.276406
 31
0.0
  0
LINE
  8
0
 62
     0
 10
322.770455
 20
-298.776406
 30
0.0
 11
327.270455
 21
-294.276406
 31
0.0
  0
LINE
  8
0
 62
     0
 10
320.399134
 20
-299.026406
 30
0.0
 11
325.149134
 21
-294.276406
 31
0.0
  0
LINE
  8
0
 62
     0
 10
318.277814
 20
-299.026406
 30
0.0
 11
323.027814
 21
-294.276406
 31
0.0
  0
LINE
  8
0
 62
     0
 10
316.156494
 20
-299.026406
 30
0.0
 11
320.906494
 21
-294.276406
 31
0.0
  0
LINE
  8
0
 62
     0
 10
314.035173
 20
-299.026406
 30
0.0
 11
318.785173
 21
-294.276406
 31
0.0
  0
LINE
  8
0
 62
     0
 10
311.913853
 20
-299.026406
 30
0.0
 11
316.663853
 21
-294.276406
 31
0.0
  0
LINE
  8
0
 62
     0
 10
309.792533
 20
-299.026406
 30
0.0
 11
314.542533
 21
-294.276406
 31
0.0
  0
LINE
  8
0
 62
     0
 10
307.671212
 20
-299.026406
 30
0.0
 11
312.421212
 21
-294.276406
 31
0.0
  0
LINE
  8
0
 62
     0
 10
305.549892
 20
-299.026406
 30
0.0
 11
310.299892
 21
-294.276406
 31
0.0
  0
LINE
  8
0
 62
     0
 10
303.428572
 20
-299.026406
 30
0.0
 11
308.178572
 21
-294.276406
 31
0.0
  0
LINE
  8
0
 62
     0
 10
301.307251
 20
-299.026406
 30
0.0
 11
306.057251
 21
-294.276406
 31
0.0
  0
LINE
  8
0
 62
     0
 10
299.185931
 20
-299.026406
 30
0.0
 11
303.935931
 21
-294.276406
 31
0.0
  0
LINE
  8
0
 62
     0
 10
297.064611
 20
-299.026406
 30
0.0
 11
301.814611
 21
-294.276406
 31
0.0
  0
LINE
  8
0
 62
     0
 10
294.94329
 20
-299.026406
 30
0.0
 11
299.69329
 21
-294.276406
 31
0.0
  0
LINE
  8
0
 62
     0
 10
292.82197
 20
-299.026406
 30
0.0
 11
297.57197
 21
-294.276406
 31
0.0
  0
LINE
  8
0
 62
     0
 10
290.70065
 20
-299.026406
 30
0.0
 11
295.45065
 21
-294.276406
 31
0.0
  0
LINE
  8
0
 62
     0
 10
288.579329
 20
-299.026406
 30
0.0
 11
293.329329
 21
-294.276406
 31
0.0
  0
LINE
  8
0
 62
     0
 10
288.473318
 20
-297.011097
 30
0.0
 11
291.196254
 21
-294.28816
 31
0.0
  0
ENDBLK
  8
0
  0
BLOCK
  8
0
  2
*X2
 70
    65
 10
0.0
 20
0.0
 30
0.0
  3
*X
  0
LINE
  8
0
 62
     0
 10
229.124002
 20
-301.248894
 30
0.0
 11
224.624002
 21
-296.748894
 31
0.0
  0
LINE
  8
0
 62
     0
 10
229.124002
 20
-303.370214
 30
0.0
 11
224.624002
 21
-298.870214
 31
0.0
  0
LINE
  8
0
 62
     0
 10
229.124002
 20
-305.491535
 30
0.0
 11
224.624002
 21
-300.991535
 31
0.0
  0
LINE
  8
0
 62
     0
 10
229.124002
 20
-307.612855
 30
0.0
 11
224.624002
 21
-303.112855
 31
0.0
  0
LINE
  8
0
 62
     0
 10
229.124002
 20
-309.734175
 30
0.0
 11
224.624002
 21
-305.234175
 31
0.0
  0
LINE
  8
0
 62
     0
 10
229.374002
 20
-312.105496
 30
0.0
 11
224.624002
 21
-307.355496
 31
0.0
  0
LINE
  8
0
 62
     0
 10
229.374002
 20
-314.226816
 30
0.0
 11
224.624002
 21
-309.476816
 31
0.0
  0
LINE
  8
0
 62
     0
 10
229.374002
 20
-316.348136
 30
0.0
 11
224.624002
 21
-311.598136
 31
0.0
  0
LINE
  8
0
 62
     0
 10
229.374002
 20
-318.469457
 30
0.0
 11
224.624002
 21
-313.719457
 31
0.0
  0
LINE
  8
0
 62
     0
 10
229.374002
 20
-320.590777
 30
0.0
 11
224.624002
 21
-315.840777
 31
0.0
  0
LINE
  8
0
 62
     0
 10
229.374002
 20
-322.712097
 30
0.0
 11
224.624002
 21
-317.962097
 31
0.0
  0
LINE
  8
0
 62
     0
 10
229.374002
 20
-324.833418
 30
0.0
 11
224.624002
 21
-320.083418
 31
0.0
  0
LINE
  8
0
 62
     0
 10
229.374002
 20
-326.954738
 30
0.0
 11
224.624002
 21
-322.204738
 31
0.0
  0
LINE
  8
0
 62
     0
 10
229.374002
 20
-329.076058
 30
0.0
 11
224.624002
 21
-324.326058
 31
0.0
  0
LINE
  8
0
 62
     0
 10
229.374002
 20
-331.197379
 30
0.0
 11
224.624002
 21
-326.447379
 31
0.0
  0
LINE
  8
0
 62
     0
 10
229.374002
 20
-333.318699
 30
0.0
 11
224.624002
 21
-328.568699
 31
0.0
  0
LINE
  8
0
 62
     0
 10
229.374002
 20
-335.440019
 30
0.0
 11
224.624002
 21
-330.690019
 31
0.0
  0
LINE
  8
0
 62
     0
 10
229.374002
 20
-337.56134
 30
0.0
 11
224.624002
 21
-332.81134
 31
0.0
  0
LINE
  8
0
 62
     0
 10
229.374002
 20
-339.68266
 30
0.0
 11
224.624002
 21
-334.93266
 31
0.0
  0
LINE
  8
0
 62
     0
 10
229.374002
 20
-341.80398
 30
0.0
 11
224.624002
 21
-337.05398
 31
0.0
  0
LINE
  8
0
 62
     0
 10
229.374002
 20
-343.925301
 30
0.0
 11
224.624002
 21
-339.175301
 31
0.0
  0
LINE
  8
0
 62
     0
 10
228.387323
 20
-345.059942
 30
0.0
 11
224.624002
 21
-341.296621
 31
0.0
  0
LINE
  8
0
 62
     0
 10
229.124002
 20
-299.127574
 30
0.0
 11
224.624002
 21
-294.627574
 31
0.0
  0
LINE
  8
0
 62
     0
 10
229.124002
 20
-297.006253
 30
0.0
 11
224.624002
 21
-292.506253
 31
0.0
  0
LINE
  8
0
 62
     0
 10
229.124002
 20
-294.884933
 30
0.0
 11
224.624002
 21
-290.384933
 31
0.0
  0
LINE
  8
0
 62
     0
 10
229.124002
 20
-292.763613
 30
0.0
 11
224.624002
 21
-288.263613
 31
0.0
  0
LINE
  8
0
 62
     0
 10
229.124002
 20
-290.642292
 30
0.0
 11
224.624002
 21
-286.142292
 31
0.0
  0
LINE
  8
0
 62
     0
 10
229.124002
 20
-288.520972
 30
0.0
 11
224.624002
 21
-284.020972
 31
0.0
  0
LINE
  8
0
 62
     0
 10
229.124002
 20
-286.399652
 30
0.0
 11
224.624002
 21
-281.899652
 31
0.0
  0
LINE
  8
0
 62
     0
 10
229.124002
 20
-284.278331
 30
0.0
 11
224.624002
 21
-279.778331
 31
0.0
  0
LINE
  8
0
 62
     0
 10
229.124002
 20
-282.157011
 30
0.0
 11
224.624002
 21
-277.657011
 31
0.0
  0
LINE
  8
0
 62
     0
 10
229.124002
 20
-280.03569
 30
0.0
 11
224.624002
 21
-275.53569
 31
0.0
  0
LINE
  8
0
 62
     0
 10
229.124002
 20
-277.91437
 30
0.0
 11
224.624002
 21
-273.41437
 31
0.0
  0
LINE
  8
0
 62
     0
 10
229.124002
 20
-275.79305
 30
0.0
 11
224.624002
 21
-271.29305
 31
0.0
  0
LINE
  8
0
 62
     0
 10
229.124002
 20
-273.671729
 30
0.0
 11
224.624002
 21
-269.171729
 31
0.0
  0
LINE
  8
0
 62
     0
 10
229.124002
 20
-271.550409
 30
0.0
 11
224.624002
 21
-267.050409
 31
0.0
  0
LINE
  8
0
 62
     0
 10
229.124002
 20
-269.429089
 30
0.0
 11
224.624002
 21
-264.929089
 31
0.0
  0
LINE
  8
0
 62
     0
 10
229.124002
 20
-267.307768
 30
0.0
 11
224.624002
 21
-262.807768
 31
0.0
  0
LINE
  8
0
 62
     0
 10
229.124002
 20
-265.186448
 30
0.0
 11
224.624002
 21
-260.686448
 31
0.0
  0
LINE
  8
0
 62
     0
 10
229.124002
 20
-263.065128
 30
0.0
 11
224.624002
 21
-258.565128
 31
0.0
  0
LINE
  8
0
 62
     0
 10
229.124002
 20
-260.943807
 30
0.0
 11
224.926769
 21
-256.746574
 31
0.0
  0
LINE
  8
0
 62
     0
 10
229.124002
 20
-258.822487
 30
0.0
 11
225.903701
 21
-255.602186
 31
0.0
  0
LINE
  8
0
 62
     0
 10
229.124002
 20
-256.701167
 30
0.0
 11
227.485955
 21
-255.06312
 31
0.0
  0
LINE
  8
0
 62
     0
 10
224.624002
 20
-301.463443
 30
0.0
 11
229.124002
 21
-296.963443
 31
0.0
  0
LINE
  8
0
 62
     0
 10
224.624002
 20
-303.584763
 30
0.0
 11
229.124002
 21
-299.084763
 31
0.0
  0
LINE
  8
0
 62
     0
 10
224.624002
 20
-305.706084
 30
0.0
 11
229.124002
 21
-301.206084
 31
0.0
  0
LINE
  8
0
 62
     0
 10
224.624002
 20
-307.827404
 30
0.0
 11
229.124002
 21
-303.327404
 31
0.0
  0
LINE
  8
0
 62
     0
 10
224.624002
 20
-309.948724
 30
0.0
 11
229.124002
 21
-305.448724
 31
0.0
  0
LINE
  8
0
 62
     0
 10
224.624002
 20
-312.070045
 30
0.0
 11
229.124002
 21
-307.570045
 31
0.0
  0
LINE
  8
0
 62
     0
 10
224.624002
 20
-314.191365
 30
0.0
 11
229.124002
 21
-309.691365
 31
0.0
  0
LINE
  8
0
 62
     0
 10
224.624002
 20
-316.312685
 30
0.0
 11
229.374002
 21
-311.562685
 31
0.0
  0
LINE
  8
0
 62
     0
 10
224.624002
 20
-318.434006
 30
0.0
 11
229.374002
 21
-313.684006
 31
0.0
  0
LINE
  8
0
 62
     0
 10
224.624002
 20
-320.555326
 30
0.0
 11
229.374002
 21
-315.805326
 31
0.0
  0
LINE
  8
0
 62
     0
 10
224.624002
 20
-322.676646
 30
0.0
 11
229.374002
 21
-317.926646
 31
0.0
  0
LINE
  8
0
 62
     0
 10
224.624002
 20
-324.797967
 30
0.0
 11
229.374002
 21
-320.047967
 31
0.0
  0
LINE
  8
0
 62
     0
 10
224.624002
 20
-326.919287
 30
0.0
 11
229.374002
 21
-322.169287
 31
0.0
  0
LINE
  8
0
 62
     0
 10
224.624002
 20
-329.040607
 30
0.0
 11
229.374002
 21
-324.290607
 31
0.0
  0
LINE
  8
0
 62
     0
 10
224.624002
 20
-331.161928
 30
0.0
 11
229.374002
 21
-326.411928
 31
0.0
  0
LINE
  8
0
 62
     0
 10
224.624002
 20
-333.283248
 30
0.0
 11
229.374002
 21
-328.533248
 31
0.0
  0
LINE
  8
0
 62
     0
 10
224.624002
 20
-335.404568
 30
0.0
 11
229.374002
 21
-330.654568
 31
0.0
  0
LINE
  8
0
 62
     0
 10
224.624002
 20
-337.525889
 30
0.0
 11
229.374002
 21
-332.775889
 31
0.0
  0
LINE
  8
0
 62
     0
 10
224.624002
 20
-339.647209
 30
0.0
 11
229.374002
 21
-334.897209
 31
0.0
  0
LINE
  8
0
 62
     0
 10
224.624002
 20
-341.76853
 30
0.0
 11
229.374002
 21
-337.01853
 31
0.0
  0
LINE
  8
0
 62
     0
 10
224.999907
 20
-343.513945
 30
0.0
 11
229.374002
 21
-339.13985
 31
0.0
  0
LINE
  8
0
 62
     0
 10
226.032301
 20
-344.602871
 30
0.0
 11
229.374002
 21
-341.26117
 31
0.0
  0
LINE
  8
0
 62
     0
 10
227.696551
 20
-345.059942
 30
0.0
 11
229.374002
 21
-343.382491
 31
0.0
  0
LINE
  8
0
 62
     0
 10
224.624002
 20
-299.342123
 30
0.0
 11
229.124002
 21
-294.842123
 31
0.0
  0
LINE
  8
0
 62
     0
 10
224.624002
 20
-297.220802
 30
0.0
 11
229.124002
 21
-292.720802
 31
0.0
  0
LINE
  8
0
 62
     0
 10
224.624002
 20
-295.099482
 30
0.0
 11
229.124002
 21
-290.599482
 31
0.0
  0
LINE
  8
0
 62
     0
 10
224.624002
 20
-292.978162
 30
0.0
 11
229.124002
 21
-288.478162
 31
0.0
  0
LINE
  8
0
 62
     0
 10
224.624002
 20
-290.856841
 30
0.0
 11
229.124002
 21
-286.356841
 31
0.0
  0
LINE
  8
0
 62
     0
 10
224.624002
 20
-288.735521
 30
0.0
 11
229.124002
 21
-284.235521
 31
0.0
  0
LINE
  8
0
 62
     0
 10
224.624002
 20
-286.614201
 30
0.0
 11
229.124002
 21
-282.114201
 31
0.0
  0
LINE
  8
0
 62
     0
 10
224.624002
 20
-284.49288
 30
0.0
 11
229.124002
 21
-279.99288
 31
0.0
  0
LINE
  8
0
 62
     0
 10
224.624002
 20
-282.37156
 30
0.0
 11
229.124002
 21
-277.87156
 31
0.0
  0
LINE
  8
0
 62
     0
 10
224.624002
 20
-280.25024
 30
0.0
 11
229.124002
 21
-275.75024
 31
0.0
  0
LINE
  8
0
 62
     0
 10
224.624002
 20
-278.128919
 30
0.0
 11
229.124002
 21
-273.628919
 31
0.0
  0
LINE
  8
0
 62
     0
 10
224.624002
 20
-276.007599
 30
0.0
 11
229.124002
 21
-271.507599
 31
0.0
  0
LINE
  8
0
 62
     0
 10
224.624002
 20
-273.886279
 30
0.0
 11
229.124002
 21
-269.386279
 31
0.0
  0
LINE
  8
0
 62
     0
 10
224.624002
 20
-271.764958
 30
0.0
 11
229.124002
 21
-267.264958
 31
0.0
  0
LINE
  8
0
 62
     0
 10
224.624002
 20
-269.643638
 30
0.0
 11
229.124002
 21
-265.143638
 31
0.0
  0
LINE
  8
0
 62
     0
 10
224.624002
 20
-267.522317
 30
0.0
 11
229.124002
 21
-263.022317
 31
0.0
  0
LINE
  8
0
 62
     0
 10
224.624002
 20
-265.400997
 30
0.0
 11
229.124002
 21
-260.900997
 31
0.0
  0
LINE
  8
0
 62
     0
 10
224.624002
 20
-263.279677
 30
0.0
 11
229.124002
 21
-258.779677
 31
0.0
  0
LINE
  8
0
 62
     0
 10
224.624002
 20
-261.158356
 30
0.0
 11
229.124002
 21
-256.658356
 31
0.0
  0
LINE
  8
0
 62
     0
 10
224.624002
 20
-259.037036
 30
0.0
 11
228.417349
 21
-255.243689
 31
0.0
  0
LINE
  8
0
 62
     0
 10
225.097634
 20
-256.442084
 30
0.0
 11
226.006144
 21
-255.533574
 31
0.0
  0
ENDBLK
  8
0
  0
BLOCK
  8
0
  2
*X3
 70
    65
 10
0.0
 20
0.0
 30
0.0
  3
*X
  0
LINE
  8
0
 62
     0
 10
399.512314
 20
-160.516257
 30
0.0
 11
404.012314
 21
-156.016257
 31
0.0
  0
LINE
  8
0
 62
     0
 10
399.512314
 20
-158.394936
 30
0.0
 11
404.012314
 21
-153.894936
 31
0.0
  0
LINE
  8
0
 62
     0
 10
399.512314
 20
-156.273616
 30
0.0
 11
404.012314
 21
-151.773616
 31
0.0
  0
LINE
  8
0
 62
     0
 10
399.512314
 20
-154.152296
 30
0.0
 11
404.012314
 21
-149.652296
 31
0.0
  0
LINE
  8
0
 62
     0
 10
399.512314
 20
-152.030975
 30
0.0
 11
404.012314
 21
-147.530975
 31
0.0
  0
LINE
  8
0
 62
     0
 10
399.512314
 20
-149.909655
 30
0.0
 11
404.012314
 21
-145.409655
 31
0.0
  0
LINE
  8
0
 62
     0
 10
399.512314
 20
-147.788335
 30
0.0
 11
404.012314
 21
-143.288335
 31
0.0
  0
LINE
  8
0
 62
     0
 10
399.512314
 20
-145.667014
 30
0.0
 11
404.012314
 21
-141.167014
 31
0.0
  0
LINE
  8
0
 62
     0
 10
399.512314
 20
-143.545694
 30
0.0
 11
404.012314
 21
-139.045694
 31
0.0
  0
LINE
  8
0
 62
     0
 10
399.512314
 20
-141.424374
 30
0.0
 11
404.012314
 21
-136.924374
 31
0.0
  0
LINE
  8
0
 62
     0
 10
399.512314
 20
-139.303053
 30
0.0
 11
404.012314
 21
-134.803053
 31
0.0
  0
LINE
  8
0
 62
     0
 10
399.512314
 20
-137.181733
 30
0.0
 11
404.012314
 21
-132.681733
 31
0.0
  0
LINE
  8
0
 62
     0
 10
399.512314
 20
-135.060413
 30
0.0
 11
404.012314
 21
-130.560413
 31
0.0
  0
LINE
  8
0
 62
     0
 10
399.512314
 20
-132.939092
 30
0.0
 11
404.012314
 21
-128.439092
 31
0.0
  0
LINE
  8
0
 62
     0
 10
399.512314
 20
-130.817772
 30
0.0
 11
404.012314
 21
-126.317772
 31
0.0
  0
LINE
  8
0
 62
     0
 10
399.512314
 20
-128.696452
 30
0.0
 11
404.012314
 21
-124.196452
 31
0.0
  0
LINE
  8
0
 62
     0
 10
399.512314
 20
-126.575131
 30
0.0
 11
404.012314
 21
-122.075131
 31
0.0
  0
LINE
  8
0
 62
     0
 10
399.512314
 20
-124.453811
 30
0.0
 11
404.012314
 21
-119.953811
 31
0.0
  0
LINE
  8
0
 62
     0
 10
399.512314
 20
-122.332491
 30
0.0
 11
403.806321
 21
-118.038484
 31
0.0
  0
LINE
  8
0
 62
     0
 10
399.51673
 20
-120.206754
 30
0.0
 11
402.349593
 21
-117.373891
 31
0.0
  0
LINE
  8
0
 62
     0
 10
399.512314
 20
-162.637577
 30
0.0
 11
404.012314
 21
-158.137577
 31
0.0
  0
LINE
  8
0
 62
     0
 10
399.512314
 20
-164.758898
 30
0.0
 11
404.012314
 21
-160.258898
 31
0.0
  0
LINE
  8
0
 62
     0
 10
399.512314
 20
-166.880218
 30
0.0
 11
404.012314
 21
-162.380218
 31
0.0
  0
LINE
  8
0
 62
     0
 10
399.512314
 20
-169.001538
 30
0.0
 11
404.012314
 21
-164.501538
 31
0.0
  0
LINE
  8
0
 62
     0
 10
399.512314
 20
-171.122859
 30
0.0
 11
404.262314
 21
-166.372859
 31
0.0
  0
LINE
  8
0
 62
     0
 10
399.512314
 20
-173.244179
 30
0.0
 11
404.262314
 21
-168.494179
 31
0.0
  0
LINE
  8
0
 62
     0
 10
399.512314
 20
-175.365499
 30
0.0
 11
404.262314
 21
-170.615499
 31
0.0
  0
LINE
  8
0
 62
     0
 10
399.512314
 20
-177.48682
 30
0.0
 11
404.262314
 21
-172.73682
 31
0.0
  0
LINE
  8
0
 62
     0
 10
399.512314
 20
-179.60814
 30
0.0
 11
404.262314
 21
-174.85814
 31
0.0
  0
LINE
  8
0
 62
     0
 10
399.512314
 20
-181.72946
 30
0.0
 11
404.262314
 21
-176.97946
 31
0.0
  0
LINE
  8
0
 62
     0
 10
399.512314
 20
-183.850781
 30
0.0
 11
404.262314
 21
-179.100781
 31
0.0
  0
LINE
  8
0
 62
     0
 10
399.512314
 20
-185.972101
 30
0.0
 11
404.262314
 21
-181.222101
 31
0.0
  0
LINE
  8
0
 62
     0
 10
399.512314
 20
-188.093421
 30
0.0
 11
404.262314
 21
-183.343421
 31
0.0
  0
LINE
  8
0
 62
     0
 10
399.512314
 20
-190.214742
 30
0.0
 11
404.262314
 21
-185.464742
 31
0.0
  0
LINE
  8
0
 62
     0
 10
399.512314
 20
-192.336062
 30
0.0
 11
404.262314
 21
-187.586062
 31
0.0
  0
LINE
  8
0
 62
     0
 10
399.512314
 20
-194.457382
 30
0.0
 11
404.262314
 21
-189.707382
 31
0.0
  0
LINE
  8
0
 62
     0
 10
399.519149
 20
-196.571868
 30
0.0
 11
404.262314
 21
-191.828703
 31
0.0
  0
LINE
  8
0
 62
     0
 10
400.082842
 20
-198.129494
 30
0.0
 11
404.262314
 21
-193.950023
 31
0.0
  0
LINE
  8
0
 62
     0
 10
401.245005
 20
-199.088653
 30
0.0
 11
404.262314
 21
-196.071343
 31
0.0
  0
LINE
  8
0
 62
     0
 10
403.085503
 20
-199.369475
 30
0.0
 11
404.262314
 21
-198.192664
 31
0.0
  0
LINE
  8
0
 62
     0
 10
404.012314
 20
-162.181795
 30
0.0
 11
399.512314
 21
-157.681795
 31
0.0
  0
LINE
  8
0
 62
     0
 10
404.012314
 20
-164.303115
 30
0.0
 11
399.512314
 21
-159.803115
 31
0.0
  0
LINE
  8
0
 62
     0
 10
404.262314
 20
-166.674435
 30
0.0
 11
399.512314
 21
-161.924435
 31
0.0
  0
LINE
  8
0
 62
     0
 10
404.262314
 20
-168.795756
 30
0.0
 11
399.512314
 21
-164.045756
 31
0.0
  0
LINE
  8
0
 62
     0
 10
404.262314
 20
-170.917076
 30
0.0
 11
399.512314
 21
-166.167076
 31
0.0
  0
LINE
  8
0
 62
     0
 10
404.262314
 20
-173.038396
 30
0.0
 11
399.512314
 21
-168.288396
 31
0.0
  0
LINE
  8
0
 62
     0
 10
404.262314
 20
-175.159717
 30
0.0
 11
399.512314
 21
-170.409717
 31
0.0
  0
LINE
  8
0
 62
     0
 10
404.262314
 20
-177.281037
 30
0.0
 11
399.512314
 21
-172.531037
 31
0.0
  0
LINE
  8
0
 62
     0
 10
404.262314
 20
-179.402357
 30
0.0
 11
399.512314
 21
-174.652357
 31
0.0
  0
LINE
  8
0
 62
     0
 10
404.262314
 20
-181.523678
 30
0.0
 11
399.512314
 21
-176.773678
 31
0.0
  0
LINE
  8
0
 62
     0
 10
404.262314
 20
-183.644998
 30
0.0
 11
399.512314
 21
-178.894998
 31
0.0
  0
LINE
  8
0
 62
     0
 10
404.262314
 20
-185.766318
 30
0.0
 11
399.512314
 21
-181.016318
 31
0.0
  0
LINE
  8
0
 62
     0
 10
404.262314
 20
-187.887639
 30
0.0
 11
399.512314
 21
-183.137639
 31
0.0
  0
LINE
  8
0
 62
     0
 10
404.262314
 20
-190.008959
 30
0.0
 11
399.512314
 21
-185.258959
 31
0.0
  0
LINE
  8
0
 62
     0
 10
404.262314
 20
-192.13028
 30
0.0
 11
399.512314
 21
-187.38028
 31
0.0
  0
LINE
  8
0
 62
     0
 10
404.262314
 20
-194.2516
 30
0.0
 11
399.512314
 21
-189.5016
 31
0.0
  0
LINE
  8
0
 62
     0
 10
404.262314
 20
-196.37292
 30
0.0
 11
399.512314
 21
-191.62292
 31
0.0
  0
LINE
  8
0
 62
     0
 10
404.262314
 20
-198.494241
 30
0.0
 11
399.512314
 21
-193.744241
 31
0.0
  0
LINE
  8
0
 62
     0
 10
403.016228
 20
-199.369475
 30
0.0
 11
399.512314
 21
-195.865561
 31
0.0
  0
LINE
  8
0
 62
     0
 10
404.012314
 20
-160.060474
 30
0.0
 11
399.512314
 21
-155.560474
 31
0.0
  0
LINE
  8
0
 62
     0
 10
404.012314
 20
-157.939154
 30
0.0
 11
399.512314
 21
-153.439154
 31
0.0
  0
LINE
  8
0
 62
     0
 10
404.012314
 20
-155.817834
 30
0.0
 11
399.512314
 21
-151.317834
 31
0.0
  0
LINE
  8
0
 62
     0
 10
404.012314
 20
-153.696513
 30
0.0
 11
399.512314
 21
-149.196513
 31
0.0
  0
LINE
  8
0
 62
     0
 10
404.012314
 20
-151.575193
 30
0.0
 11
399.512314
 21
-147.075193
 31
0.0
  0
LINE
  8
0
 62
     0
 10
404.012314
 20
-149.453873
 30
0.0
 11
399.512314
 21
-144.953873
 31
0.0
  0
LINE
  8
0
 62
     0
 10
404.012314
 20
-147.332552
 30
0.0
 11
399.512314
 21
-142.832552
 31
0.0
  0
LINE
  8
0
 62
     0
 10
404.012314
 20
-145.211232
 30
0.0
 11
399.512314
 21
-140.711232
 31
0.0
  0
LINE
  8
0
 62
     0
 10
404.012314
 20
-143.089912
 30
0.0
 11
399.512314
 21
-138.589912
 31
0.0
  0
LINE
  8
0
 62
     0
 10
404.012314
 20
-140.968591
 30
0.0
 11
399.512314
 21
-136.468591
 31
0.0
  0
LINE
  8
0
 62
     0
 10
404.012314
 20
-138.847271
 30
0.0
 11
399.512314
 21
-134.347271
 31
0.0
  0
LINE
  8
0
 62
     0
 10
404.012314
 20
-136.725951
 30
0.0
 11
399.512314
 21
-132.225951
 31
0.0
  0
LINE
  8
0
 62
     0
 10
404.012314
 20
-134.60463
 30
0.0
 11
399.512314
 21
-130.10463
 31
0.0
  0
LINE
  8
0
 62
     0
 10
404.012314
 20
-132.48331
 30
0.0
 11
399.512314
 21
-127.98331
 31
0.0
  0
LINE
  8
0
 62
     0
 10
404.012314
 20
-130.36199
 30
0.0
 11
399.512314
 21
-125.86199
 31
0.0
  0
LINE
  8
0
 62
     0
 10
404.012314
 20
-128.240669
 30
0.0
 11
399.512314
 21
-123.740669
 31
0.0
  0
LINE
  8
0
 62
     0
 10
404.012314
 20
-126.119349
 30
0.0
 11
399.512314
 21
-121.619349
 31
0.0
  0
LINE
  8
0
 62
     0
 10
404.012314
 20
-123.998029
 30
0.0
 11
399.613013
 21
-119.598727
 31
0.0
  0
LINE
  8
0
 62
     0
 10
404.012314
 20
-121.876708
 30
0.0
 11
400.38738
 21
-118.251774
 31
0.0
  0
LINE
  8
0
 62
     0
 10
404.012314
 20
-119.755388
 30
0.0
 11
401.730157
 21
-117.473231
 31
0.0
  0
ENDBLK
  8
0
  0
ENDSEC
  0
SECTION
  2
ENTITIES
  0
ARC
  8
0
 10
246.658248
 20
-188.920254
 30
0.0
 40
70.400259
 50
79.507619
 51
83.037321
  0
LINE
  8
0
 10
241.055427
 20
-119.039174
 30
0.0
 11
255.192365
 21
-119.039174
 31
0.0
  0
ARC
  8
0
 10
241.123896
 20
-119.534464
 30
0.0
 40
0.5
 50
0.0
 51
97.87066
  0
LINE
  8
0
 10
242.123896
 20
-129.539174
 30
0.0
 11
242.123896
 21
-125.039174
 31
0.0
  0
LINE
  8
0
 10
241.623896
 20
-119.533517
 30
0.0
 11
241.623896
 21
-166.039174
 31
0.0
  0
LINE
  8
0
 10
243.923896
 20
-166.039174
 30
0.0
 11
243.923896
 21
-188.518339
 31
0.0
  0
LINE
  8
0
 10
244.123896
 20
-129.539174
 30
0.0
 11
244.123896
 21
-211.518339
 31
0.0
  0
LINE
  8
0
 10
255.373896
 20
-195.018339
 30
0.0
 11
255.373896
 21
-188.518339
 31
0.0
  0
LINE
  8
0
 10
240.873896
 20
-195.018339
 30
0.0
 11
240.873896
 21
-188.518339
 31
0.0
  0
LINE
  8
0
 10
240.873896
 20
-195.018339
 30
0.0
 11
244.123896
 21
-195.018339
 31
0.0
  0
LINE
  8
0
 10
251.887431
 20
-195.018339
 30
0.0
 11
251.887431
 21
-188.518339
 31
0.0
  0
LINE
  8
0
 10
240.529503
 20
-188.518339
 30
0.0
 11
244.623896
 21
-188.518339
 31
0.0
  0
ARC
  8
0
 10
249.589544
 20
-188.920254
 30
0.0
 40
70.400259
 50
96.962679
 51
100.492381
  0
LINE
  8
0
 10
257.102791
 20
-187.326022
 30
0.0
 11
260.62392
 21
-160.518499
 31
0.0
  0
LINE
  8
0
 10
260.62392
 20
-160.518499
 30
0.0
 11
260.62392
 21
-121.073805
 31
0.0
  0
LINE
  8
0
 10
239.145
 20
-187.326022
 30
0.0
 11
235.623872
 21
-160.518499
 31
0.0
  0
LINE
  8
0
 10
235.623872
 20
-160.518499
 30
0.0
 11
235.623872
 21
-121.073805
 31
0.0
  0
ARC
  8
0
 10
237.023864
 20
-121.073805
 30
0.0
 40
1.399992
 50
100.475682
 51
180.0
  0
ARC
  8
0
 10
259.223928
 20
-121.073805
 30
0.0
 40
1.399992
 50
0.0
 51
79.524318
  0
LINE
  8
0
 10
248.123896
 20
-120.618727
 30
0.0
 11
260.547892
 21
-120.618727
 31
0.0
  0
ARC
  8
0
 10
240.529503
 20
-187.118347
 30
0.0
 40
1.399992
 50
188.530766
 51
270.0
  0
ARC
  8
0
 10
255.718288
 20
-187.118347
 30
0.0
 40
1.399992
 50
270.0
 51
351.469234
  0
LINE
  8
0
 10
248.123896
 20
-188.518339
 30
0.0
 11
255.718288
 21
-188.518339
 31
0.0
  0
LINE
  8
0
 10
241.623896
 20
-166.039174
 30
0.0
 11
244.123896
 21
-166.039174
 31
0.0
  0
LINE
  8
0
 10
242.123896
 20
-166.039174
 30
0.0
 11
242.123896
 21
-188.518339
 31
0.0
  0
LINE
  8
0
 10
244.623896
 20
-187.539174
 30
0.0
 11
244.623896
 21
-212.018339
 31
0.0
  0
LINE
  8
0
 10
242.123896
 20
-125.039174
 30
0.0
 11
247.423896
 21
-125.039174
 31
0.0
  0
LINE
  8
0
 10
242.123896
 20
-129.539174
 30
0.0
 11
244.123896
 21
-129.539174
 31
0.0
  0
LINE
  8
0
 10
248.123896
 20
-127.039174
 30
0.0
 11
247.423896
 21
-127.039174
 31
0.0
  0
LINE
  8
0
 10
247.423896
 20
-127.039174
 30
0.0
 11
247.423896
 21
-125.039174
 31
0.0
  0
LINE
  8
0
 10
244.123896
 20
-183.539174
 30
0.0
 11
248.123896
 21
-183.539174
 31
0.0
  0
LINE
  8
0
 10
244.123896
 20
-185.539174
 30
0.0
 11
248.123896
 21
-185.539174
 31
0.0
  0
LINE
  8
0
 10
244.623896
 20
-187.539174
 30
0.0
 11
248.123896
 21
-187.539174
 31
0.0
  0
LINE
  8
0
 10
244.623896
 20
-187.539174
 30
0.0
 11
244.123896
 21
-187.039174
 31
0.0
  0
LINE
  8
0
 10
244.123896
 20
-187.039174
 30
0.0
 11
248.123896
 21
-187.039174
 31
0.0
  0
CIRCLE
  8
0
 10
242.819355
 20
-165.539174
 30
0.0
 40
0.5
  0
CIRCLE
  8
0
 10
242.819355
 20
-130.039174
 30
0.0
 40
0.5
  0
CIRCLE
  8
0
 10
242.819355
 20
-147.204212
 30
0.0
 40
0.5
  0
CIRCLE
  8
0
 10
242.819355
 20
-138.445512
 30
0.0
 40
0.5
  0
CIRCLE
  8
0
 10
242.819355
 20
-157.32202
 30
0.0
 40
0.5
  0
CIRCLE
  8
0
 10
242.819355
 20
-134.015825
 30
0.0
 40
0.5
  0
CIRCLE
  8
0
 10
242.819355
 20
-142.4725
 30
0.0
 40
0.5
  0
CIRCLE
  8
0
 10
242.819355
 20
-152.237947
 30
0.0
 40
0.5
  0
CIRCLE
  8
0
 10
242.819355
 20
-161.600696
 30
0.0
 40
0.5
  0
INSERT
  8
0
  2
*X0
 10
-45.58908
 20
-62.06512
 30
0.0
  0
ARC
  8
0
 10
248.123896
 20
-177.539174
 30
0.0
 40
1.5
 50
90.0
 51
270.0
  0
INSERT
  8
0
  2
*X0
 10
400.839892
 20
120.539021
 30
0.0
 50
272.0
  0
CIRCLE
  8
0
 10
328.24911
 20
-170.580138
 30
0.0
 40
0.5
  0
CIRCLE
  8
0
 10
307.49418
 20
-171.304916
 30
0.0
 40
0.5
  0
LINE
  8
0
 10
275.094526
 20
-174.241978
 30
0.0
 11
275.338823
 21
-181.237714
 31
0.0
  0
LINE
  8
0
 10
288.8187
 20
-173.262414
 30
0.0
 11
288.958298
 21
-177.259978
 31
0.0
  0
LINE
  8
0
 10
331.407979
 20
-175.077176
 30
0.0
 11
333.40676
 21
-175.007377
 31
0.0
  0
LINE
  8
0
 10
331.432408
 20
-175.776749
 30
0.0
 11
331.407979
 21
-175.077176
 31
0.0
  0
LINE
  8
0
 10
328.724534
 20
-169.867653
 30
0.0
 11
328.794333
 21
-171.866435
 31
0.0
  0
LINE
  8
0
 10
333.221793
 20
-169.710605
 30
0.0
 11
333.40676
 21
-175.007377
 31
0.0
  0
LINE
  8
0
 10
306.970214
 20
-170.62733
 30
0.0
 11
284.504742
 21
-171.411842
 31
0.0
  0
LINE
  8
0
 10
306.952764
 20
-170.127635
 30
0.0
 11
307.040013
 21
-172.626112
 31
0.0
  0
LINE
  8
0
 10
284.714139
 20
-177.408187
 30
0.0
 11
284.97918
 21
-184.997953
 31
0.0
  0
ARC
  8
0
 10
286.378319
 20
-184.949094
 30
0.0
 40
1.399992
 50
182.0
 51
263.469234
  0
ARC
  8
0
 10
285.848238
 20
-169.769562
 30
0.0
 40
1.399992
 50
100.530766
 51
182.0
  0
LINE
  8
0
 10
352.572388
 20
-175.038525
 30
0.0
 11
353.00598
 21
-187.454953
 31
0.0
  0
ARC
  8
0
 10
352.504973
 20
-186.147677
 30
0.0
 40
1.399992
 50
272.0
 51
351.524318
  0
ARC
  8
0
 10
351.730202
 20
-163.961137
 30
0.0
 40
1.399992
 50
12.475682
 51
92.0
  0
LINE
  8
0
 10
312.260678
 20
-163.938597
 30
0.0
 11
351.681343
 21
-162.561997
 31
0.0
  0
LINE
  8
0
 10
285.59237
 20
-168.39315
 30
0.0
 11
312.260678
 21
-163.938597
 31
0.0
  0
LINE
  8
0
 10
313.133167
 20
-188.923416
 30
0.0
 11
352.553832
 21
-187.546816
 31
0.0
  0
LINE
  8
0
 10
286.219088
 20
-186.340002
 30
0.0
 11
313.133167
 21
-188.923416
 31
0.0
  0
ARC
  8
0
 10
284.36362
 20
-178.886968
 30
0.0
 40
70.400259
 50
8.962679
 51
12.492381
  0
LINE
  8
0
 10
284.449099
 20
-169.818421
 30
0.0
 11
284.510854
 21
-171.586856
 31
0.0
  0
LINE
  8
0
 10
328.794333
 20
-171.866435
 30
0.0
 11
275.576772
 21
-173.724833
 31
0.0
  0
LINE
  8
0
 10
307.033033
 20
-172.426234
 30
0.0
 11
284.963172
 21
-173.196931
 31
0.0
  0
LINE
  8
0
 10
353.430091
 20
-168.504611
 30
0.0
 11
306.952764
 21
-170.127635
 31
0.0
  0
LINE
  8
0
 10
328.724534
 20
-169.867653
 30
0.0
 11
333.221793
 21
-169.710605
 31
0.0
  0
ARC
  8
0
 10
353.411695
 20
-168.004949
 30
0.0
 40
0.5
 50
272.0
 51
9.87066
  0
LINE
  8
0
 10
353.904294
 20
-167.919236
 30
0.0
 11
354.397666
 21
-182.047562
 31
0.0
  0
ARC
  8
0
 10
284.261319
 20
-175.957459
 30
0.0
 40
70.400259
 50
351.507619
 51
355.037321
  0
LINE
  8
0
 10
273.713172
 20
-195.018339
 30
0.0
 11
273.713172
 21
-188.518339
 31
0.0
  0
LINE
  8
0
 10
276.963172
 20
-172.039174
 30
0.0
 11
276.963172
 21
-173.676419
 31
0.0
  0
LINE
  8
0
 10
284.726707
 20
-195.018339
 30
0.0
 11
284.726707
 21
-188.518339
 31
0.0
  0
LINE
  8
0
 10
273.713172
 20
-195.018339
 30
0.0
 11
288.213172
 21
-195.018339
 31
0.0
  0
LINE
  8
0
 10
288.213172
 20
-195.018339
 30
0.0
 11
288.213172
 21
-188.518339
 31
0.0
  0
LINE
  8
0
 10
273.713172
 20
-188.518339
 30
0.0
 11
288.213172
 21
-188.518339
 31
0.0
  0
LINE
  8
0
 10
276.963172
 20
-185.539174
 30
0.0
 11
284.963172
 21
-185.539174
 31
0.0
  0
LINE
  8
0
 10
277.463172
 20
-171.539174
 30
0.0
 11
284.463172
 21
-171.539174
 31
0.0
  0
LINE
  8
0
 10
242.123896
 20
-188.018339
 30
0.0
 11
243.923896
 21
-188.018339
 31
0.0
  0
LINE
  8
0
 10
285.004438
 20
-171.394392
 30
0.0
 11
285.067257
 21
-173.193296
 31
0.0
  0
CIRCLE
  8
0
 10
318.073893
 20
-170.935465
 30
0.0
 40
0.5
  0
CIRCLE
  8
0
 10
323.084389
 20
-170.760494
 30
0.0
 40
0.5
  0
CIRCLE
  8
0
 10
313.063397
 20
-171.110435
 30
0.0
 40
0.5
  0
CIRCLE
  8
0
 10
325.501419
 20
-170.67609
 30
0.0
 40
0.5
  0
CIRCLE
  8
0
 10
320.579141
 20
-170.84798
 30
0.0
 40
0.5
  0
CIRCLE
  8
0
 10
315.730274
 20
-171.017306
 30
0.0
 40
0.5
  0
CIRCLE
  8
0
 10
310.154077
 20
-171.212031
 30
0.0
 40
0.5
  0
LINE
  8
0
 10
275.094526
 20
-174.241978
 30
0.0
 11
275.576772
 21
-173.724833
 31
0.0
  0
LINE
  8
0
 10
275.338823
 20
-181.237714
 30
0.0
 11
275.855968
 21
-181.719959
 31
0.0
  0
LINE
  8
0
 10
284.963172
 20
-172.039174
 30
0.0
 11
284.963172
 21
-173.397052
 31
0.0
  0
LINE
  8
0
 10
276.963172
 20
-172.039174
 30
0.0
 11
277.463172
 21
-171.539174
 31
0.0
  0
LINE
  8
0
 10
284.463172
 20
-171.539174
 30
0.0
 11
284.963172
 21
-172.039174
 31
0.0
  0
CIRCLE
  8
0
 10
280.963172
 20
-177.539174
 30
0.0
 40
1.5
  0
LINE
  8
0
 10
276.963172
 20
-181.681295
 30
0.0
 11
275.855968
 21
-181.719959
 31
0.0
  0
LINE
  8
0
 10
284.963172
 20
-184.539547
 30
0.0
 11
284.963172
 21
-188.518339
 31
0.0
  0
LINE
  8
0
 10
276.963172
 20
-177.678857
 30
0.0
 11
276.963172
 21
-188.518339
 31
0.0
  0
LINE
  8
0
  6
CENTER
 10
271.955841
 20
-177.853717
 30
0.0
 11
356.31654
 21
-174.907776
 31
0.0
  0
LINE
  8
0
  6
CENTER
 10
248.123896
 20
-116.247448
 30
0.0
 11
248.123896
 21
-213.96984
 31
0.0
  0
LINE
  8
0
 10
413.580167
 20
-185.518339
 30
0.0
 11
413.580167
 21
-109.518339
 31
0.0
  0
LINE
  8
0
 10
439.080167
 20
-185.518339
 30
0.0
 11
439.080167
 21
-109.518339
 31
0.0
  0
LINE
  8
0
 10
416.580167
 20
-188.518339
 30
0.0
 11
421.330167
 21
-188.518339
 31
0.0
  0
ARC
  8
0
 10
416.580167
 20
-109.518339
 30
0.0
 40
3.0
 50
90.0
 51
180.0
  0
ARC
  8
0
 10
436.080167
 20
-109.518339
 30
0.0
 40
3.0
 50
0.0
 51
90.0
  0
ARC
  8
0
 10
416.580167
 20
-185.518339
 30
0.0
 40
3.0
 50
180.0
 51
270.0
  0
ARC
  8
0
 10
436.080167
 20
-185.518339
 30
0.0
 40
3.0
 50
270.0
 51
0.0
  0
LINE
  8
0
 10
418.080167
 20
-154.518339
 30
0.0
 11
420.580167
 21
-154.518339
 31
0.0
  0
LINE
  8
0
 10
420.330167
 20
-188.518339
 30
0.0
 11
420.330167
 21
-154.518339
 31
0.0
  0
LINE
  8
0
 10
418.080167
 20
-154.518339
 30
0.0
 11
418.080167
 21
-107.918339
 31
0.0
  0
LINE
  8
0
 10
418.330167
 20
-188.518339
 30
0.0
 11
418.330167
 21
-154.518339
 31
0.0
  0
ARC
  8
0
 10
416.680167
 20
-107.918339
 30
0.0
 40
1.4
 50
0.0
 51
90.0
  0
LINE
  8
0
 10
416.580167
 20
-106.518339
 30
0.0
 11
436.080167
 21
-106.518339
 31
0.0
  0
LINE
  8
0
 10
420.580167
 20
-186.909184
 30
0.0
 11
420.580167
 21
-113.909184
 31
0.0
  0
LINE
  8
0
 10
421.330167
 20
-187.659184
 30
0.0
 11
421.330167
 21
-218.768339
 31
0.0
  0
LINE
  8
0
 10
421.330167
 20
-187.659184
 30
0.0
 11
420.580167
 21
-186.909184
 31
0.0
  0
LINE
  8
0
 10
417.830167
 20
-188.518339
 30
0.0
 11
417.830167
 21
-196.518339
 31
0.0
  0
LINE
  8
0
 10
434.830167
 20
-188.518339
 30
0.0
 11
434.830167
 21
-196.518339
 31
0.0
  0
ARC
  8
0
 10
426.330167
 20
-176.909184
 30
0.0
 40
1.5
 50
90.0
 51
270.0
  0
LINE
  8
0
 10
420.580167
 20
-168.909184
 30
0.0
 11
426.330167
 21
-168.909184
 31
0.0
  0
LINE
  8
0
 10
420.580167
 20
-166.909184
 30
0.0
 11
426.330167
 21
-166.909184
 31
0.0
  0
LINE
  8
0
 10
418.330167
 20
-113.909184
 30
0.0
 11
420.580167
 21
-113.909184
 31
0.0
  0
LINE
  8
0
 10
418.330167
 20
-107.909184
 30
0.0
 11
426.330167
 21
-107.909184
 31
0.0
  0
LINE
  8
0
 10
418.330167
 20
-113.909184
 30
0.0
 11
418.330167
 21
-107.909184
 31
0.0
  0
LINE
  8
0
 10
426.330167
 20
-188.518339
 30
0.0
 11
436.080167
 21
-188.518339
 31
0.0
  0
CIRCLE
  8
0
 10
419.276768
 20
-114.609184
 30
0.0
 40
0.7
  0
CIRCLE
  8
0
 10
419.276768
 20
-153.818339
 30
0.0
 40
0.7
  0
CIRCLE
  8
0
 10
419.276768
 20
-134.834176
 30
0.0
 40
0.7
  0
CIRCLE
  8
0
 10
419.276768
 20
-124.598738
 30
0.0
 40
0.7
  0
CIRCLE
  8
0
 10
419.276768
 20
-144.383438
 30
0.0
 40
0.7
  0
CIRCLE
  8
0
 10
419.276768
 20
-149.301023
 30
0.0
 40
0.7
  0
CIRCLE
  8
0
 10
419.276768
 20
-139.75176
 30
0.0
 40
0.7
  0
CIRCLE
  8
0
 10
419.276768
 20
-129.745047
 30
0.0
 40
0.7
  0
CIRCLE
  8
0
 10
419.276768
 20
-119.566791
 30
0.0
 40
0.7
  0
LINE
  8
0
 10
417.830167
 20
-196.518339
 30
0.0
 11
421.330167
 21
-196.518339
 31
0.0
  0
LINE
  8
0
 10
421.330167
 20
-187.659184
 30
0.0
 11
426.330167
 21
-187.659184
 31
0.0
  0
LINE
  8
0
 10
420.580167
 20
-186.909184
 30
0.0
 11
426.330167
 21
-186.909184
 31
0.0
  0
LINE
  8
0
 10
448.59289
 20
-188.518339
 30
0.0
 11
465.59289
 21
-188.518339
 31
0.0
  0
LINE
  8
0
 10
448.59289
 20
-196.518339
 30
0.0
 11
465.59289
 21
-196.518339
 31
0.0
  0
LINE
  8
0
 10
451.34289
 20
-185.518339
 30
0.0
 11
451.34289
 21
-175.518339
 31
0.0
  0
LINE
  8
0
 10
462.09289
 20
-186.268339
 30
0.0
 11
462.84289
 21
-185.518339
 31
0.0
  0
LINE
  8
0
 10
452.09289
 20
-186.268339
 30
0.0
 11
451.34289
 21
-185.518339
 31
0.0
  0
LINE
  8
0
 10
448.59289
 20
-188.518339
 30
0.0
 11
448.59289
 21
-196.518339
 31
0.0
  0
LINE
  8
0
 10
465.59289
 20
-188.518339
 30
0.0
 11
465.59289
 21
-196.518339
 31
0.0
  0
CIRCLE
  8
0
 10
457.09289
 20
-175.518339
 30
0.0
 40
1.5
  0
LINE
  8
0
 10
452.34289
 20
-167.518339
 30
0.0
 11
462.34289
 21
-167.518339
 31
0.0
  0
LINE
  8
0
 10
425.330167
 20
-110.909184
 30
0.0
 11
426.330167
 21
-110.909184
 31
0.0
  0
LINE
  8
0
 10
425.330167
 20
-110.909184
 30
0.0
 11
425.330167
 21
-107.909184
 31
0.0
  0
LINE
  8
0
 10
520.09289
 20
-167.518339
 30
0.0
 11
526.09289
 21
-167.518339
 31
0.0
  0
LINE
  8
0
 10
526.09289
 20
-167.518339
 30
0.0
 11
526.09289
 21
-175.518339
 31
0.0
  0
LINE
  8
0
 10
520.09289
 20
-167.518339
 30
0.0
 11
520.09289
 21
-169.768339
 31
0.0
  0
LINE
  8
0
 10
467.09289
 20
-169.768339
 30
0.0
 11
467.09289
 21
-175.518339
 31
0.0
  0
LINE
  8
0
 10
451.09289
 20
-169.768339
 30
0.0
 11
520.09289
 21
-169.768339
 31
0.0
  0
LINE
  8
0
 10
544.84289
 20
-165.768339
 30
0.0
 11
544.84289
 21
-185.268339
 31
0.0
  0
ARC
  8
0
 10
543.44289
 20
-165.868339
 30
0.0
 40
1.4
 50
270.0
 51
0.0
  0
LINE
  8
0
 10
462.84289
 20
-167.518339
 30
0.0
 11
496.84289
 21
-167.518339
 31
0.0
  0
LINE
  8
0
 10
496.84289
 20
-167.268339
 30
0.0
 11
543.44289
 21
-167.268339
 31
0.0
  0
LINE
  8
0
 10
462.84289
 20
-169.518339
 30
0.0
 11
496.84289
 21
-169.518339
 31
0.0
  0
LINE
  8
0
 10
496.84289
 20
-167.268339
 30
0.0
 11
496.84289
 21
-169.768339
 31
0.0
  0
ARC
  8
0
 10
465.84289
 20
-185.268339
 30
0.0
 40
3.0
 50
180.0
 51
270.0
  0
ARC
  8
0
 10
465.84289
 20
-165.768339
 30
0.0
 40
3.0
 50
90.0
 51
180.0
  0
ARC
  8
0
 10
541.84289
 20
-185.268339
 30
0.0
 40
3.0
 50
270.0
 51
0.0
  0
ARC
  8
0
 10
541.84289
 20
-165.768339
 30
0.0
 40
3.0
 50
0.0
 51
90.0
  0
LINE
  8
0
 10
462.84289
 20
-165.768339
 30
0.0
 11
462.84289
 21
-169.768339
 31
0.0
  0
LINE
  8
0
 10
465.84289
 20
-188.268339
 30
0.0
 11
541.84289
 21
-188.268339
 31
0.0
  0
LINE
  8
0
 10
465.84289
 20
-162.768339
 30
0.0
 11
541.84289
 21
-162.768339
 31
0.0
  0
LINE
  8
0
  6
CENTER
 10
447.915725
 20
-175.518339
 30
0.0
 11
547.215392
 21
-175.518339
 31
0.0
  0
LINE
  8
0
 10
462.34289
 20
-167.518339
 30
0.0
 11
462.84289
 21
-168.018339
 31
0.0
  0
LINE
  8
0
 10
450.09289
 20
-180.268339
 30
0.0
 11
450.09289
 21
-170.768339
 31
0.0
  0
LINE
  8
0
 10
450.09289
 20
-170.768339
 30
0.0
 11
451.09289
 21
-169.768339
 31
0.0
  0
LINE
  8
0
 10
450.09289
 20
-180.268339
 30
0.0
 11
451.34289
 21
-181.518339
 31
0.0
  0
LINE
  8
0
 10
451.34289
 20
-168.518339
 30
0.0
 11
452.34289
 21
-167.518339
 31
0.0
  0
LINE
  8
0
 10
451.34289
 20
-169.768339
 30
0.0
 11
451.34289
 21
-168.518339
 31
0.0
  0
LINE
  8
0
 10
462.84289
 20
-175.518339
 30
0.0
 11
462.84289
 21
-185.268339
 31
0.0
  0
LINE
  8
0
 10
452.09289
 20
-186.268339
 30
0.0
 11
452.09289
 21
-188.518339
 31
0.0
  0
LINE
  8
0
 10
462.09289
 20
-186.268339
 30
0.0
 11
462.09289
 21
-188.518339
 31
0.0
  0
CIRCLE
  8
0
 10
519.39289
 20
-168.643339
 30
0.0
 40
0.7
  0
CIRCLE
  8
0
 10
497.54289
 20
-168.643339
 30
0.0
 40
0.7
  0
CIRCLE
  8
0
 10
508.095581
 20
-168.643339
 30
0.0
 40
0.7
  0
CIRCLE
  8
0
 10
502.558317
 20
-168.643339
 30
0.0
 40
0.7
  0
CIRCLE
  8
0
 10
513.951745
 20
-168.643339
 30
0.0
 40
0.7
  0
CIRCLE
  8
0
 10
500.123081
 20
-168.643339
 30
0.0
 40
0.7
  0
CIRCLE
  8
0
 10
505.283463
 20
-168.643339
 30
0.0
 40
0.7
  0
CIRCLE
  8
0
 10
511.110636
 20
-168.643339
 30
0.0
 40
0.7
  0
CIRCLE
  8
0
 10
516.937809
 20
-168.643339
 30
0.0
 40
0.7
  0
LINE
  8
0
 10
523.09289
 20
-174.518339
 30
0.0
 11
526.09289
 21
-174.518339
 31
0.0
  0
LINE
  8
0
 10
523.09289
 20
-174.518339
 30
0.0
 11
523.09289
 21
-175.518339
 31
0.0
  0
LINE
  8
0
 10
462.84289
 20
-238.653873
 30
0.0
 11
462.84289
 21
-258.153873
 31
0.0
  0
LINE
  8
0
 10
450.09289
 20
-246.403873
 30
0.0
 11
462.84289
 21
-246.403873
 31
0.0
  0
LINE
  8
0
 10
450.09289
 20
-246.403873
 30
0.0
 11
450.09289
 21
-250.403873
 31
0.0
  0
LINE
  8
0
 10
465.84289
 20
-235.653873
 30
0.0
 11
541.84289
 21
-235.653873
 31
0.0
  0
LINE
  8
0
 10
465.84289
 20
-261.153873
 30
0.0
 11
541.84289
 21
-261.153873
 31
0.0
  0
ARC
  8
0
 10
541.84289
 20
-238.653873
 30
0.0
 40
3.0
 50
0.0
 51
90.0
  0
ARC
  8
0
 10
541.84289
 20
-258.153873
 30
0.0
 40
3.0
 50
270.0
 51
0.0
  0
ARC
  8
0
 10
465.84289
 20
-238.653873
 30
0.0
 40
3.0
 50
90.0
 51
180.0
  0
ARC
  8
0
 10
465.84289
 20
-258.153873
 30
0.0
 40
3.0
 50
180.0
 51
270.0
  0
LINE
  8
0
 10
544.84289
 20
-238.653873
 30
0.0
 11
544.84289
 21
-258.153873
 31
0.0
  0
ARC
  8
0
 10
457.09289
 20
-248.403873
 30
0.0
 40
5.75
 50
200.354406
 51
339.645594
  0
LINE
  8
0
 10
450.09289
 20
-250.403873
 30
0.0
 11
462.84289
 21
-250.403873
 31
0.0
  0
LINE
  8
0
 10
451.09289
 20
-246.403873
 30
0.0
 11
451.09289
 21
-250.403873
 31
0.0
  0
ARC
  8
0
 10
457.09289
 20
-248.403873
 30
0.0
 40
5.75
 50
20.354406
 51
159.645594
  0
POLYLINE
  8
0
 66
     1
 10
0.0
 20
0.0
 30
0.0
  0
VERTEX
  8
0
 10
448.59289
 20
-253.31135
 30
0.0
 50
90.0
  0
VERTEX
  8
0
 10
457.09289
 20
-258.218827
 30
0.0
 50
90.0
  0
VERTEX
  8
0
 10
462.84289
 20
-254.899063
 30
0.0
 50
90.0
  0
SEQEND
  8
0
  0
POLYLINE
  8
0
 66
     1
 10
0.0
 20
0.0
 30
0.0
  0
VERTEX
  8
0
 10
462.84289
 20
-241.908682
 30
0.0
 50
90.0
  0
VERTEX
  8
0
 10
457.09289
 20
-238.588918
 30
0.0
 50
90.0
  0
VERTEX
  8
0
 10
448.59289
 20
-243.496395
 30
0.0
 50
90.0
  0
VERTEX
  8
0
 10
448.59289
 20
-253.31135
 30
0.0
 50
90.0
  0
SEQEND
  8
0
  0
ARC
  8
0
 10
457.09289
 20
-248.403873
 30
0.0
 40
8.5
 50
47.431546
 51
312.568454
  0
ARC
  8
0
 10
572.518471
 20
-175.518339
 30
0.0
 40
12.75
 50
293.088772
 51
246.911228
  0
LINE
  8
0
 10
563.018471
 20
-188.518339
 30
0.0
 11
582.018471
 21
-188.518339
 31
0.0
  0
LINE
  8
0
 10
566.768471
 20
-185.518339
 30
0.0
 11
566.768471
 21
-168.518339
 31
0.0
  0
LINE
  8
0
 10
578.268471
 20
-168.518339
 30
0.0
 11
578.268471
 21
-185.518339
 31
0.0
  0
LINE
  8
0
 10
577.518471
 20
-186.268339
 30
0.0
 11
577.518471
 21
-188.518339
 31
0.0
  0
LINE
  8
0
 10
577.518471
 20
-186.268339
 30
0.0
 11
578.268471
 21
-185.518339
 31
0.0
  0
LINE
  8
0
 10
567.518471
 20
-186.268339
 30
0.0
 11
566.768471
 21
-185.518339
 31
0.0
  0
LINE
  8
0
 10
567.518471
 20
-186.268339
 30
0.0
 11
567.518471
 21
-188.518339
 31
0.0
  0
LINE
  8
0
 10
563.018471
 20
-196.518339
 30
0.0
 11
582.018471
 21
-196.518339
 31
0.0
  0
LINE
  8
0
 10
563.018471
 20
-188.518339
 30
0.0
 11
563.018471
 21
-196.518339
 31
0.0
  0
LINE
  8
0
 10
582.018471
 20
-188.518339
 30
0.0
 11
582.018471
 21
-196.518339
 31
0.0
  0
LINE
  8
0
 10
570.518471
 20
-183.768339
 30
0.0
 11
570.518471
 21
-167.518339
 31
0.0
  0
LINE
  8
0
 10
574.518471
 20
-183.768339
 30
0.0
 11
574.518471
 21
-167.518339
 31
0.0
  0
LINE
  8
0
 10
570.518471
 20
-183.768339
 30
0.0
 11
574.518471
 21
-183.768339
 31
0.0
  0
LINE
  8
0
 10
567.768471
 20
-167.518339
 30
0.0
 11
570.518471
 21
-167.518339
 31
0.0
  0
LINE
  8
0
 10
566.768471
 20
-168.518339
 30
0.0
 11
567.768471
 21
-167.518339
 31
0.0
  0
LINE
  8
0
 10
577.268471
 20
-167.518339
 30
0.0
 11
578.268471
 21
-168.518339
 31
0.0
  0
ARC
  8
0
 10
572.518471
 20
-175.518339
 30
0.0
 40
8.0
 50
75.522488
 51
104.477512
  0
ARC
  8
0
 10
572.518471
 20
-175.518339
 30
0.0
 40
8.0
 50
315.951374
 51
44.048626
  0
LINE
  8
0
 10
451.34289
 20
-185.518339
 30
0.0
 11
462.853324
 21
-185.518339
 31
0.0
  0
LINE
  8
0
 10
452.09289
 20
-186.268339
 30
0.0
 11
462.09289
 21
-186.268339
 31
0.0
  0
LINE
  8
0
 10
566.768471
 20
-185.518339
 30
0.0
 11
578.268471
 21
-185.518339
 31
0.0
  0
LINE
  8
0
 10
567.518471
 20
-186.268339
 30
0.0
 11
577.518471
 21
-186.268339
 31
0.0
  0
LINE
  8
0
 10
566.768471
 20
-168.518339
 30
0.0
 11
570.518471
 21
-168.518339
 31
0.0
  0
LINE
  8
0
 10
578.268471
 20
-168.518339
 30
0.0
 11
574.518471
 21
-168.518339
 31
0.0
  0
ARC
  8
0
 10
457.09289
 20
-248.403873
 30
0.0
 40
4.75
 50
24.901062
 51
155.098938
  0
ARC
  8
0
 10
457.09289
 20
-248.403873
 30
0.0
 40
4.75
 50
204.901062
 51
335.098938
  0
CIRCLE
  8
0
 10
426.330167
 20
-248.403873
 30
0.0
 40
12.75
  0
CIRCLE
  8
0
 10
426.330167
 20
-248.403873
 30
0.0
 40
8.25
  0
CIRCLE
  8
0
 10
426.330167
 20
-248.403873
 30
0.0
 40
8.0
  0
LINE
  8
0
 10
425.330167
 20
-240.466619
 30
0.0
 11
425.330167
 21
-256.341127
 31
0.0
  0
LINE
  8
0
 10
427.330167
 20
-240.466619
 30
0.0
 11
427.330167
 21
-256.341127
 31
0.0
  0
LINE
  8
0
 10
574.518471
 20
-167.518339
 30
0.0
 11
577.268471
 21
-167.518339
 31
0.0
  0
ARC
  8
0
 10
572.518471
 20
-175.518339
 30
0.0
 40
8.0
 50
135.951374
 51
224.048626
  0
ARC
  8
0
 10
572.518471
 20
-175.518339
 30
0.0
 40
5.75
 50
69.645594
 51
110.354406
  0
ARC
  8
0
 10
572.518471
 20
-175.518339
 30
0.0
 40
4.75
 50
65.098938
 51
114.901062
  0
ARC
  8
0
 10
572.518471
 20
-175.518339
 30
0.0
 40
5.75
 50
249.645594
 51
290.354406
  0
ARC
  8
0
 10
572.518471
 20
-175.518339
 30
0.0
 40
4.75
 50
245.098938
 51
294.901062
  0
LINE
  8
0
  6
CENTER
 10
426.330167
 20
-222.137415
 30
0.0
 11
426.330167
 21
-104.145837
 31
0.0
  0
ARC
  8
0
 10
284.516585
 20
-246.938225
 30
0.0
 40
70.400259
 50
349.507619
 51
353.037321
  0
LINE
  8
0
 10
354.397666
 20
-241.335404
 30
0.0
 11
354.397666
 21
-255.472341
 31
0.0
  0
ARC
  8
0
 10
284.516585
 20
-249.86952
 30
0.0
 40
70.400259
 50
6.962679
 51
10.492381
  0
LINE
  8
0
 10
285.666777
 20
-257.324444
 30
0.0
 11
312.91834
 21
-260.903897
 31
0.0
  0
LINE
  8
0
 10
312.91834
 20
-260.903897
 30
0.0
 11
352.363034
 21
-260.903897
 31
0.0
  0
LINE
  8
0
 10
285.666777
 20
-239.483301
 30
0.0
 11
312.91834
 21
-235.903849
 31
0.0
  0
LINE
  8
0
 10
312.91834
 20
-235.903849
 30
0.0
 11
352.363034
 21
-235.903849
 31
0.0
  0
ARC
  8
0
 10
352.363034
 20
-237.303841
 30
0.0
 40
1.399992
 50
10.475682
 51
90.0
  0
ARC
  8
0
 10
352.363034
 20
-259.503905
 30
0.0
 40
1.399992
 50
270.0
 51
349.524318
  0
LINE
  8
0
 10
284.449099
 20
-246.903873
 30
0.0
 11
275.094526
 21
-246.903873
 31
0.0
  0
ARC
  8
0
 10
280.963172
 20
-248.403873
 30
0.0
 40
4.0
 50
29.368714
 51
157.975687
  0
LINE
  8
0
 10
284.449099
 20
-240.871378
 30
0.0
 11
284.449099
 21
-255.936367
 31
0.0
  0
ARC
  8
0
 10
285.849099
 20
-240.871378
 30
0.0
 40
1.4
 50
97.482879
 51
180.0
  0
ARC
  8
0
 10
285.849099
 20
-255.936367
 30
0.0
 40
1.4
 50
180.0
 51
262.517121
  0
ARC
  8
0
 10
280.963172
 20
-248.403873
 30
0.0
 40
6.5
 50
57.568124
 51
302.431876
  0
LINE
  8
0
 10
284.449099
 20
-249.903873
 30
0.0
 11
275.094526
 21
-249.903873
 31
0.0
  0
LINE
  8
0
 10
275.094526
 20
-246.903873
 30
0.0
 11
275.094526
 21
-249.903873
 31
0.0
  0
POLYLINE
  8
0
 66
     1
 10
0.0
 20
0.0
 30
0.0
  0
VERTEX
  8
0
 10
277.210395
 20
-241.903873
 30
0.0
  0
VERTEX
  8
0
 10
273.457618
 20
-248.403873
 30
0.0
  0
VERTEX
  8
0
 10
277.210395
 20
-254.903873
 30
0.0
  0
VERTEX
  8
0
 10
284.449099
 20
-254.903873
 30
0.0
  0
SEQEND
  8
0
  0
POLYLINE
  8
0
 66
     1
 10
0.0
 20
0.0
 30
0.0
  0
VERTEX
  8
0
 10
284.449099
 20
-241.903873
 30
0.0
  0
VERTEX
  8
0
 10
277.210395
 20
-241.903873
 30
0.0
  0
SEQEND
  8
0
  0
ARC
  8
0
 10
280.963172
 20
-248.403873
 30
0.0
 40
4.0
 50
202.024313
 51
330.631286
  0
LINE
  8
0
 10
275.794526
 20
-246.903873
 30
0.0
 11
275.794526
 21
-249.903873
 31
0.0
  0
ARC
  8
0
 10
280.963172
 20
-248.403873
 30
0.0
 40
3.3
 50
27.035692
 51
152.964308
  0
ARC
  8
0
 10
280.963172
 20
-248.403873
 30
0.0
 40
3.3
 50
207.035692
 51
332.964308
  0
ARC
  8
0
 10
484.479018
 20
-248.403873
 30
0.0
 40
132.245793
 50
174.609327
 51
185.390673
  0
ARC
  8
0
 10
418.099795
 20
-248.403873
 30
0.0
 40
64.093092
 50
173.668289
 51
186.331711
  0
LINE
  8
0
 10
375.403469
 20
-172.039174
 30
0.0
 11
375.403469
 21
-188.518339
 31
0.0
  0
LINE
  8
0
 10
383.403469
 20
-172.039174
 30
0.0
 11
383.403469
 21
-188.518339
 31
0.0
  0
CIRCLE
  8
0
 10
379.403469
 20
-177.539174
 30
0.0
 40
1.5
  0
LINE
  8
0
 10
382.903469
 20
-171.539174
 30
0.0
 11
383.403469
 21
-172.039174
 31
0.0
  0
LINE
  8
0
 10
375.403469
 20
-172.039174
 30
0.0
 11
375.903469
 21
-171.539174
 31
0.0
  0
LINE
  8
0
 10
375.903469
 20
-171.539174
 30
0.0
 11
377.903469
 21
-171.539174
 31
0.0
  0
LINE
  8
0
 10
377.903469
 20
-185.539174
 30
0.0
 11
380.903469
 21
-185.539174
 31
0.0
  0
LINE
  8
0
 10
372.903469
 20
-188.518339
 30
0.0
 11
385.903469
 21
-188.518339
 31
0.0
  0
LINE
  8
0
 10
372.903469
 20
-195.018339
 30
0.0
 11
385.903469
 21
-195.018339
 31
0.0
  0
LINE
  8
0
 10
377.903469
 20
-171.539174
 30
0.0
 11
377.903469
 21
-185.539174
 31
0.0
  0
LINE
  8
0
 10
380.903469
 20
-171.539174
 30
0.0
 11
380.903469
 21
-185.539174
 31
0.0
  0
ARC
  8
0
 10
379.403469
 20
-177.719959
 30
0.0
 40
4.0
 50
67.975687
 51
112.024313
  0
ARC
  8
0
 10
379.403469
 20
-177.719959
 30
0.0
 40
3.5
 50
64.623066
 51
115.376934
  0
ARC
  8
0
 10
379.403469
 20
-177.719959
 30
0.0
 40
3.5
 50
244.623066
 51
295.376934
  0
ARC
  8
0
 10
379.403469
 20
-177.719959
 30
0.0
 40
4.0
 50
247.975687
 51
292.024313
  0
LINE
  8
0
 10
380.903469
 20
-171.539174
 30
0.0
 11
382.903469
 21
-171.539174
 31
0.0
  0
POLYLINE
  8
0
 66
     1
 10
0.0
 20
0.0
 30
0.0
  0
VERTEX
  8
0
 10
379.403469
 20
-171.329861
 30
0.0
 42
0.077987
  0
VERTEX
  8
0
 10
377.903469
 20
-171.565255
 30
0.0
 42
0.100283
  0
SEQEND
  8
0
  0
POLYLINE
  8
0
 66
     1
 10
0.0
 20
0.0
 30
0.0
  0
VERTEX
  8
0
 10
380.903469
 20
-171.565255
 30
0.0
 42
0.077987
 50
133.547753
  0
VERTEX
  8
0
 10
379.403469
 20
-171.329861
 30
0.0
 42
0.103101
  0
SEQEND
  8
0
  0
POLYLINE
  8
0
 66
     1
 10
0.0
 20
0.0
 30
0.0
  0
VERTEX
  8
0
 10
379.403469
 20
-167.829861
 30
0.0
 42
0.103101
  0
VERTEX
  8
0
 10
376.049056
 20
-168.528977
 30
0.0
 42
0.100283
  0
VERTEX
  8
0
 10
373.101435
 20
-170.592846
 30
0.0
 42
0.096539
 70
     2
 50
226.452247
  0
VERTEX
  8
0
 10
371.121002
 20
-173.69918
 30
0.0
 42
0.094048
 50
226.452247
  0
VERTEX
  8
0
 10
370.403469
 20
-177.480145
 30
0.0
 42
0.094048
  0
VERTEX
  8
0
 10
371.121002
 20
-181.26111
 30
0.0
 42
0.096539
  0
VERTEX
  8
0
 10
373.101435
 20
-184.367444
 30
0.0
 42
0.080328
 70
     2
 50
313.547753
  0
VERTEX
  8
0
 10
375.403469
 20
-186.119032
 30
0.0
 42
0.103101
 50
313.547753
  0
SEQEND
  8
0
  0
POLYLINE
  8
0
 66
     1
 10
0.0
 20
0.0
 30
0.0
  0
VERTEX
  8
0
 10
383.403469
 20
-186.119032
 30
0.0
 42
0.080328
  0
VERTEX
  8
0
 10
385.705502
 20
-184.367444
 30
0.0
 42
0.096539
 70
     2
 50
46.452247
  0
VERTEX
  8
0
 10
387.685935
 20
-181.26111
 30
0.0
 42
0.094048
 50
46.452247
  0
VERTEX
  8
0
 10
388.403469
 20
-177.480145
 30
0.0
 42
0.094048
  0
VERTEX
  8
0
 10
387.685935
 20
-173.69918
 30
0.0
 42
0.096539
  0
VERTEX
  8
0
 10
385.705502
 20
-170.592846
 30
0.0
 42
0.100283
 70
     2
 50
133.547753
  0
VERTEX
  8
0
 10
382.757882
 20
-168.528977
 30
0.0
 42
0.103101
 50
133.547753
  0
VERTEX
  8
0
 10
379.403469
 20
-167.829861
 30
0.0
 42
0.103101
  0
SEQEND
  8
0
  0
POLYLINE
  8
0
 66
     1
 10
0.0
 20
0.0
 30
0.0
  0
VERTEX
  8
0
 10
375.403469
 20
-173.265814
 30
0.0
 42
0.082084
 70
     2
 50
226.452247
  0
VERTEX
  8
0
 10
374.377663
 20
-174.981427
 30
0.0
 42
0.094048
 50
226.452247
  0
VERTEX
  8
0
 10
373.903469
 20
-177.480145
 30
0.0
 42
0.094048
  0
VERTEX
  8
0
 10
374.377663
 20
-179.978863
 30
0.0
 42
0.082084
  0
VERTEX
  8
0
 10
375.403469
 20
-181.694476
 30
0.0
 42
0.100283
 70
     2
 50
313.547753
  0
SEQEND
  8
0
  0
POLYLINE
  8
0
 66
     1
 10
0.0
 20
0.0
 30
0.0
  0
VERTEX
  8
0
 10
377.903469
 20
-183.395035
 30
0.0
 42
0.077987
 50
313.547753
  0
VERTEX
  8
0
 10
379.403469
 20
-183.630429
 30
0.0
 42
0.077987
  0
VERTEX
  8
0
 10
380.903469
 20
-183.395035
 30
0.0
 42
0.100283
  0
SEQEND
  8
0
  0
POLYLINE
  8
0
 66
     1
 10
0.0
 20
0.0
 30
0.0
  0
VERTEX
  8
0
 10
383.403469
 20
-181.694476
 30
0.0
 42
0.082084
 70
     2
 50
46.452247
  0
VERTEX
  8
0
 10
384.429274
 20
-179.978863
 30
0.0
 42
0.094048
 50
46.452247
  0
VERTEX
  8
0
 10
384.903469
 20
-177.480145
 30
0.0
 42
0.094048
  0
VERTEX
  8
0
 10
384.429274
 20
-174.981427
 30
0.0
 42
0.082084
  0
VERTEX
  8
0
 10
383.403469
 20
-173.265814
 30
0.0
 42
0.100283
 70
     2
 50
133.547753
  0
SEQEND
  8
0
  0
LINE
  8
0
 10
372.903469
 20
-188.518339
 30
0.0
 11
372.903469
 21
-195.018339
 31
0.0
  0
LINE
  8
0
 10
385.903469
 20
-188.518339
 30
0.0
 11
385.903469
 21
-195.018339
 31
0.0
  0
POLYLINE
  8
0
 66
     1
 10
0.0
 20
0.0
 30
0.0
  0
VERTEX
  8
0
 10
379.403469
 20
-162.622848
 30
0.0
 42
0.103101
  0
VERTEX
  8
0
 10
374.650872
 20
-163.613369
 30
0.0
 42
0.100283
  0
VERTEX
  8
0
 10
370.564634
 20
-166.474477
 30
0.0
 42
0.096539
 70
     2
 50
226.452247
  0
VERTEX
  8
0
 10
367.864341
 20
-170.70992
 30
0.0
 42
0.094048
 50
226.452247
  0
VERTEX
  8
0
 10
366.903469
 20
-175.773132
 30
0.0
 42
0.094048
  0
VERTEX
  8
0
 10
367.864341
 20
-180.836345
 30
0.0
 42
0.096539
  0
VERTEX
  8
0
 10
370.564634
 20
-185.071787
 30
0.0
 42
0.100283
 70
     2
 50
313.547753
  0
VERTEX
  8
0
 10
374.650872
 20
-187.932895
 30
0.0
 42
0.017014
 50
313.547753
  0
VERTEX
  8
0
 10
375.403469
 20
-188.230813
 30
0.0
 42
0.103101
  0
SEQEND
  8
0
  0
POLYLINE
  8
0
 66
     1
 10
0.0
 20
0.0
 30
0.0
  0
VERTEX
  8
0
 10
383.403469
 20
-188.230813
 30
0.0
 42
0.017014
  0
VERTEX
  8
0
 10
384.156065
 20
-187.932895
 30
0.0
 42
0.100283
  0
VERTEX
  8
0
 10
388.242303
 20
-185.071787
 30
0.0
 42
0.096539
 70
     2
 50
46.452247
  0
VERTEX
  8
0
 10
390.942596
 20
-180.836345
 30
0.0
 42
0.094048
 50
46.452247
  0
VERTEX
  8
0
 10
391.903469
 20
-175.773132
 30
0.0
 42
0.094048
  0
VERTEX
  8
0
 10
390.942596
 20
-170.70992
 30
0.0
 42
0.096539
  0
VERTEX
  8
0
 10
388.242303
 20
-166.474477
 30
0.0
 42
0.100283
 70
     2
 50
133.547753
  0
VERTEX
  8
0
 10
384.156065
 20
-163.613369
 30
0.0
 42
0.103101
 50
133.547753
  0
VERTEX
  8
0
 10
379.403469
 20
-162.622848
 30
0.0
 42
0.103101
  0
SEQEND
  8
0
  0
LINE
  8
0
 10
375.403469
 20
-172.039174
 30
0.0
 11
377.903469
 21
-172.039174
 31
0.0
  0
LINE
  8
0
 10
383.403469
 20
-172.039174
 30
0.0
 11
380.903469
 21
-172.039174
 31
0.0
  0
LINE
  8
0
 10
277.199637
 20
-195.018339
 30
0.0
 11
277.199637
 21
-188.518339
 31
0.0
  0
LINE
  8
0
 10
568.018471
 20
-196.518339
 30
0.0
 11
568.018471
 21
-188.518339
 31
0.0
  0
LINE
  8
0
 10
577.018471
 20
-196.518339
 30
0.0
 11
577.018471
 21
-188.518339
 31
0.0
  0
CIRCLE
  8
0
 10
248.123896
 20
-248.403873
 30
0.0
 40
12.5
  0
CIRCLE
  8
0
 10
248.123896
 20
-248.403873
 30
0.0
 40
6.5
  0
CIRCLE
  8
0
 10
248.123896
 20
-248.403873
 30
0.0
 40
6.0
  0
LINE
  8
0
 10
247.423896
 20
-254.362899
 30
0.0
 11
247.423896
 21
-242.444846
 31
0.0
  0
LINE
  8
0
 10
248.823896
 20
-254.362899
 30
0.0
 11
248.823896
 21
-242.444846
 31
0.0
  0
ARC
  8
0
 10
572.518471
 20
-175.518339
 30
0.0
 40
8.0
 50
255.522488
 51
284.477512
  0
LINE
  8
0
 10
422.080167
 20
-187.659184
 30
0.0
 11
422.080167
 21
-219.518339
 31
0.0
  0
LINE
  8
0
 10
244.623896
 20
-212.018339
 30
0.0
 11
251.623896
 21
-212.018339
 31
0.0
  0
LINE
  8
0
 10
244.623896
 20
-212.018339
 30
0.0
 11
244.123896
 21
-211.518339
 31
0.0
  0
LINE
  8
0
 10
251.623896
 20
-212.018339
 30
0.0
 11
252.123896
 21
-211.518339
 31
0.0
  0
LINE
  8
0
 10
251.623896
 20
-195.018339
 30
0.0
 11
251.623896
 21
-212.018339
 31
0.0
  0
LINE
  8
0
 10
252.123896
 20
-195.018339
 30
0.0
 11
252.123896
 21
-211.518339
 31
0.0
  0
LINE
  8
0
 10
248.123896
 20
-195.018339
 30
0.0
 11
255.373896
 21
-195.018339
 31
0.0
  0
LINE
  8
0
 10
284.963172
 20
-195.018339
 30
0.0
 11
284.963172
 21
-211.518339
 31
0.0
  0
LINE
  8
0
 10
284.463172
 20
-195.018339
 30
0.0
 11
284.463172
 21
-212.018339
 31
0.0
  0
LINE
  8
0
 10
284.463172
 20
-212.018339
 30
0.0
 11
284.963172
 21
-211.518339
 31
0.0
  0
LINE
  8
0
 10
277.463172
 20
-212.018339
 30
0.0
 11
276.963172
 21
-211.518339
 31
0.0
  0
LINE
  8
0
 10
277.463172
 20
-212.018339
 30
0.0
 11
284.463172
 21
-212.018339
 31
0.0
  0
LINE
  8
0
 10
277.463172
 20
-195.018339
 30
0.0
 11
277.463172
 21
-212.018339
 31
0.0
  0
LINE
  8
0
 10
276.963172
 20
-195.018339
 30
0.0
 11
276.963172
 21
-211.518339
 31
0.0
  0
LINE
  8
0
 10
375.403469
 20
-195.018339
 30
0.0
 11
375.403469
 21
-211.518339
 31
0.0
  0
LINE
  8
0
 10
375.903469
 20
-195.018339
 30
0.0
 11
375.903469
 21
-212.018339
 31
0.0
  0
LINE
  8
0
 10
375.903469
 20
-212.018339
 30
0.0
 11
382.903469
 21
-212.018339
 31
0.0
  0
LINE
  8
0
 10
375.903469
 20
-212.018339
 30
0.0
 11
375.403469
 21
-211.518339
 31
0.0
  0
LINE
  8
0
 10
382.903469
 20
-212.018339
 30
0.0
 11
383.403469
 21
-211.518339
 31
0.0
  0
LINE
  8
0
 10
382.903469
 20
-195.018339
 30
0.0
 11
382.903469
 21
-212.018339
 31
0.0
  0
LINE
  8
0
 10
383.403469
 20
-195.018339
 30
0.0
 11
383.403469
 21
-211.518339
 31
0.0
  0
LINE
  8
0
 10
422.080167
 20
-219.518339
 30
0.0
 11
430.580167
 21
-219.518339
 31
0.0
  0
LINE
  8
0
 10
422.080167
 20
-219.518339
 30
0.0
 11
421.330167
 21
-218.768339
 31
0.0
  0
LINE
  8
0
 10
426.330167
 20
-196.518339
 30
0.0
 11
434.830167
 21
-196.518339
 31
0.0
  0
LINE
  8
0
 10
430.580167
 20
-219.518339
 30
0.0
 11
431.330167
 21
-218.768339
 31
0.0
  0
LINE
  8
0
 10
430.580167
 20
-196.518339
 30
0.0
 11
430.580167
 21
-219.518339
 31
0.0
  0
LINE
  8
0
 10
431.330167
 20
-196.518339
 30
0.0
 11
431.330167
 21
-218.768339
 31
0.0
  0
LINE
  8
0
 10
452.84289
 20
-219.518339
 30
0.0
 11
452.09289
 21
-218.768339
 31
0.0
  0
LINE
  8
0
 10
452.84289
 20
-219.518339
 30
0.0
 11
461.34289
 21
-219.518339
 31
0.0
  0
LINE
  8
0
 10
452.84289
 20
-196.518339
 30
0.0
 11
452.84289
 21
-219.518339
 31
0.0
  0
LINE
  8
0
 10
452.09289
 20
-196.518339
 30
0.0
 11
452.09289
 21
-218.768339
 31
0.0
  0
LINE
  8
0
 10
462.09289
 20
-196.518339
 30
0.0
 11
462.09289
 21
-218.768339
 31
0.0
  0
LINE
  8
0
 10
461.34289
 20
-196.518339
 30
0.0
 11
461.34289
 21
-219.518339
 31
0.0
  0
LINE
  8
0
 10
461.34289
 20
-219.518339
 30
0.0
 11
462.09289
 21
-218.768339
 31
0.0
  0
LINE
  8
0
 10
567.518471
 20
-196.518339
 30
0.0
 11
567.518471
 21
-218.768339
 31
0.0
  0
LINE
  8
0
 10
568.268471
 20
-196.518339
 30
0.0
 11
568.268471
 21
-219.518339
 31
0.0
  0
LINE
  8
0
 10
568.268471
 20
-219.518339
 30
0.0
 11
576.768471
 21
-219.518339
 31
0.0
  0
LINE
  8
0
 10
568.268471
 20
-219.518339
 30
0.0
 11
567.518471
 21
-218.768339
 31
0.0
  0
LINE
  8
0
 10
576.768471
 20
-219.518339
 30
0.0
 11
577.518471
 21
-218.768339
 31
0.0
  0
LINE
  8
0
 10
576.768471
 20
-196.518339
 30
0.0
 11
576.768471
 21
-219.518339
 31
0.0
  0
LINE
  8
0
 10
577.518471
 20
-196.518339
 30
0.0
 11
577.518471
 21
-218.768339
 31
0.0
  0
LINE
  8
0
 10
776.101776
 20
-196.518339
 30
0.0
 11
776.101776
 21
-218.768339
 31
0.0
  0
LINE
  8
0
 10
775.351776
 20
-196.518339
 30
0.0
 11
775.351776
 21
-219.518339
 31
0.0
  0
LINE
  8
0
 10
775.351776
 20
-219.518339
 30
0.0
 11
776.101776
 21
-218.768339
 31
0.0
  0
LINE
  8
0
 10
766.851776
 20
-219.518339
 30
0.0
 11
766.101776
 21
-218.768339
 31
0.0
  0
LINE
  8
0
 10
766.851776
 20
-219.518339
 30
0.0
 11
775.351776
 21
-219.518339
 31
0.0
  0
LINE
  8
0
 10
766.851776
 20
-196.518339
 30
0.0
 11
766.851776
 21
-219.518339
 31
0.0
  0
LINE
  8
0
 10
766.101776
 20
-196.518339
 30
0.0
 11
766.101776
 21
-218.768339
 31
0.0
  0
LINE
  8
0
 10
659.926194
 20
-219.518339
 30
0.0
 11
660.676194
 21
-218.768339
 31
0.0
  0
LINE
  8
0
 10
659.926194
 20
-196.518339
 30
0.0
 11
659.926194
 21
-219.518339
 31
0.0
  0
LINE
  8
0
 10
660.676194
 20
-196.518339
 30
0.0
 11
660.676194
 21
-218.768339
 31
0.0
  0
LINE
  8
0
 10
650.676194
 20
-196.518339
 30
0.0
 11
650.676194
 21
-218.768339
 31
0.0
  0
LINE
  8
0
 10
651.426194
 20
-196.518339
 30
0.0
 11
651.426194
 21
-219.518339
 31
0.0
  0
LINE
  8
0
 10
651.426194
 20
-219.518339
 30
0.0
 11
659.926194
 21
-219.518339
 31
0.0
  0
LINE
  8
0
 10
651.426194
 20
-219.518339
 30
0.0
 11
650.676194
 21
-218.768339
 31
0.0
  0
LINE
  8
0
 10
629.913472
 20
-196.518339
 30
0.0
 11
629.913472
 21
-218.768339
 31
0.0
  0
LINE
  8
0
 10
629.163472
 20
-196.518339
 30
0.0
 11
629.163472
 21
-219.518339
 31
0.0
  0
LINE
  8
0
 10
629.163472
 20
-219.518339
 30
0.0
 11
629.913472
 21
-218.768339
 31
0.0
  0
LINE
  8
0
 10
624.913472
 20
-196.518339
 30
0.0
 11
633.413472
 21
-196.518339
 31
0.0
  0
LINE
  8
0
 10
620.663472
 20
-219.518339
 30
0.0
 11
619.913472
 21
-218.768339
 31
0.0
  0
LINE
  8
0
 10
620.663472
 20
-219.518339
 30
0.0
 11
629.163472
 21
-219.518339
 31
0.0
  0
LINE
  8
0
 10
620.663472
 20
-187.659184
 30
0.0
 11
620.663472
 21
-219.518339
 31
0.0
  0
ARC
  8
0
 10
771.101776
 20
-175.518339
 30
0.0
 40
8.0
 50
255.522488
 51
284.477512
  0
LINE
  8
0
 10
775.601776
 20
-196.518339
 30
0.0
 11
775.601776
 21
-188.518339
 31
0.0
  0
LINE
  8
0
 10
766.601776
 20
-196.518339
 30
0.0
 11
766.601776
 21
-188.518339
 31
0.0
  0
LINE
  8
0
  6
CENTER
 10
624.913472
 20
-222.137415
 30
0.0
 11
624.913472
 21
-96.145837
 31
0.0
  0
ARC
  8
0
 10
771.101776
 20
-175.518339
 30
0.0
 40
4.75
 50
245.098938
 51
294.901062
  0
ARC
  8
0
 10
771.101776
 20
-175.518339
 30
0.0
 40
5.75
 50
249.645594
 51
290.354406
  0
ARC
  8
0
 10
771.101776
 20
-175.518339
 30
0.0
 40
4.75
 50
65.098938
 51
114.901062
  0
ARC
  8
0
 10
771.101776
 20
-175.518339
 30
0.0
 40
5.75
 50
69.645594
 51
110.354406
  0
ARC
  8
0
 10
771.101776
 20
-175.518339
 30
0.0
 40
8.0
 50
135.951374
 51
224.048626
  0
LINE
  8
0
 10
773.101776
 20
-167.518339
 30
0.0
 11
775.851776
 21
-167.518339
 31
0.0
  0
INSERT
  8
0
  2
*X2
 10
387.539469
 20
156.541603
 30
0.0
  0
LINE
  8
0
 10
625.913472
 20
-240.466619
 30
0.0
 11
625.913472
 21
-256.341127
 31
0.0
  0
LINE
  8
0
 10
623.913472
 20
-240.466619
 30
0.0
 11
623.913472
 21
-256.341127
 31
0.0
  0
CIRCLE
  8
0
 10
624.913472
 20
-248.403873
 30
0.0
 40
8.0
  0
CIRCLE
  8
0
 10
624.913472
 20
-248.403873
 30
0.0
 40
8.25
  0
CIRCLE
  8
0
 10
624.913472
 20
-248.403873
 30
0.0
 40
12.75
  0
ARC
  8
0
 10
655.676194
 20
-248.403873
 30
0.0
 40
4.75
 50
204.901062
 51
335.098938
  0
ARC
  8
0
 10
655.676194
 20
-248.403873
 30
0.0
 40
4.75
 50
24.901062
 51
155.098938
  0
LINE
  8
0
 10
776.851776
 20
-168.518339
 30
0.0
 11
773.101776
 21
-168.518339
 31
0.0
  0
LINE
  8
0
 10
765.351776
 20
-168.518339
 30
0.0
 11
769.101776
 21
-168.518339
 31
0.0
  0
LINE
  8
0
 10
766.101776
 20
-186.268339
 30
0.0
 11
776.101776
 21
-186.268339
 31
0.0
  0
LINE
  8
0
 10
765.351776
 20
-185.518339
 30
0.0
 11
776.851776
 21
-185.518339
 31
0.0
  0
LINE
  8
0
 10
650.676194
 20
-186.268339
 30
0.0
 11
660.676194
 21
-186.268339
 31
0.0
  0
LINE
  8
0
 10
649.926194
 20
-185.518339
 30
0.0
 11
661.436629
 21
-185.518339
 31
0.0
  0
INSERT
  8
0
  2
*X1
 10
372.96463
 20
131.508067
 30
0.0
  0
ARC
  8
0
 10
771.101776
 20
-175.518339
 30
0.0
 40
8.0
 50
315.951374
 51
44.048626
  0
ARC
  8
0
 10
771.101776
 20
-175.518339
 30
0.0
 40
8.0
 50
75.522488
 51
104.477512
  0
LINE
  8
0
 10
775.851776
 20
-167.518339
 30
0.0
 11
776.851776
 21
-168.518339
 31
0.0
  0
LINE
  8
0
 10
765.351776
 20
-168.518339
 30
0.0
 11
766.351776
 21
-167.518339
 31
0.0
  0
LINE
  8
0
 10
766.351776
 20
-167.518339
 30
0.0
 11
769.101776
 21
-167.518339
 31
0.0
  0
LINE
  8
0
 10
769.101776
 20
-183.768339
 30
0.0
 11
773.101776
 21
-183.768339
 31
0.0
  0
LINE
  8
0
 10
773.101776
 20
-183.768339
 30
0.0
 11
773.101776
 21
-167.518339
 31
0.0
  0
LINE
  8
0
 10
769.101776
 20
-183.768339
 30
0.0
 11
769.101776
 21
-167.518339
 31
0.0
  0
LINE
  8
0
 10
780.601776
 20
-188.518339
 30
0.0
 11
780.601776
 21
-196.518339
 31
0.0
  0
LINE
  8
0
 10
761.601776
 20
-188.518339
 30
0.0
 11
761.601776
 21
-196.518339
 31
0.0
  0
LINE
  8
0
 10
761.601776
 20
-196.518339
 30
0.0
 11
780.601776
 21
-196.518339
 31
0.0
  0
LINE
  8
0
 10
766.101776
 20
-186.268339
 30
0.0
 11
766.101776
 21
-188.518339
 31
0.0
  0
LINE
  8
0
 10
766.101776
 20
-186.268339
 30
0.0
 11
765.351776
 21
-185.518339
 31
0.0
  0
LINE
  8
0
 10
776.101776
 20
-186.268339
 30
0.0
 11
776.851776
 21
-185.518339
 31
0.0
  0
LINE
  8
0
 10
776.101776
 20
-186.268339
 30
0.0
 11
776.101776
 21
-188.518339
 31
0.0
  0
LINE
  8
0
 10
776.851776
 20
-168.518339
 30
0.0
 11
776.851776
 21
-185.518339
 31
0.0
  0
LINE
  8
0
 10
765.351776
 20
-185.518339
 30
0.0
 11
765.351776
 21
-168.518339
 31
0.0
  0
LINE
  8
0
 10
761.601776
 20
-188.518339
 30
0.0
 11
780.601776
 21
-188.518339
 31
0.0
  0
ARC
  8
0
 10
771.101776
 20
-175.518339
 30
0.0
 40
12.75
 50
293.088772
 51
246.911228
  0
ARC
  8
0
 10
655.676194
 20
-248.403873
 30
0.0
 40
8.5
 50
47.431546
 51
312.568454
  0
POLYLINE
  8
0
 66
     1
 10
0.0
 20
0.0
 30
0.0
  0
VERTEX
  8
0
 10
661.426194
 20
-241.908682
 30
0.0
 50
90.0
  0
VERTEX
  8
0
 10
655.676194
 20
-238.588918
 30
0.0
 50
90.0
  0
VERTEX
  8
0
 10
647.176194
 20
-243.496395
 30
0.0
 50
90.0
  0
VERTEX
  8
0
 10
647.176194
 20
-253.31135
 30
0.0
 50
90.0
  0
SEQEND
  8
0
  0
POLYLINE
  8
0
 66
     1
 10
0.0
 20
0.0
 30
0.0
  0
VERTEX
  8
0
 10
647.176194
 20
-253.31135
 30
0.0
 50
90.0
  0
VERTEX
  8
0
 10
655.676194
 20
-258.218827
 30
0.0
 50
90.0
  0
VERTEX
  8
0
 10
661.426194
 20
-254.899063
 30
0.0
 50
90.0
  0
SEQEND
  8
0
  0
ARC
  8
0
 10
655.676194
 20
-248.403873
 30
0.0
 40
5.75
 50
20.354406
 51
159.645594
  0
LINE
  8
0
 10
649.676194
 20
-246.403873
 30
0.0
 11
649.676194
 21
-250.403873
 31
0.0
  0
LINE
  8
0
 10
648.676194
 20
-250.403873
 30
0.0
 11
661.426194
 21
-250.403873
 31
0.0
  0
ARC
  8
0
 10
655.676194
 20
-248.403873
 30
0.0
 40
5.75
 50
200.354406
 51
339.645594
  0
LINE
  8
0
 10
751.426194
 20
-238.653873
 30
0.0
 11
751.426194
 21
-258.153873
 31
0.0
  0
ARC
  8
0
 10
664.426194
 20
-258.153873
 30
0.0
 40
3.0
 50
180.0
 51
270.0
  0
ARC
  8
0
 10
664.426194
 20
-238.653873
 30
0.0
 40
3.0
 50
90.0
 51
180.0
  0
ARC
  8
0
 10
748.426194
 20
-258.153873
 30
0.0
 40
3.0
 50
270.0
 51
0.0
  0
ARC
  8
0
 10
748.426194
 20
-238.653873
 30
0.0
 40
3.0
 50
0.0
 51
90.0
  0
LINE
  8
0
 10
664.426194
 20
-261.153873
 30
0.0
 11
748.426194
 21
-261.153873
 31
0.0
  0
LINE
  8
0
 10
664.426194
 20
-235.653873
 30
0.0
 11
748.426194
 21
-235.653873
 31
0.0
  0
LINE
  8
0
 10
648.676194
 20
-246.403873
 30
0.0
 11
648.676194
 21
-250.403873
 31
0.0
  0
LINE
  8
0
 10
648.676194
 20
-246.403873
 30
0.0
 11
661.426194
 21
-246.403873
 31
0.0
  0
LINE
  8
0
 10
661.426194
 20
-238.653873
 30
0.0
 11
661.426194
 21
-258.153873
 31
0.0
  0
LINE
  8
0
 10
721.676194
 20
-174.518339
 30
0.0
 11
721.676194
 21
-175.518339
 31
0.0
  0
LINE
  8
0
 10
721.676194
 20
-174.518339
 30
0.0
 11
724.676194
 21
-174.518339
 31
0.0
  0
CIRCLE
  8
0
 10
715.521113
 20
-168.643339
 30
0.0
 40
0.7
  0
CIRCLE
  8
0
 10
709.69394
 20
-168.643339
 30
0.0
 40
0.7
  0
CIRCLE
  8
0
 10
703.866767
 20
-168.643339
 30
0.0
 40
0.7
  0
CIRCLE
  8
0
 10
698.706385
 20
-168.643339
 30
0.0
 40
0.7
  0
CIRCLE
  8
0
 10
712.535049
 20
-168.643339
 30
0.0
 40
0.7
  0
CIRCLE
  8
0
 10
701.141621
 20
-168.643339
 30
0.0
 40
0.7
  0
CIRCLE
  8
0
 10
706.678885
 20
-168.643339
 30
0.0
 40
0.7
  0
CIRCLE
  8
0
 10
696.126194
 20
-168.643339
 30
0.0
 40
0.7
  0
CIRCLE
  8
0
 10
717.976194
 20
-168.643339
 30
0.0
 40
0.7
  0
LINE
  8
0
 10
660.676194
 20
-186.268339
 30
0.0
 11
660.676194
 21
-188.518339
 31
0.0
  0
LINE
  8
0
 10
650.676194
 20
-186.268339
 30
0.0
 11
650.676194
 21
-188.518339
 31
0.0
  0
LINE
  8
0
 10
661.426194
 20
-175.518339
 30
0.0
 11
661.426194
 21
-185.268339
 31
0.0
  0
LINE
  8
0
 10
649.926194
 20
-169.768339
 30
0.0
 11
649.926194
 21
-168.518339
 31
0.0
  0
LINE
  8
0
 10
649.926194
 20
-168.518339
 30
0.0
 11
650.926194
 21
-167.518339
 31
0.0
  0
LINE
  8
0
 10
648.676194
 20
-180.268339
 30
0.0
 11
649.926194
 21
-181.518339
 31
0.0
  0
LINE
  8
0
 10
648.676194
 20
-170.768339
 30
0.0
 11
649.676194
 21
-169.768339
 31
0.0
  0
LINE
  8
0
 10
648.676194
 20
-180.268339
 30
0.0
 11
648.676194
 21
-170.768339
 31
0.0
  0
LINE
  8
0
 10
660.926194
 20
-167.518339
 30
0.0
 11
661.426194
 21
-168.018339
 31
0.0
  0
LINE
  8
0
  6
CENTER
 10
646.499029
 20
-175.518339
 30
0.0
 11
753.798696
 21
-175.518339
 31
0.0
  0
LINE
  8
0
 10
664.426194
 20
-162.768339
 30
0.0
 11
748.426194
 21
-162.768339
 31
0.0
  0
LINE
  8
0
 10
664.426194
 20
-188.268339
 30
0.0
 11
748.426194
 21
-188.268339
 31
0.0
  0
LINE
  8
0
 10
661.426194
 20
-165.768339
 30
0.0
 11
661.426194
 21
-169.768339
 31
0.0
  0
ARC
  8
0
 10
748.426194
 20
-165.768339
 30
0.0
 40
3.0
 50
0.0
 51
90.0
  0
ARC
  8
0
 10
748.426194
 20
-185.268339
 30
0.0
 40
3.0
 50
270.0
 51
0.0
  0
ARC
  8
0
 10
664.426194
 20
-165.768339
 30
0.0
 40
3.0
 50
90.0
 51
180.0
  0
ARC
  8
0
 10
664.426194
 20
-185.268339
 30
0.0
 40
3.0
 50
180.0
 51
270.0
  0
LINE
  8
0
 10
695.426194
 20
-167.268339
 30
0.0
 11
695.426194
 21
-169.768339
 31
0.0
  0
LINE
  8
0
 10
661.426194
 20
-169.518339
 30
0.0
 11
695.426194
 21
-169.518339
 31
0.0
  0
LINE
  8
0
 10
695.426194
 20
-167.268339
 30
0.0
 11
750.026194
 21
-167.268339
 31
0.0
  0
LINE
  8
0
 10
661.426194
 20
-167.518339
 30
0.0
 11
695.426194
 21
-167.518339
 31
0.0
  0
ARC
  8
0
 10
750.026194
 20
-165.868339
 30
0.0
 40
1.4
 50
270.0
 51
0.0
  0
LINE
  8
0
 10
751.426194
 20
-165.768339
 30
0.0
 11
751.426194
 21
-185.268339
 31
0.0
  0
LINE
  8
0
 10
649.676194
 20
-169.768339
 30
0.0
 11
718.676194
 21
-169.768339
 31
0.0
  0
LINE
  8
0
 10
665.676194
 20
-169.768339
 30
0.0
 11
665.676194
 21
-175.518339
 31
0.0
  0
LINE
  8
0
 10
718.676194
 20
-167.518339
 30
0.0
 11
718.676194
 21
-169.768339
 31
0.0
  0
LINE
  8
0
 10
724.676194
 20
-167.518339
 30
0.0
 11
724.676194
 21
-175.518339
 31
0.0
  0
LINE
  8
0
 10
718.676194
 20
-167.518339
 30
0.0
 11
724.676194
 21
-167.518339
 31
0.0
  0
LINE
  8
0
 10
623.913472
 20
-110.909184
 30
0.0
 11
623.913472
 21
-107.909184
 31
0.0
  0
LINE
  8
0
 10
623.913472
 20
-110.909184
 30
0.0
 11
624.913472
 21
-110.909184
 31
0.0
  0
LINE
  8
0
 10
650.926194
 20
-167.518339
 30
0.0
 11
660.926194
 21
-167.518339
 31
0.0
  0
CIRCLE
  8
0
 10
655.676194
 20
-175.518339
 30
0.0
 40
1.5
  0
LINE
  8
0
 10
664.176194
 20
-188.518339
 30
0.0
 11
664.176194
 21
-196.518339
 31
0.0
  0
LINE
  8
0
 10
647.176194
 20
-188.518339
 30
0.0
 11
647.176194
 21
-196.518339
 31
0.0
  0
LINE
  8
0
 10
650.676194
 20
-186.268339
 30
0.0
 11
649.926194
 21
-185.518339
 31
0.0
  0
LINE
  8
0
 10
660.676194
 20
-186.268339
 30
0.0
 11
661.426194
 21
-185.518339
 31
0.0
  0
LINE
  8
0
 10
649.926194
 20
-185.518339
 30
0.0
 11
649.926194
 21
-175.518339
 31
0.0
  0
LINE
  8
0
 10
647.176194
 20
-196.518339
 30
0.0
 11
664.176194
 21
-196.518339
 31
0.0
  0
LINE
  8
0
 10
647.176194
 20
-188.518339
 30
0.0
 11
664.176194
 21
-188.518339
 31
0.0
  0
LINE
  8
0
 10
619.163472
 20
-186.909184
 30
0.0
 11
624.913472
 21
-186.909184
 31
0.0
  0
LINE
  8
0
 10
619.913472
 20
-187.659184
 30
0.0
 11
624.913472
 21
-187.659184
 31
0.0
  0
LINE
  8
0
 10
616.413472
 20
-196.518339
 30
0.0
 11
619.913472
 21
-196.518339
 31
0.0
  0
CIRCLE
  8
0
 10
617.860072
 20
-119.566791
 30
0.0
 40
0.7
  0
CIRCLE
  8
0
 10
617.860072
 20
-129.745047
 30
0.0
 40
0.7
  0
CIRCLE
  8
0
 10
617.860072
 20
-139.75176
 30
0.0
 40
0.7
  0
CIRCLE
  8
0
 10
617.860072
 20
-149.301023
 30
0.0
 40
0.7
  0
CIRCLE
  8
0
 10
617.860072
 20
-144.383438
 30
0.0
 40
0.7
  0
CIRCLE
  8
0
 10
617.860072
 20
-124.598738
 30
0.0
 40
0.7
  0
CIRCLE
  8
0
 10
617.860072
 20
-134.834176
 30
0.0
 40
0.7
  0
CIRCLE
  8
0
 10
617.860072
 20
-153.818339
 30
0.0
 40
0.7
  0
CIRCLE
  8
0
 10
617.860072
 20
-114.609184
 30
0.0
 40
0.7
  0
LINE
  8
0
 10
624.913472
 20
-188.518339
 30
0.0
 11
634.663472
 21
-188.518339
 31
0.0
  0
LINE
  8
0
 10
616.913472
 20
-113.909184
 30
0.0
 11
616.913472
 21
-107.909184
 31
0.0
  0
LINE
  8
0
 10
616.913472
 20
-107.909184
 30
0.0
 11
624.913472
 21
-107.909184
 31
0.0
  0
LINE
  8
0
 10
616.913472
 20
-113.909184
 30
0.0
 11
619.163472
 21
-113.909184
 31
0.0
  0
LINE
  8
0
 10
619.163472
 20
-166.909184
 30
0.0
 11
624.913472
 21
-166.909184
 31
0.0
  0
LINE
  8
0
 10
619.163472
 20
-168.909184
 30
0.0
 11
624.913472
 21
-168.909184
 31
0.0
  0
ARC
  8
0
 10
624.913472
 20
-176.909184
 30
0.0
 40
1.5
 50
90.0
 51
270.0
  0
LINE
  8
0
 10
633.413472
 20
-188.518339
 30
0.0
 11
633.413472
 21
-196.518339
 31
0.0
  0
LINE
  8
0
 10
616.413472
 20
-188.518339
 30
0.0
 11
616.413472
 21
-196.518339
 31
0.0
  0
LINE
  8
0
 10
619.913472
 20
-187.659184
 30
0.0
 11
619.163472
 21
-186.909184
 31
0.0
  0
LINE
  8
0
 10
619.913472
 20
-187.659184
 30
0.0
 11
619.913472
 21
-218.768339
 31
0.0
  0
LINE
  8
0
 10
619.163472
 20
-186.909184
 30
0.0
 11
619.163472
 21
-113.909184
 31
0.0
  0
LINE
  8
0
 10
615.163472
 20
-98.518339
 30
0.0
 11
634.663472
 21
-98.518339
 31
0.0
  0
ARC
  8
0
 10
615.263472
 20
-99.918339
 30
0.0
 40
1.4
 50
0.0
 51
90.0
  0
LINE
  8
0
 10
616.913472
 20
-188.518339
 30
0.0
 11
616.913472
 21
-154.518339
 31
0.0
  0
LINE
  8
0
 10
616.663472
 20
-154.518339
 30
0.0
 11
616.663472
 21
-99.918339
 31
0.0
  0
LINE
  8
0
 10
618.913472
 20
-188.518339
 30
0.0
 11
618.913472
 21
-154.518339
 31
0.0
  0
LINE
  8
0
 10
616.663472
 20
-154.518339
 30
0.0
 11
619.163472
 21
-154.518339
 31
0.0
  0
ARC
  8
0
 10
634.663472
 20
-185.518339
 30
0.0
 40
3.0
 50
270.0
 51
0.0
  0
ARC
  8
0
 10
615.163472
 20
-185.518339
 30
0.0
 40
3.0
 50
180.0
 51
270.0
  0
ARC
  8
0
 10
634.663472
 20
-101.518339
 30
0.0
 40
3.0
 50
0.0
 51
90.0
  0
ARC
  8
0
 10
615.163472
 20
-101.518339
 30
0.0
 40
3.0
 50
90.0
 51
180.0
  0
LINE
  8
0
 10
615.163472
 20
-188.518339
 30
0.0
 11
619.913472
 21
-188.518339
 31
0.0
  0
LINE
  8
0
 10
637.663472
 20
-185.518339
 30
0.0
 11
637.663472
 21
-101.518339
 31
0.0
  0
LINE
  8
0
 10
612.163472
 20
-185.518339
 30
0.0
 11
612.163472
 21
-101.518339
 31
0.0
  0
INSERT
  8
0
  2
*X3
 10
662.212364
 20
236.743975
 30
0.0
 50
270.0
  0
INSERT
  8
0
  2
*X3
 10
14.067854
 20
10.851136
 30
0.0
  0
LINE
  8
0
 10
244.123896
 20
-211.518339
 30
0.0
 11
252.123896
 21
-211.518339
 31
0.0
  0
LINE
  8
0
 10
276.963172
 20
-211.518339
 30
0.0
 11
284.963172
 21
-211.518339
 31
0.0
  0
LINE
  8
0
 10
375.403469
 20
-211.518339
 30
0.0
 11
383.403469
 21
-211.518339
 31
0.0
  0
LINE
  8
0
 10
421.330167
 20
-218.768339
 30
0.0
 11
431.330167
 21
-218.768339
 31
0.0
  0
LINE
  8
0
 10
452.09289
 20
-218.768339
 30
0.0
 11
462.09289
 21
-218.768339
 31
0.0
  0
LINE
  8
0
 10
567.518471
 20
-218.768339
 30
0.0
 11
577.518471
 21
-218.768339
 31
0.0
  0
LINE
  8
0
 10
619.913472
 20
-218.768339
 30
0.0
 11
629.913472
 21
-218.768339
 31
0.0
  0
LINE
  8
0
 10
650.676194
 20
-218.768339
 30
0.0
 11
660.676194
 21
-218.768339
 31
0.0
  0
LINE
  8
0
 10
766.101776
 20
-218.768339
 30
0.0
 11
776.101776
 21
-218.768339
 31
0.0
  0
LINE
  8
0
 10
379.403469
 20
-195.018339
 30
0.0
 11
379.403469
 21
-188.518339
 31
0.0
  0
LINE
  8
0
 10
457.09289
 20
-188.518339
 30
0.0
 11
457.09289
 21
-196.518339
 31
0.0
  0
LINE
  8
0
 10
655.676194
 20
-188.518339
 30
0.0
 11
655.676194
 21
-196.518339
 31
0.0
  0
ENDSEC
  0
EOF
