  0
SECTION
  2
HEADER
  9
$ACADVER
  1
AC1009
  9
$INSBASE
 10
0.0
 20
0.0
 30
0.0
  9
$EXTMIN
 10
126.535101
 20
10.729849
 30
0.0
  9
$EXTMAX
 10
383.562128
 20
167.666303
 30
0.0
  9
$LIMMIN
 10
0.0
 20
0.0
  9
$LIMMAX
 10
12.0
 20
9.0
  9
$ORTHOMODE
 70
     1
  9
$REGENMODE
 70
     1
  9
$FILLMODE
 70
     1
  9
$QTEXTMODE
 70
     0
  9
$MIRRTEXT
 70
     1
  9
$DRAGMODE
 70
     2
  9
$LTSCALE
 40
7.0
  9
$OSMODE
 70
     0
  9
$ATTMODE
 70
     1
  9
$TEXTSIZE
 40
5.0
  9
$TRACEWID
 40
0.05
  9
$TEXTSTYLE
  7
STANDARD
  9
$CLAYER
  8
0
  9
$CELTYPE
  6
BYLAYER
  9
$CECOLOR
 62
   256
  9
$DIMSCALE
 40
1.0
  9
$DIMASZ
 40
0.18
  9
$DIMEXO
 40
0.0625
  9
$DIMDLI
 40
0.38
  9
$DIMRND
 40
0.0
  9
$DIMDLE
 40
0.0
  9
$DIMEXE
 40
0.18
  9
$DIMTP
 40
0.0
  9
$DIMTM
 40
0.0
  9
$DIMTXT
 40
0.18
  9
$DIMCEN
 40
0.09
  9
$DIMTSZ
 40
0.0
  9
$DIMTOL
 70
     0
  9
$DIMLIM
 70
     0
  9
$DIMTIH
 70
     1
  9
$DIMTOH
 70
     1
  9
$DIMSE1
 70
     0
  9
$DIMSE2
 70
     0
  9
$DIMTAD
 70
     0
  9
$DIMZIN
 70
     0
  9
$DIMBLK
  1

  9
$DIMASO
 70
     1
  9
$DIMSHO
 70
     0
  9
$DIMPOST
  1

  9
$DIMAPOST
  1

  9
$DIMALT
 70
     0
  9
$DIMALTD
 70
     2
  9
$DIMALTF
 40
25.4
  9
$DIMLFAC
 40
1.0
  9
$DIMTOFL
 70
     0
  9
$DIMTVP
 40
0.0
  9
$DIMTIX
 70
     0
  9
$DIMSOXD
 70
     0
  9
$DIMSAH
 70
     0
  9
$DIMBLK1
  1

  9
$DIMBLK2
  1

  9
$DIMSTYLE
  2
*UNNAMED
  9
$DIMCLRD
 70
     0
  9
$DIMCLRE
 70
     0
  9
$DIMCLRT
 70
     0
  9
$DIMTFAC
 40
1.0
  9
$DIMGAP
 40
0.09
  9
$LUNITS
 70
     2
  9
$LUPREC
 70
     4
  9
$SKETCHINC
 40
0.1
  9
$FILLETRAD
 40
1.5
  9
$AUNITS
 70
     0
  9
$AUPREC
 70
     0
  9
$MENU
  1
wiberger
  9
$ELEVATION
 40
0.0
  9
$PELEVATION
 40
0.0
  9
$THICKNESS
 40
0.0
  9
$LIMCHECK
 70
     0
  9
$BLIPMODE
 70
     1
  9
$CHAMFERA
 40
0.0
  9
$CHAMFERB
 40
0.0
  9
$SKPOLY
 70
     0
  9
$TDCREATE
 40
2450190.491804282
  9
$TDUPDATE
 40
2450218.534638541
  9
$TDINDWG
 40
0.0043329861
  9
$TDUSRTIMER
 40
0.0043329861
  9
$USRTIMER
 70
     1
  9
$ANGBASE
 50
0.0
  9
$ANGDIR
 70
     0
  9
$PDMODE
 70
     0
  9
$PDSIZE
 40
0.0
  9
$PLINEWID
 40
0.0
  9
$COORDS
 70
     2
  9
$SPLFRAME
 70
     0
  9
$SPLINETYPE
 70
     6
  9
$SPLINESEGS
 70
     8
  9
$ATTDIA
 70
     1
  9
$ATTREQ
 70
     1
  9
$HANDLING
 70
     0
  9
$HANDSEED
  5
0
  9
$SURFTAB1
 70
     6
  9
$SURFTAB2
 70
     6
  9
$SURFTYPE
 70
     6
  9
$SURFU
 70
     6
  9
$SURFV
 70
     6
  9
$UCSNAME
  2

  9
$UCSORG
 10
0.0
 20
0.0
 30
0.0
  9
$UCSXDIR
 10
1.0
 20
0.0
 30
0.0
  9
$UCSYDIR
 10
0.0
 20
1.0
 30
0.0
  9
$PUCSNAME
  2

  9
$PUCSORG
 10
0.0
 20
0.0
 30
0.0
  9
$PUCSXDIR
 10
1.0
 20
0.0
 30
0.0
  9
$PUCSYDIR
 10
0.0
 20
1.0
 30
0.0
  9
$USERI1
 70
     0
  9
$USERI2
 70
     0
  9
$USERI3
 70
     0
  9
$USERI4
 70
     0
  9
$USERI5
 70
     0
  9
$USERR1
 40
0.0
  9
$USERR2
 40
0.0
  9
$USERR3
 40
0.0
  9
$USERR4
 40
0.0
  9
$USERR5
 40
0.0
  9
$WORLDVIEW
 70
     1
  9
$SHADEDGE
 70
     3
  9
$SHADEDIF
 70
    70
  9
$TILEMODE
 70
     1
  9
$MAXACTVP
 70
    16
  9
$PINSBASE
 10
0.0
 20
0.0
 30
0.0
  9
$PLIMCHECK
 70
     0
  9
$PEXTMIN
 10
1.000000E+20
 20
1.000000E+20
 30
1.000000E+20
  9
$PEXTMAX
 10
-1.000000E+20
 20
-1.000000E+20
 30
-1.000000E+20
  9
$PLIMMIN
 10
0.0
 20
0.0
  9
$PLIMMAX
 10
12.0
 20
9.0
  9
$UNITMODE
 70
     0
  9
$VISRETAIN
 70
     0
  9
$PLINEGEN
 70
     0
  9
$PSLTSCALE
 70
     0
  9
$TREEDEPTH
 70
  3020
  9
$DWGCODEPAGE
  3
undefined
  0
ENDSEC
  0
SECTION
  2
TABLES
  0
TABLE
  2
VPORT
 70
     2
  0
VPORT
  2
*ACTIVE
 70
     0
 10
0.0
 20
0.0
 11
1.0
 21
1.0
 12
294.09101
 22
89.316814
 13
0.0
 23
0.0
 14
1.0
 24
1.0
 15
0.0
 25
0.0
 16
0.0
 26
0.0
 36
1.0
 17
0.0
 27
0.0
 37
0.0
 40
205.527502
 41
1.767507
 42
50.0
 43
0.0
 44
0.0
 50
0.0
 51
0.0
 71
     0
 72
   100
 73
     1
 74
     0
 75
     0
 76
     0
 77
     0
 78
     0
  0
ENDTAB
  0
TABLE
  2
LTYPE
 70
     3
  0
LTYPE
  2
STANDARD
 70
    64
  3

 72
     0
 73
     0
 40
0.0
  0
LTYPE
  2

 70
    64
  3

 72
     0
 73
     0
 40
0.0
  0
LTYPE
  2
CENTER
 70
    64
  3
____ _ ____ _ ____ _ ____ _ ____ _ ____ _ ____ 
 72
    65
 73
     4
 40
2.0
 49
1.25
 49
-0.25
 49
0.25
 49
-0.25
  0
ENDTAB
  0
TABLE
  2
LAYER
 70
     1
  0
LAYER
  2
0
 70
    64
 62
     7
  6
STANDARD
  0
ENDTAB
  0
TABLE
  2
STYLE
 70
     1
  0
STYLE
  2
STANDARD
 70
     0
 40
0.0
 41
1.0
 50
0.0
 71
     0
 42
0.2
  3
txt
  4

  0
ENDTAB
  0
TABLE
  2
VIEW
 70
     0
  0
ENDTAB
  0
TABLE
  2
UCS
 70
     0
  0
ENDTAB
  0
TABLE
  2
APPID
 70
     1
  0
APPID
  2
ACAD
 70
    64
  0
ENDTAB
  0
TABLE
  2
DIMSTYLE
 70
     0
  0
ENDTAB
  0
ENDSEC
  0
SECTION
  2
BLOCKS
  0
BLOCK
  8
0
  2
*X0
 70
    65
 10
0.0
 20
0.0
 30
0.0
  3
*X
  0
LINE
  8
0
 62
     0
 10
73.160144
 20
-23.006379
 30
0.0
 11
81.460168
 21
-14.706355
 31
0.0
  0
LINE
  8
0
 62
     0
 10
73.160144
 20
-20.177952
 30
0.0
 11
81.460168
 21
-11.877928
 31
0.0
  0
LINE
  8
0
 62
     0
 10
73.160144
 20
-17.349524
 30
0.0
 11
81.460168
 21
-9.0495
 31
0.0
  0
LINE
  8
0
 62
     0
 10
73.160144
 20
-14.521097
 30
0.0
 11
81.460168
 21
-6.221073
 31
0.0
  0
LINE
  8
0
 62
     0
 10
73.160144
 20
-11.69267
 30
0.0
 11
81.460168
 21
-3.392646
 31
0.0
  0
LINE
  8
0
 62
     0
 10
73.160144
 20
-8.864243
 30
0.0
 11
81.460168
 21
-0.564219
 31
0.0
  0
LINE
  8
0
 62
     0
 10
73.160144
 20
-6.035816
 30
0.0
 11
81.460168
 21
2.264208
 31
0.0
  0
LINE
  8
0
 62
     0
 10
73.160144
 20
-3.207389
 30
0.0
 11
81.460168
 21
5.092635
 31
0.0
  0
LINE
  8
0
 62
     0
 10
73.160144
 20
-0.378962
 30
0.0
 11
79.266559
 21
5.727453
 31
0.0
  0
LINE
  8
0
 62
     0
 10
73.160144
 20
2.449465
 30
0.0
 11
78.660168
 21
7.949489
 31
0.0
  0
LINE
  8
0
 62
     0
 10
73.160144
 20
5.277893
 30
0.0
 11
78.660168
 21
10.777917
 31
0.0
  0
LINE
  8
0
 62
     0
 10
73.160144
 20
8.10632
 30
0.0
 11
78.660168
 21
13.606344
 31
0.0
  0
LINE
  8
0
 62
     0
 10
73.160144
 20
10.934747
 30
0.0
 11
76.255383
 21
14.029987
 31
0.0
  0
LINE
  8
0
 62
     0
 10
73.160144
 20
-25.834806
 30
0.0
 11
81.460168
 21
-17.534782
 31
0.0
  0
LINE
  8
0
 62
     0
 10
73.338126
 20
-28.485251
 30
0.0
 11
81.460168
 21
-20.363209
 31
0.0
  0
LINE
  8
0
 62
     0
 10
73.666504
 20
-30.9853
 30
0.0
 11
81.460168
 21
-23.191636
 31
0.0
  0
LINE
  8
0
 62
     0
 10
73.994881
 20
-33.485349
 30
0.0
 11
81.460168
 21
-26.020063
 31
0.0
  0
LINE
  8
0
 62
     0
 10
74.323259
 20
-35.985399
 30
0.0
 11
81.460168
 21
-28.84849
 31
0.0
  0
LINE
  8
0
 62
     0
 10
74.651637
 20
-38.485448
 30
0.0
 11
81.460168
 21
-31.676917
 31
0.0
  0
LINE
  8
0
 62
     0
 10
74.980015
 20
-40.985497
 30
0.0
 11
81.460168
 21
-34.505345
 31
0.0
  0
LINE
  8
0
 62
     0
 10
75.308393
 20
-43.485547
 30
0.0
 11
81.460168
 21
-37.333772
 31
0.0
  0
LINE
  8
0
 62
     0
 10
75.63677
 20
-45.985596
 30
0.0
 11
81.460168
 21
-40.162199
 31
0.0
  0
LINE
  8
0
 62
     0
 10
75.965148
 20
-48.485645
 30
0.0
 11
81.460168
 21
-42.990626
 31
0.0
  0
LINE
  8
0
 62
     0
 10
76.293526
 20
-50.985695
 30
0.0
 11
81.460168
 21
-45.819053
 31
0.0
  0
LINE
  8
0
 62
     0
 10
76.621904
 20
-53.485744
 30
0.0
 11
81.460168
 21
-48.64748
 31
0.0
  0
LINE
  8
0
 62
     0
 10
77.826604
 20
-55.109471
 30
0.0
 11
81.460168
 21
-51.475907
 31
0.0
  0
LINE
  8
0
 62
     0
 10
80.63445
 20
-55.130052
 30
0.0
 11
81.460168
 21
-54.304334
 31
0.0
  0
LINE
  8
0
 62
     0
 10
81.460168
 20
-24.891625
 30
0.0
 11
73.160144
 21
-16.591601
 31
0.0
  0
LINE
  8
0
 62
     0
 10
81.460168
 20
-27.720052
 30
0.0
 11
73.160144
 21
-19.420028
 31
0.0
  0
LINE
  8
0
 62
     0
 10
81.460168
 20
-30.548479
 30
0.0
 11
73.160144
 21
-22.248455
 31
0.0
  0
LINE
  8
0
 62
     0
 10
81.460168
 20
-33.376906
 30
0.0
 11
73.160144
 21
-25.076882
 31
0.0
  0
LINE
  8
0
 62
     0
 10
81.460168
 20
-36.205334
 30
0.0
 11
73.277346
 21
-28.022512
 31
0.0
  0
LINE
  8
0
 62
     0
 10
81.460168
 20
-39.033761
 30
0.0
 11
73.705031
 21
-31.278625
 31
0.0
  0
LINE
  8
0
 62
     0
 10
81.460168
 20
-41.862188
 30
0.0
 11
74.132717
 21
-34.534737
 31
0.0
  0
LINE
  8
0
 62
     0
 10
81.460168
 20
-44.690615
 30
0.0
 11
74.560403
 21
-37.79085
 31
0.0
  0
LINE
  8
0
 62
     0
 10
81.460168
 20
-47.519042
 30
0.0
 11
74.988088
 21
-41.046963
 31
0.0
  0
LINE
  8
0
 62
     0
 10
81.460168
 20
-50.347469
 30
0.0
 11
75.415774
 21
-44.303075
 31
0.0
  0
LINE
  8
0
 62
     0
 10
81.460168
 20
-53.175896
 30
0.0
 11
75.843459
 21
-47.559188
 31
0.0
  0
LINE
  8
0
 62
     0
 10
80.585896
 20
-55.130052
 30
0.0
 11
76.271145
 21
-50.815301
 31
0.0
  0
LINE
  8
0
 62
     0
 10
77.712044
 20
-55.084627
 30
0.0
 11
76.711208
 21
-54.083791
 31
0.0
  0
LINE
  8
0
 62
     0
 10
81.460168
 20
-22.063198
 30
0.0
 11
73.160144
 21
-13.763174
 31
0.0
  0
LINE
  8
0
 62
     0
 10
81.460168
 20
-19.234771
 30
0.0
 11
73.160144
 21
-10.934747
 31
0.0
  0
LINE
  8
0
 62
     0
 10
81.460168
 20
-16.406344
 30
0.0
 11
73.160144
 21
-8.10632
 31
0.0
  0
LINE
  8
0
 62
     0
 10
81.460168
 20
-13.577917
 30
0.0
 11
73.160144
 21
-5.277893
 31
0.0
  0
LINE
  8
0
 62
     0
 10
81.460168
 20
-10.749489
 30
0.0
 11
73.160144
 21
-2.449465
 31
0.0
  0
LINE
  8
0
 62
     0
 10
81.460168
 20
-7.921062
 30
0.0
 11
73.160144
 21
0.378962
 31
0.0
  0
LINE
  8
0
 62
     0
 10
81.460168
 20
-5.092635
 30
0.0
 11
73.160144
 21
3.207389
 31
0.0
  0
LINE
  8
0
 62
     0
 10
81.460168
 20
-2.264208
 30
0.0
 11
73.160144
 21
6.035816
 31
0.0
  0
LINE
  8
0
 62
     0
 10
81.460168
 20
0.564219
 30
0.0
 11
73.160144
 21
8.864243
 31
0.0
  0
LINE
  8
0
 62
     0
 10
81.460168
 20
3.392646
 30
0.0
 11
79.12536
 21
5.727453
 31
0.0
  0
LINE
  8
0
 62
     0
 10
78.660168
 20
6.192646
 30
0.0
 11
73.160144
 21
11.69267
 31
0.0
  0
LINE
  8
0
 62
     0
 10
78.660168
 20
9.021073
 30
0.0
 11
74.059385
 21
13.621856
 31
0.0
  0
LINE
  8
0
 62
     0
 10
78.660168
 20
11.8495
 30
0.0
 11
76.446473
 21
14.063195
 31
0.0
  0
ENDBLK
  8
0
  0
BLOCK
  8
0
  2
*X1
 70
    65
 10
0.0
 20
0.0
 30
0.0
  3
*X
  0
LINE
  8
0
 62
     0
 10
110.505616
 20
-22.430459
 30
0.0
 11
117.70564
 21
-15.230435
 31
0.0
  0
LINE
  8
0
 62
     0
 10
110.505616
 20
-19.602032
 30
0.0
 11
117.70564
 21
-12.402008
 31
0.0
  0
LINE
  8
0
 62
     0
 10
110.505616
 20
-16.773605
 30
0.0
 11
117.70564
 21
-9.573581
 31
0.0
  0
LINE
  8
0
 62
     0
 10
110.505616
 20
-13.945178
 30
0.0
 11
117.70564
 21
-6.745154
 31
0.0
  0
LINE
  8
0
 62
     0
 10
110.505616
 20
-11.116751
 30
0.0
 11
117.70564
 21
-3.916727
 31
0.0
  0
LINE
  8
0
 62
     0
 10
110.505616
 20
-8.288324
 30
0.0
 11
117.70564
 21
-1.0883
 31
0.0
  0
LINE
  8
0
 62
     0
 10
110.505616
 20
-5.459897
 30
0.0
 11
117.70564
 21
1.740127
 31
0.0
  0
LINE
  8
0
 62
     0
 10
110.505616
 20
-2.631469
 30
0.0
 11
116.864538
 21
3.727453
 31
0.0
  0
LINE
  8
0
 62
     0
 10
110.505616
 20
0.196958
 30
0.0
 11
114.50564
 21
4.196982
 31
0.0
  0
LINE
  8
0
 62
     0
 10
110.505616
 20
3.025385
 30
0.0
 11
114.50564
 21
7.025409
 31
0.0
  0
LINE
  8
0
 62
     0
 10
110.505616
 20
5.853812
 30
0.0
 11
114.50564
 21
9.853836
 31
0.0
  0
LINE
  8
0
 62
     0
 10
110.505616
 20
8.682239
 30
0.0
 11
114.50564
 21
12.682263
 31
0.0
  0
LINE
  8
0
 62
     0
 10
110.505616
 20
11.510666
 30
0.0
 11
112.92586
 21
13.93091
 31
0.0
  0
LINE
  8
0
 62
     0
 10
110.505616
 20
-25.258886
 30
0.0
 11
117.70564
 21
-18.058862
 31
0.0
  0
LINE
  8
0
 62
     0
 10
110.616734
 20
-27.976195
 30
0.0
 11
117.70564
 21
-20.88729
 31
0.0
  0
LINE
  8
0
 62
     0
 10
110.945112
 20
-30.476244
 30
0.0
 11
117.70564
 21
-23.715717
 31
0.0
  0
LINE
  8
0
 62
     0
 10
111.27349
 20
-32.976294
 30
0.0
 11
117.70564
 21
-26.544144
 31
0.0
  0
LINE
  8
0
 62
     0
 10
111.601868
 20
-35.476343
 30
0.0
 11
117.70564
 21
-29.372571
 31
0.0
  0
LINE
  8
0
 62
     0
 10
111.930245
 20
-37.976392
 30
0.0
 11
117.70564
 21
-32.200998
 31
0.0
  0
LINE
  8
0
 62
     0
 10
112.258623
 20
-40.476442
 30
0.0
 11
117.70564
 21
-35.029425
 31
0.0
  0
LINE
  8
0
 62
     0
 10
112.587001
 20
-42.976491
 30
0.0
 11
117.70564
 21
-37.857852
 31
0.0
  0
LINE
  8
0
 62
     0
 10
112.915379
 20
-45.47654
 30
0.0
 11
117.70564
 21
-40.686279
 31
0.0
  0
LINE
  8
0
 62
     0
 10
113.243756
 20
-47.97659
 30
0.0
 11
117.70564
 21
-43.514707
 31
0.0
  0
LINE
  8
0
 62
     0
 10
113.572134
 20
-50.476639
 30
0.0
 11
117.70564
 21
-46.343134
 31
0.0
  0
LINE
  8
0
 62
     0
 10
113.900512
 20
-52.976688
 30
0.0
 11
117.70564
 21
-49.171561
 31
0.0
  0
LINE
  8
0
 62
     0
 10
114.744527
 20
-54.961101
 30
0.0
 11
117.70564
 21
-51.999988
 31
0.0
  0
LINE
  8
0
 62
     0
 10
117.404003
 20
-55.130052
 30
0.0
 11
117.70564
 21
-54.828415
 31
0.0
  0
LINE
  8
0
 62
     0
 10
117.70564
 20
-24.367544
 30
0.0
 11
110.505616
 21
-17.16752
 31
0.0
  0
LINE
  8
0
 62
     0
 10
117.70564
 20
-27.195972
 30
0.0
 11
110.505616
 21
-19.995948
 31
0.0
  0
LINE
  8
0
 62
     0
 10
117.70564
 20
-30.024399
 30
0.0
 11
110.505616
 21
-22.824375
 31
0.0
  0
LINE
  8
0
 62
     0
 10
117.70564
 20
-32.852826
 30
0.0
 11
110.505616
 21
-25.652802
 31
0.0
  0
LINE
  8
0
 62
     0
 10
117.70564
 20
-35.681253
 30
0.0
 11
110.709902
 21
-28.685516
 31
0.0
  0
LINE
  8
0
 62
     0
 10
117.70564
 20
-38.50968
 30
0.0
 11
111.137588
 21
-31.941628
 31
0.0
  0
LINE
  8
0
 62
     0
 10
117.70564
 20
-41.338107
 30
0.0
 11
111.565274
 21
-35.197741
 31
0.0
  0
LINE
  8
0
 62
     0
 10
117.70564
 20
-44.166534
 30
0.0
 11
111.992959
 21
-38.453854
 31
0.0
  0
LINE
  8
0
 62
     0
 10
117.70564
 20
-46.994961
 30
0.0
 11
112.420645
 21
-41.709967
 31
0.0
  0
LINE
  8
0
 62
     0
 10
117.70564
 20
-49.823389
 30
0.0
 11
112.84833
 21
-44.966079
 31
0.0
  0
LINE
  8
0
 62
     0
 10
117.70564
 20
-52.651816
 30
0.0
 11
113.276016
 21
-48.222192
 31
0.0
  0
LINE
  8
0
 62
     0
 10
117.355449
 20
-55.130052
 30
0.0
 11
113.703701
 21
-51.478305
 31
0.0
  0
LINE
  8
0
 62
     0
 10
117.70564
 20
-21.539117
 30
0.0
 11
110.505616
 21
-14.339093
 31
0.0
  0
LINE
  8
0
 62
     0
 10
117.70564
 20
-18.71069
 30
0.0
 11
110.505616
 21
-11.510666
 31
0.0
  0
LINE
  8
0
 62
     0
 10
117.70564
 20
-15.882263
 30
0.0
 11
110.505616
 21
-8.682239
 31
0.0
  0
LINE
  8
0
 62
     0
 10
117.70564
 20
-13.053836
 30
0.0
 11
110.505616
 21
-5.853812
 31
0.0
  0
LINE
  8
0
 62
     0
 10
117.70564
 20
-10.225409
 30
0.0
 11
110.505616
 21
-3.025385
 31
0.0
  0
LINE
  8
0
 62
     0
 10
117.70564
 20
-7.396982
 30
0.0
 11
110.505616
 21
-0.196958
 31
0.0
  0
LINE
  8
0
 62
     0
 10
117.70564
 20
-4.568555
 30
0.0
 11
110.505616
 21
2.631469
 31
0.0
  0
LINE
  8
0
 62
     0
 10
117.70564
 20
-1.740127
 30
0.0
 11
110.505616
 21
5.459897
 31
0.0
  0
LINE
  8
0
 62
     0
 10
117.70564
 20
1.0883
 30
0.0
 11
115.066486
 21
3.727453
 31
0.0
  0
LINE
  8
0
 62
     0
 10
114.50564
 20
4.2883
 30
0.0
 11
110.505616
 21
8.288324
 31
0.0
  0
LINE
  8
0
 62
     0
 10
114.50564
 20
7.116727
 30
0.0
 11
110.505616
 21
11.116751
 31
0.0
  0
LINE
  8
0
 62
     0
 10
114.50564
 20
9.945154
 30
0.0
 11
111.037759
 21
13.413034
 31
0.0
  0
LINE
  8
0
 62
     0
 10
114.50564
 20
12.773581
 30
0.0
 11
113.281432
 21
13.997789
 31
0.0
  0
ENDBLK
  8
0
  0
BLOCK
  8
0
  2
*X2
 70
    65
 10
0.0
 20
0.0
 30
0.0
  3
*X
  0
LINE
  8
0
 62
     0
 10
85.587736
 20
96.901445
 30
0.0
 11
92.349348
 21
103.663056
 31
0.0
  0
LINE
  8
0
 62
     0
 10
85.549348
 20
99.691483
 30
0.0
 11
92.349348
 21
106.491483
 31
0.0
  0
LINE
  8
0
 62
     0
 10
85.549348
 20
102.519911
 30
0.0
 11
92.349348
 21
109.319911
 31
0.0
  0
LINE
  8
0
 62
     0
 10
85.549348
 20
105.348338
 30
0.0
 11
92.349348
 21
112.148338
 31
0.0
  0
LINE
  8
0
 62
     0
 10
85.549348
 20
108.176765
 30
0.0
 11
92.349348
 21
114.976765
 31
0.0
  0
LINE
  8
0
 62
     0
 10
85.549348
 20
111.005192
 30
0.0
 11
92.349348
 21
117.805192
 31
0.0
  0
LINE
  8
0
 62
     0
 10
85.549348
 20
113.833619
 30
0.0
 11
90.68008
 21
118.964351
 31
0.0
  0
LINE
  8
0
 62
     0
 10
85.549348
 20
116.662046
 30
0.0
 11
89.949348
 21
121.062046
 31
0.0
  0
LINE
  8
0
 62
     0
 10
85.549348
 20
119.490473
 30
0.0
 11
89.949348
 21
123.890473
 31
0.0
  0
LINE
  8
0
 62
     0
 10
85.549348
 20
122.3189
 30
0.0
 11
89.6547
 21
126.424252
 31
0.0
  0
LINE
  8
0
 62
     0
 10
85.549348
 20
125.147328
 30
0.0
 11
86.784166
 21
126.382145
 31
0.0
  0
LINE
  8
0
 62
     0
 10
85.956662
 20
94.441943
 30
0.0
 11
92.349348
 21
100.834629
 31
0.0
  0
LINE
  8
0
 62
     0
 10
86.325587
 20
91.982441
 30
0.0
 11
92.349348
 21
98.006202
 31
0.0
  0
LINE
  8
0
 62
     0
 10
86.694512
 20
89.522939
 30
0.0
 11
92.349348
 21
95.177775
 31
0.0
  0
LINE
  8
0
 62
     0
 10
87.063437
 20
87.063437
 30
0.0
 11
92.349348
 21
92.349348
 31
0.0
  0
LINE
  8
0
 62
     0
 10
87.432363
 20
84.603936
 30
0.0
 11
92.349348
 21
89.520921
 31
0.0
  0
LINE
  8
0
 62
     0
 10
87.801288
 20
82.144434
 30
0.0
 11
92.349348
 21
86.692494
 31
0.0
  0
LINE
  8
0
 62
     0
 10
88.170213
 20
79.684932
 30
0.0
 11
92.349348
 21
83.864066
 31
0.0
  0
LINE
  8
0
 62
     0
 10
88.734347
 20
77.420639
 30
0.0
 11
92.349348
 21
81.035639
 31
0.0
  0
LINE
  8
0
 62
     0
 10
91.299504
 20
77.157368
 30
0.0
 11
92.349348
 21
78.207212
 31
0.0
  0
LINE
  8
0
 62
     0
 10
92.349348
 20
97.15527
 30
0.0
 11
85.549348
 21
103.95527
 31
0.0
  0
LINE
  8
0
 62
     0
 10
92.349348
 20
94.326842
 30
0.0
 11
85.549348
 21
101.126842
 31
0.0
  0
LINE
  8
0
 62
     0
 10
92.349348
 20
91.498415
 30
0.0
 11
85.549348
 21
98.298415
 31
0.0
  0
LINE
  8
0
 62
     0
 10
92.349348
 20
88.669988
 30
0.0
 11
85.847121
 21
95.172215
 31
0.0
  0
LINE
  8
0
 62
     0
 10
92.349348
 20
85.841561
 30
0.0
 11
86.346255
 21
91.844654
 31
0.0
  0
LINE
  8
0
 62
     0
 10
92.349348
 20
83.013134
 30
0.0
 11
86.845389
 21
88.517093
 31
0.0
  0
LINE
  8
0
 62
     0
 10
92.349348
 20
80.184707
 30
0.0
 11
87.344523
 21
85.189531
 31
0.0
  0
LINE
  8
0
 62
     0
 10
92.349348
 20
77.35628
 30
0.0
 11
87.843658
 21
81.86197
 31
0.0
  0
LINE
  8
0
 62
     0
 10
89.719832
 20
77.157368
 30
0.0
 11
88.342792
 21
78.534409
 31
0.0
  0
LINE
  8
0
 62
     0
 10
92.349348
 20
99.983697
 30
0.0
 11
85.549348
 21
106.783697
 31
0.0
  0
LINE
  8
0
 62
     0
 10
92.349348
 20
102.812124
 30
0.0
 11
85.549348
 21
109.612124
 31
0.0
  0
LINE
  8
0
 62
     0
 10
92.349348
 20
105.640551
 30
0.0
 11
85.549348
 21
112.440551
 31
0.0
  0
LINE
  8
0
 62
     0
 10
92.349348
 20
108.468978
 30
0.0
 11
85.549348
 21
115.268978
 31
0.0
  0
LINE
  8
0
 62
     0
 10
92.349348
 20
111.297405
 30
0.0
 11
85.549348
 21
118.097405
 31
0.0
  0
LINE
  8
0
 62
     0
 10
92.349348
 20
114.125832
 30
0.0
 11
85.549348
 21
120.925832
 31
0.0
  0
LINE
  8
0
 62
     0
 10
92.349348
 20
116.954259
 30
0.0
 11
90.339256
 21
118.964351
 31
0.0
  0
LINE
  8
0
 62
     0
 10
89.949348
 20
119.354259
 30
0.0
 11
85.549348
 21
123.754259
 31
0.0
  0
LINE
  8
0
 62
     0
 10
89.949348
 20
122.182687
 30
0.0
 11
85.978599
 21
126.153435
 31
0.0
  0
LINE
  8
0
 62
     0
 10
89.949348
 20
125.011114
 30
0.0
 11
88.331356
 21
126.629106
 31
0.0
  0
ENDBLK
  8
0
  0
BLOCK
  8
0
  2
*X3
 70
    65
 10
0.0
 20
0.0
 30
0.0
  3
*X
  0
LINE
  8
0
 62
     0
 10
115.872681
 20
101.730545
 30
0.0
 11
121.672681
 21
107.530545
 31
0.0
  0
LINE
  8
0
 62
     0
 10
115.872681
 20
104.558972
 30
0.0
 11
121.672681
 21
110.358972
 31
0.0
  0
LINE
  8
0
 62
     0
 10
115.872681
 20
107.387399
 30
0.0
 11
121.672681
 21
113.187399
 31
0.0
  0
LINE
  8
0
 62
     0
 10
115.872681
 20
110.215826
 30
0.0
 11
121.672681
 21
116.015826
 31
0.0
  0
LINE
  8
0
 62
     0
 10
115.872681
 20
113.044253
 30
0.0
 11
120.792778
 21
117.964351
 31
0.0
  0
LINE
  8
0
 62
     0
 10
115.872681
 20
115.872681
 30
0.0
 11
118.872681
 21
118.872681
 31
0.0
  0
LINE
  8
0
 62
     0
 10
115.872681
 20
118.701108
 30
0.0
 11
118.872681
 21
121.701108
 31
0.0
  0
LINE
  8
0
 62
     0
 10
115.872681
 20
121.529535
 30
0.0
 11
118.872681
 21
124.529535
 31
0.0
  0
LINE
  8
0
 62
     0
 10
115.872681
 20
124.357962
 30
0.0
 11
118.060886
 21
126.546167
 31
0.0
  0
LINE
  8
0
 62
     0
 10
115.872681
 20
98.902118
 30
0.0
 11
121.672681
 21
104.702118
 31
0.0
  0
LINE
  8
0
 62
     0
 10
116.01403
 20
96.21504
 30
0.0
 11
121.672681
 21
101.873691
 31
0.0
  0
LINE
  8
0
 62
     0
 10
116.382955
 20
93.755538
 30
0.0
 11
121.672681
 21
99.045264
 31
0.0
  0
LINE
  8
0
 62
     0
 10
116.75188
 20
91.296036
 30
0.0
 11
121.672681
 21
96.216836
 31
0.0
  0
LINE
  8
0
 62
     0
 10
117.120806
 20
88.836534
 30
0.0
 11
121.672681
 21
93.388409
 31
0.0
  0
LINE
  8
0
 62
     0
 10
117.489731
 20
86.377032
 30
0.0
 11
121.672681
 21
90.559982
 31
0.0
  0
LINE
  8
0
 62
     0
 10
117.858656
 20
83.917531
 30
0.0
 11
121.672681
 21
87.731555
 31
0.0
  0
LINE
  8
0
 62
     0
 10
118.227581
 20
81.458029
 30
0.0
 11
121.672681
 21
84.903128
 31
0.0
  0
LINE
  8
0
 62
     0
 10
118.596507
 20
78.998527
 30
0.0
 11
121.672681
 21
82.074701
 31
0.0
  0
LINE
  8
0
 62
     0
 10
119.593654
 20
77.167247
 30
0.0
 11
121.672681
 21
79.246274
 31
0.0
  0
LINE
  8
0
 62
     0
 10
121.672681
 20
98.944635
 30
0.0
 11
115.872681
 21
104.744635
 31
0.0
  0
LINE
  8
0
 62
     0
 10
121.672681
 20
96.116208
 30
0.0
 11
115.872681
 21
101.916208
 31
0.0
  0
LINE
  8
0
 62
     0
 10
121.672681
 20
93.287781
 30
0.0
 11
115.872681
 21
99.087781
 31
0.0
  0
LINE
  8
0
 62
     0
 10
121.672681
 20
90.459354
 30
0.0
 11
116.031154
 21
96.100881
 31
0.0
  0
LINE
  8
0
 62
     0
 10
121.672681
 20
87.630927
 30
0.0
 11
116.530288
 21
92.773319
 31
0.0
  0
LINE
  8
0
 62
     0
 10
121.672681
 20
84.8025
 30
0.0
 11
117.029422
 21
89.445758
 31
0.0
  0
LINE
  8
0
 62
     0
 10
121.672681
 20
81.974072
 30
0.0
 11
117.528556
 21
86.118197
 31
0.0
  0
LINE
  8
0
 62
     0
 10
121.672681
 20
79.145645
 30
0.0
 11
118.02769
 21
82.790635
 31
0.0
  0
LINE
  8
0
 62
     0
 10
120.832531
 20
77.157368
 30
0.0
 11
118.526825
 21
79.463074
 31
0.0
  0
LINE
  8
0
 62
     0
 10
121.672681
 20
101.773062
 30
0.0
 11
115.872681
 21
107.573062
 31
0.0
  0
LINE
  8
0
 62
     0
 10
121.672681
 20
104.601489
 30
0.0
 11
115.872681
 21
110.401489
 31
0.0
  0
LINE
  8
0
 62
     0
 10
121.672681
 20
107.429917
 30
0.0
 11
115.872681
 21
113.229917
 31
0.0
  0
LINE
  8
0
 62
     0
 10
121.672681
 20
110.258344
 30
0.0
 11
115.872681
 21
116.058344
 31
0.0
  0
LINE
  8
0
 62
     0
 10
121.672681
 20
113.086771
 30
0.0
 11
115.872681
 21
118.886771
 31
0.0
  0
LINE
  8
0
 62
     0
 10
121.672681
 20
115.915198
 30
0.0
 11
119.623528
 21
117.964351
 31
0.0
  0
LINE
  8
0
 62
     0
 10
118.872681
 20
118.715198
 30
0.0
 11
115.872681
 21
121.715198
 31
0.0
  0
LINE
  8
0
 62
     0
 10
118.872681
 20
121.543625
 30
0.0
 11
115.872681
 21
124.543625
 31
0.0
  0
LINE
  8
0
 62
     0
 10
118.872681
 20
124.372052
 30
0.0
 11
116.894779
 21
126.349954
 31
0.0
  0
ENDBLK
  8
0
  0
BLOCK
  8
0
  2
*X4
 70
    65
 10
0.0
 20
0.0
 30
0.0
  3
*X
  0
LINE
  8
0
 62
     0
 10
193.46766
 20
94.47271
 30
0.0
 11
200.76766
 21
101.77271
 31
0.0
  0
LINE
  8
0
 62
     0
 10
193.46766
 20
97.301137
 30
0.0
 11
200.76766
 21
104.601137
 31
0.0
  0
LINE
  8
0
 62
     0
 10
193.46766
 20
100.129565
 30
0.0
 11
200.76766
 21
107.429565
 31
0.0
  0
LINE
  8
0
 62
     0
 10
193.46766
 20
102.957992
 30
0.0
 11
200.76766
 21
110.257992
 31
0.0
  0
LINE
  8
0
 62
     0
 10
193.46766
 20
105.786419
 30
0.0
 11
200.76766
 21
113.086419
 31
0.0
  0
LINE
  8
0
 62
     0
 10
193.46766
 20
108.614846
 30
0.0
 11
200.76766
 21
115.914846
 31
0.0
  0
LINE
  8
0
 62
     0
 10
193.46766
 20
111.443273
 30
0.0
 11
199.423885
 21
117.399498
 31
0.0
  0
LINE
  8
0
 62
     0
 10
193.46766
 20
114.2717
 30
0.0
 11
197.96766
 21
118.7717
 31
0.0
  0
LINE
  8
0
 62
     0
 10
193.46766
 20
117.100127
 30
0.0
 11
197.96766
 21
121.600127
 31
0.0
  0
LINE
  8
0
 62
     0
 10
193.46766
 20
119.928554
 30
0.0
 11
197.96766
 21
124.428554
 31
0.0
  0
LINE
  8
0
 62
     0
 10
193.46766
 20
122.756982
 30
0.0
 11
196.599082
 21
125.888404
 31
0.0
  0
LINE
  8
0
 62
     0
 10
193.46766
 20
91.644283
 30
0.0
 11
200.76766
 21
98.944283
 31
0.0
  0
LINE
  8
0
 62
     0
 10
193.692785
 20
89.040981
 30
0.0
 11
200.76766
 21
96.115856
 31
0.0
  0
LINE
  8
0
 62
     0
 10
194.06171
 20
86.581479
 30
0.0
 11
200.76766
 21
93.287429
 31
0.0
  0
LINE
  8
0
 62
     0
 10
194.430635
 20
84.121977
 30
0.0
 11
200.76766
 21
90.459002
 31
0.0
  0
LINE
  8
0
 62
     0
 10
194.79956
 20
81.662475
 30
0.0
 11
200.76766
 21
87.630575
 31
0.0
  0
LINE
  8
0
 62
     0
 10
195.168486
 20
79.202974
 30
0.0
 11
200.76766
 21
84.802148
 31
0.0
  0
LINE
  8
0
 62
     0
 10
195.537411
 20
76.743472
 30
0.0
 11
200.76766
 21
81.97372
 31
0.0
  0
LINE
  8
0
 62
     0
 10
195.906336
 20
74.28397
 30
0.0
 11
200.76766
 21
79.145293
 31
0.0
  0
LINE
  8
0
 62
     0
 10
196.275261
 20
71.824468
 30
0.0
 11
200.76766
 21
76.316866
 31
0.0
  0
LINE
  8
0
 62
     0
 10
196.644187
 20
69.364966
 30
0.0
 11
200.76766
 21
73.488439
 31
0.0
  0
LINE
  8
0
 62
     0
 10
197.136124
 20
67.028476
 30
0.0
 11
200.76766
 21
70.660012
 31
0.0
  0
LINE
  8
0
 62
     0
 10
199.477888
 20
66.541813
 30
0.0
 11
200.76766
 21
67.831585
 31
0.0
  0
LINE
  8
0
 62
     0
 10
200.76766
 20
90.560334
 30
0.0
 11
193.46766
 21
97.860334
 31
0.0
  0
LINE
  8
0
 62
     0
 10
200.76766
 20
87.731907
 30
0.0
 11
193.46766
 21
95.031907
 31
0.0
  0
LINE
  8
0
 62
     0
 10
200.76766
 20
84.90348
 30
0.0
 11
193.46766
 21
92.20348
 31
0.0
  0
LINE
  8
0
 62
     0
 10
200.76766
 20
82.075053
 30
0.0
 11
193.673559
 21
89.169154
 31
0.0
  0
LINE
  8
0
 62
     0
 10
200.76766
 20
79.246626
 30
0.0
 11
194.172693
 21
85.841593
 31
0.0
  0
LINE
  8
0
 62
     0
 10
200.76766
 20
76.418199
 30
0.0
 11
194.671827
 21
82.514031
 31
0.0
  0
LINE
  8
0
 62
     0
 10
200.76766
 20
73.589771
 30
0.0
 11
195.170961
 21
79.18647
 31
0.0
  0
LINE
  8
0
 62
     0
 10
200.76766
 20
70.761344
 30
0.0
 11
195.670095
 21
75.858909
 31
0.0
  0
LINE
  8
0
 62
     0
 10
200.76766
 20
67.932917
 30
0.0
 11
196.16923
 21
72.531347
 31
0.0
  0
LINE
  8
0
 62
     0
 10
199.330336
 20
66.541813
 30
0.0
 11
196.668364
 21
69.203786
 31
0.0
  0
LINE
  8
0
 62
     0
 10
200.76766
 20
93.388761
 30
0.0
 11
193.46766
 21
100.688761
 31
0.0
  0
LINE
  8
0
 62
     0
 10
200.76766
 20
96.217188
 30
0.0
 11
193.46766
 21
103.517188
 31
0.0
  0
LINE
  8
0
 62
     0
 10
200.76766
 20
99.045616
 30
0.0
 11
193.46766
 21
106.345616
 31
0.0
  0
LINE
  8
0
 62
     0
 10
200.76766
 20
101.874043
 30
0.0
 11
193.46766
 21
109.174043
 31
0.0
  0
LINE
  8
0
 62
     0
 10
200.76766
 20
104.70247
 30
0.0
 11
193.46766
 21
112.00247
 31
0.0
  0
LINE
  8
0
 62
     0
 10
200.76766
 20
107.530897
 30
0.0
 11
193.46766
 21
114.830897
 31
0.0
  0
LINE
  8
0
 62
     0
 10
200.76766
 20
110.359324
 30
0.0
 11
193.46766
 21
117.659324
 31
0.0
  0
LINE
  8
0
 62
     0
 10
200.76766
 20
113.187751
 30
0.0
 11
193.46766
 21
120.487751
 31
0.0
  0
LINE
  8
0
 62
     0
 10
200.76766
 20
116.016178
 30
0.0
 11
199.38434
 21
117.399498
 31
0.0
  0
LINE
  8
0
 62
     0
 10
197.96766
 20
118.816178
 30
0.0
 11
193.46766
 21
123.316178
 31
0.0
  0
LINE
  8
0
 62
     0
 10
197.96766
 20
121.644605
 30
0.0
 11
194.169025
 21
125.44324
 31
0.0
  0
LINE
  8
0
 62
     0
 10
197.96766
 20
124.473033
 30
0.0
 11
196.558947
 21
125.881745
 31
0.0
  0
ENDBLK
  8
0
  0
BLOCK
  8
0
  2
*X5
 70
    65
 10
0.0
 20
0.0
 30
0.0
  3
*X
  0
LINE
  8
0
 62
     0
 10
164.821876
 20
-33.168023
 30
0.0
 11
173.071876
 21
-24.918023
 31
0.0
  0
LINE
  8
0
 62
     0
 10
164.821876
 20
-30.339596
 30
0.0
 11
173.071876
 21
-22.089596
 31
0.0
  0
LINE
  8
0
 62
     0
 10
164.821876
 20
-27.511169
 30
0.0
 11
173.071876
 21
-19.261169
 31
0.0
  0
LINE
  8
0
 62
     0
 10
164.821876
 20
-24.682742
 30
0.0
 11
173.071876
 21
-16.432742
 31
0.0
  0
LINE
  8
0
 62
     0
 10
164.821876
 20
-21.854315
 30
0.0
 11
173.071876
 21
-13.604315
 31
0.0
  0
LINE
  8
0
 62
     0
 10
164.821876
 20
-19.025888
 30
0.0
 11
173.071876
 21
-10.775888
 31
0.0
  0
LINE
  8
0
 62
     0
 10
164.821876
 20
-16.19746
 30
0.0
 11
173.071876
 21
-7.94746
 31
0.0
  0
LINE
  8
0
 62
     0
 10
164.821876
 20
-13.369033
 30
0.0
 11
173.071876
 21
-5.119033
 31
0.0
  0
LINE
  8
0
 62
     0
 10
164.821876
 20
-10.540606
 30
0.0
 11
172.062487
 21
-3.299995
 31
0.0
  0
LINE
  8
0
 62
     0
 10
164.821876
 20
-7.712179
 30
0.0
 11
169.821876
 21
-2.712179
 31
0.0
  0
LINE
  8
0
 62
     0
 10
164.821876
 20
-4.883752
 30
0.0
 11
169.821876
 21
0.116248
 31
0.0
  0
LINE
  8
0
 62
     0
 10
164.821876
 20
-2.055325
 30
0.0
 11
169.821876
 21
2.944675
 31
0.0
  0
LINE
  8
0
 62
     0
 10
164.821876
 20
0.773102
 30
0.0
 11
169.821876
 21
5.773102
 31
0.0
  0
LINE
  8
0
 62
     0
 10
164.821876
 20
3.601529
 30
0.0
 11
168.319335
 21
7.098989
 31
0.0
  0
LINE
  8
0
 62
     0
 10
164.821876
 20
-35.99645
 30
0.0
 11
173.071876
 21
-27.74645
 31
0.0
  0
LINE
  8
0
 62
     0
 10
164.821876
 20
-38.824877
 30
0.0
 11
173.071876
 21
-30.574877
 31
0.0
  0
LINE
  8
0
 62
     0
 10
164.821876
 20
-41.653305
 30
0.0
 11
173.071876
 21
-33.403305
 31
0.0
  0
LINE
  8
0
 62
     0
 10
165.064291
 20
-44.239317
 30
0.0
 11
173.071876
 21
-36.231732
 31
0.0
  0
LINE
  8
0
 62
     0
 10
165.37856
 20
-46.753474
 30
0.0
 11
173.071876
 21
-39.060159
 31
0.0
  0
LINE
  8
0
 62
     0
 10
165.69283
 20
-49.267631
 30
0.0
 11
173.071876
 21
-41.888586
 31
0.0
  0
LINE
  8
0
 62
     0
 10
166.0071
 20
-51.781789
 30
0.0
 11
173.071876
 21
-44.717013
 31
0.0
  0
LINE
  8
0
 62
     0
 10
166.321369
 20
-54.295946
 30
0.0
 11
173.071876
 21
-47.54544
 31
0.0
  0
LINE
  8
0
 62
     0
 10
166.635639
 20
-56.810104
 30
0.0
 11
173.071876
 21
-50.373867
 31
0.0
  0
LINE
  8
0
 62
     0
 10
166.949909
 20
-59.324261
 30
0.0
 11
173.071876
 21
-53.202294
 31
0.0
  0
LINE
  8
0
 62
     0
 10
167.264178
 20
-61.838419
 30
0.0
 11
173.071876
 21
-56.030722
 31
0.0
  0
LINE
  8
0
 62
     0
 10
167.578448
 20
-64.352576
 30
0.0
 11
173.071876
 21
-58.859149
 31
0.0
  0
LINE
  8
0
 62
     0
 10
167.892718
 20
-66.866734
 30
0.0
 11
173.071876
 21
-61.687576
 31
0.0
  0
LINE
  8
0
 62
     0
 10
168.233544
 20
-69.354334
 30
0.0
 11
173.071876
 21
-64.516003
 31
0.0
  0
LINE
  8
0
 62
     0
 10
170.116311
 20
-70.299995
 30
0.0
 11
173.071876
 21
-67.34443
 31
0.0
  0
LINE
  8
0
 62
     0
 10
172.944738
 20
-70.299995
 30
0.0
 11
173.071876
 21
-70.172857
 31
0.0
  0
LINE
  8
0
 62
     0
 10
173.071876
 20
-37.307374
 30
0.0
 11
164.821876
 21
-29.057374
 31
0.0
  0
LINE
  8
0
 62
     0
 10
173.071876
 20
-40.135801
 30
0.0
 11
164.821876
 21
-31.885801
 31
0.0
  0
LINE
  8
0
 62
     0
 10
173.071876
 20
-42.964228
 30
0.0
 11
164.821876
 21
-34.714228
 31
0.0
  0
LINE
  8
0
 62
     0
 10
173.071876
 20
-45.792655
 30
0.0
 11
164.821876
 21
-37.542655
 31
0.0
  0
LINE
  8
0
 62
     0
 10
173.071876
 20
-48.621082
 30
0.0
 11
164.821876
 21
-40.371082
 31
0.0
  0
LINE
  8
0
 62
     0
 10
173.071876
 20
-51.449509
 30
0.0
 11
164.950378
 21
-43.328011
 31
0.0
  0
LINE
  8
0
 62
     0
 10
173.071876
 20
-54.277936
 30
0.0
 11
165.354439
 21
-46.560499
 31
0.0
  0
LINE
  8
0
 62
     0
 10
173.071876
 20
-57.106363
 30
0.0
 11
165.7585
 21
-49.792987
 31
0.0
  0
LINE
  8
0
 62
     0
 10
173.071876
 20
-59.934791
 30
0.0
 11
166.162561
 21
-53.025476
 31
0.0
  0
LINE
  8
0
 62
     0
 10
173.071876
 20
-62.763218
 30
0.0
 11
166.566622
 21
-56.257964
 31
0.0
  0
LINE
  8
0
 62
     0
 10
173.071876
 20
-65.591645
 30
0.0
 11
166.970683
 21
-59.490452
 31
0.0
  0
LINE
  8
0
 62
     0
 10
173.071876
 20
-68.420072
 30
0.0
 11
167.374744
 21
-62.72294
 31
0.0
  0
LINE
  8
0
 62
     0
 10
172.123371
 20
-70.299995
 30
0.0
 11
167.778805
 21
-65.955428
 31
0.0
  0
LINE
  8
0
 62
     0
 10
169.263714
 20
-70.268764
 30
0.0
 11
168.189001
 21
-69.194051
 31
0.0
  0
LINE
  8
0
 62
     0
 10
173.071876
 20
-34.478946
 30
0.0
 11
164.821876
 21
-26.228946
 31
0.0
  0
LINE
  8
0
 62
     0
 10
173.071876
 20
-31.650519
 30
0.0
 11
164.821876
 21
-23.400519
 31
0.0
  0
LINE
  8
0
 62
     0
 10
173.071876
 20
-28.822092
 30
0.0
 11
164.821876
 21
-20.572092
 31
0.0
  0
LINE
  8
0
 62
     0
 10
173.071876
 20
-25.993665
 30
0.0
 11
164.821876
 21
-17.743665
 31
0.0
  0
LINE
  8
0
 62
     0
 10
173.071876
 20
-23.165238
 30
0.0
 11
164.821876
 21
-14.915238
 31
0.0
  0
LINE
  8
0
 62
     0
 10
173.071876
 20
-20.336811
 30
0.0
 11
164.821876
 21
-12.086811
 31
0.0
  0
LINE
  8
0
 62
     0
 10
173.071876
 20
-17.508384
 30
0.0
 11
164.821876
 21
-9.258384
 31
0.0
  0
LINE
  8
0
 62
     0
 10
173.071876
 20
-14.679957
 30
0.0
 11
164.821876
 21
-6.429957
 31
0.0
  0
LINE
  8
0
 62
     0
 10
173.071876
 20
-11.851529
 30
0.0
 11
164.821876
 21
-3.601529
 31
0.0
  0
LINE
  8
0
 62
     0
 10
173.071876
 20
-9.023102
 30
0.0
 11
164.821876
 21
-0.773102
 31
0.0
  0
LINE
  8
0
 62
     0
 10
173.071876
 20
-6.194675
 30
0.0
 11
170.177195
 21
-3.299995
 31
0.0
  0
LINE
  8
0
 62
     0
 10
169.821876
 20
-2.944675
 30
0.0
 11
164.821876
 21
2.055325
 31
0.0
  0
LINE
  8
0
 62
     0
 10
173.071876
 20
-3.366248
 30
0.0
 11
173.005622
 21
-3.299995
 31
0.0
  0
LINE
  8
0
 62
     0
 10
169.821876
 20
-0.116248
 30
0.0
 11
164.82755
 21
4.878078
 31
0.0
  0
LINE
  8
0
 62
     0
 10
169.821876
 20
2.712179
 30
0.0
 11
166.259143
 21
6.274912
 31
0.0
  0
LINE
  8
0
 62
     0
 10
169.821876
 20
5.540606
 30
0.0
 11
168.279448
 21
7.083034
 31
0.0
  0
ENDBLK
  8
0
  0
BLOCK
  8
0
  2
*X6
 70
    65
 10
0.0
 20
0.0
 30
0.0
  3
*X
  0
LINE
  8
0
 62
     0
 10
202.423265
 20
-29.507759
 30
0.0
 11
210.523265
 21
-21.407759
 31
0.0
  0
LINE
  8
0
 62
     0
 10
202.423265
 20
-26.679332
 30
0.0
 11
210.523265
 21
-18.579332
 31
0.0
  0
LINE
  8
0
 62
     0
 10
202.423265
 20
-23.850905
 30
0.0
 11
210.523265
 21
-15.750905
 31
0.0
  0
LINE
  8
0
 62
     0
 10
202.423265
 20
-21.022478
 30
0.0
 11
210.523265
 21
-12.922478
 31
0.0
  0
LINE
  8
0
 62
     0
 10
202.423265
 20
-18.194051
 30
0.0
 11
210.523265
 21
-10.094051
 31
0.0
  0
LINE
  8
0
 62
     0
 10
202.423265
 20
-15.365624
 30
0.0
 11
210.523265
 21
-7.265624
 31
0.0
  0
LINE
  8
0
 62
     0
 10
202.423265
 20
-12.537197
 30
0.0
 11
210.523265
 21
-4.437197
 31
0.0
  0
LINE
  8
0
 62
     0
 10
202.423265
 20
-9.70877
 30
0.0
 11
210.523265
 21
-1.60877
 31
0.0
  0
LINE
  8
0
 62
     0
 10
202.423265
 20
-6.880342
 30
0.0
 11
210.523265
 21
1.219658
 31
0.0
  0
LINE
  8
0
 62
     0
 10
202.423265
 20
-4.051915
 30
0.0
 11
210.523265
 21
4.048085
 31
0.0
  0
LINE
  8
0
 62
     0
 10
202.423265
 20
-1.223488
 30
0.0
 11
208.346758
 21
4.700005
 31
0.0
  0
LINE
  8
0
 62
     0
 10
202.423265
 20
1.604939
 30
0.0
 11
207.423265
 21
6.604939
 31
0.0
  0
LINE
  8
0
 62
     0
 10
202.423265
 20
4.433366
 30
0.0
 11
207.423265
 21
9.433366
 31
0.0
  0
LINE
  8
0
 62
     0
 10
202.423265
 20
7.261793
 30
0.0
 11
207.423265
 21
12.261793
 31
0.0
  0
LINE
  8
0
 62
     0
 10
202.423265
 20
10.09022
 30
0.0
 11
207.423265
 21
15.09022
 31
0.0
  0
LINE
  8
0
 62
     0
 10
202.423265
 20
12.918647
 30
0.0
 11
207.058861
 21
17.554244
 31
0.0
  0
LINE
  8
0
 62
     0
 10
202.423265
 20
-32.336187
 30
0.0
 11
210.523265
 21
-24.236187
 31
0.0
  0
LINE
  8
0
 62
     0
 10
202.605179
 20
-34.9827
 30
0.0
 11
210.523265
 21
-27.064614
 31
0.0
  0
LINE
  8
0
 62
     0
 10
202.881123
 20
-37.535183
 30
0.0
 11
210.523265
 21
-29.893041
 31
0.0
  0
LINE
  8
0
 62
     0
 10
203.157067
 20
-40.087666
 30
0.0
 11
210.523265
 21
-32.721468
 31
0.0
  0
LINE
  8
0
 62
     0
 10
203.433011
 20
-42.640149
 30
0.0
 11
210.523265
 21
-35.549895
 31
0.0
  0
LINE
  8
0
 62
     0
 10
203.708955
 20
-45.192632
 30
0.0
 11
210.523265
 21
-38.378322
 31
0.0
  0
LINE
  8
0
 62
     0
 10
203.984899
 20
-47.745115
 30
0.0
 11
210.523265
 21
-41.206749
 31
0.0
  0
LINE
  8
0
 62
     0
 10
204.260843
 20
-50.297598
 30
0.0
 11
210.523265
 21
-44.035176
 31
0.0
  0
LINE
  8
0
 62
     0
 10
204.536788
 20
-52.850081
 30
0.0
 11
210.523265
 21
-46.863604
 31
0.0
  0
LINE
  8
0
 62
     0
 10
204.812732
 20
-55.402564
 30
0.0
 11
210.523265
 21
-49.692031
 31
0.0
  0
LINE
  8
0
 62
     0
 10
205.088676
 20
-57.955047
 30
0.0
 11
210.523265
 21
-52.520458
 31
0.0
  0
LINE
  8
0
 62
     0
 10
205.36462
 20
-60.50753
 30
0.0
 11
210.523265
 21
-55.348885
 31
0.0
  0
LINE
  8
0
 62
     0
 10
205.640564
 20
-63.060013
 30
0.0
 11
210.523265
 21
-58.177312
 31
0.0
  0
LINE
  8
0
 62
     0
 10
205.916508
 20
-65.612496
 30
0.0
 11
210.523265
 21
-61.005739
 31
0.0
  0
LINE
  8
0
 62
     0
 10
206.192452
 20
-68.164979
 30
0.0
 11
210.523265
 21
-63.834166
 31
0.0
  0
LINE
  8
0
 62
     0
 10
207.0629
 20
-70.122958
 30
0.0
 11
210.523265
 21
-66.662593
 31
0.0
  0
LINE
  8
0
 62
     0
 10
209.714291
 20
-70.299995
 30
0.0
 11
210.523265
 21
-69.491021
 31
0.0
  0
LINE
  8
0
 62
     0
 10
210.523265
 20
-32.332356
 30
0.0
 11
202.423265
 21
-24.232356
 31
0.0
  0
LINE
  8
0
 62
     0
 10
210.523265
 20
-35.160783
 30
0.0
 11
202.423265
 21
-27.060783
 31
0.0
  0
LINE
  8
0
 62
     0
 10
210.523265
 20
-37.98921
 30
0.0
 11
202.423265
 21
-29.88921
 31
0.0
  0
LINE
  8
0
 62
     0
 10
210.523265
 20
-40.817637
 30
0.0
 11
202.423265
 21
-32.717637
 31
0.0
  0
LINE
  8
0
 62
     0
 10
210.523265
 20
-43.646064
 30
0.0
 11
202.695516
 21
-35.818315
 31
0.0
  0
LINE
  8
0
 62
     0
 10
210.523265
 20
-46.474492
 30
0.0
 11
203.038355
 21
-38.989582
 31
0.0
  0
LINE
  8
0
 62
     0
 10
210.523265
 20
-49.302919
 30
0.0
 11
203.381195
 21
-42.160849
 31
0.0
  0
LINE
  8
0
 62
     0
 10
210.523265
 20
-52.131346
 30
0.0
 11
203.724035
 21
-45.332116
 31
0.0
  0
LINE
  8
0
 62
     0
 10
210.523265
 20
-54.959773
 30
0.0
 11
204.066874
 21
-48.503382
 31
0.0
  0
LINE
  8
0
 62
     0
 10
210.523265
 20
-57.7882
 30
0.0
 11
204.409714
 21
-51.674649
 31
0.0
  0
LINE
  8
0
 62
     0
 10
210.523265
 20
-60.616627
 30
0.0
 11
204.752554
 21
-54.845916
 31
0.0
  0
LINE
  8
0
 62
     0
 10
210.523265
 20
-63.445054
 30
0.0
 11
205.095393
 21
-58.017183
 31
0.0
  0
LINE
  8
0
 62
     0
 10
210.523265
 20
-66.273481
 30
0.0
 11
205.438233
 21
-61.188449
 31
0.0
  0
LINE
  8
0
 62
     0
 10
210.523265
 20
-69.101909
 30
0.0
 11
205.781072
 21
-64.359716
 31
0.0
  0
LINE
  8
0
 62
     0
 10
208.892924
 20
-70.299995
 30
0.0
 11
206.123912
 21
-67.530983
 31
0.0
  0
LINE
  8
0
 62
     0
 10
210.523265
 20
-29.503929
 30
0.0
 11
202.423265
 21
-21.403929
 31
0.0
  0
LINE
  8
0
 62
     0
 10
210.523265
 20
-26.675502
 30
0.0
 11
202.423265
 21
-18.575502
 31
0.0
  0
LINE
  8
0
 62
     0
 10
210.523265
 20
-23.847075
 30
0.0
 11
202.423265
 21
-15.747075
 31
0.0
  0
LINE
  8
0
 62
     0
 10
210.523265
 20
-21.018647
 30
0.0
 11
202.423265
 21
-12.918647
 31
0.0
  0
LINE
  8
0
 62
     0
 10
210.523265
 20
-18.19022
 30
0.0
 11
202.423265
 21
-10.09022
 31
0.0
  0
LINE
  8
0
 62
     0
 10
210.523265
 20
-15.361793
 30
0.0
 11
202.423265
 21
-7.261793
 31
0.0
  0
LINE
  8
0
 62
     0
 10
210.523265
 20
-12.533366
 30
0.0
 11
202.423265
 21
-4.433366
 31
0.0
  0
LINE
  8
0
 62
     0
 10
210.523265
 20
-9.704939
 30
0.0
 11
202.423265
 21
-1.604939
 31
0.0
  0
LINE
  8
0
 62
     0
 10
210.523265
 20
-6.876512
 30
0.0
 11
202.423265
 21
1.223488
 31
0.0
  0
LINE
  8
0
 62
     0
 10
210.523265
 20
-4.048085
 30
0.0
 11
202.423265
 21
4.051915
 31
0.0
  0
LINE
  8
0
 62
     0
 10
210.523265
 20
-1.219658
 30
0.0
 11
202.423265
 21
6.880342
 31
0.0
  0
LINE
  8
0
 62
     0
 10
210.523265
 20
1.60877
 30
0.0
 11
207.432029
 21
4.700005
 31
0.0
  0
LINE
  8
0
 62
     0
 10
207.423265
 20
4.70877
 30
0.0
 11
202.423265
 21
9.70877
 31
0.0
  0
LINE
  8
0
 62
     0
 10
210.523265
 20
4.437197
 30
0.0
 11
210.260456
 21
4.700005
 31
0.0
  0
LINE
  8
0
 62
     0
 10
207.423265
 20
7.537197
 30
0.0
 11
202.423265
 21
12.537197
 31
0.0
  0
LINE
  8
0
 62
     0
 10
207.423265
 20
10.365624
 30
0.0
 11
202.535392
 21
15.253497
 31
0.0
  0
LINE
  8
0
 62
     0
 10
207.423265
 20
13.194051
 30
0.0
 11
204.204726
 21
16.41259
 31
0.0
  0
LINE
  8
0
 62
     0
 10
207.423265
 20
16.022478
 30
0.0
 11
206.225031
 21
17.220712
 31
0.0
  0
ENDBLK
  8
0
  0
BLOCK
  8
0
  2
HAND
 70
     0
 10
0.0
 20
0.0
 30
0.0
  3
HAND
  0
LINE
  8
0
 10
0.0
 20
0.0
 30
0.0
 11
9.5
 21
0.0
 31
0.0
  0
LINE
  8
0
 10
9.5
 20
0.0
 30
0.0
 11
9.5
 21
-8.0
 31
0.0
  0
LINE
  8
0
 10
4.7
 20
0.0
 30
0.0
 11
4.7
 21
-8.0
 31
0.0
  0
ARC
  8
0
 10
12.1
 20
75.052154
 30
0.0
 40
1.4
 50
0.0
 51
68.198591
  0
LINE
  8
0
 10
8.5
 20
78.0
 30
0.0
 11
12.619947
 21
76.352021
 31
0.0
  0
ARC
  8
0
 10
8.764105
 20
1.4
 30
0.0
 40
1.4
 50
270.0
 51
352.874984
  0
LINE
  8
0
 10
10.153294
 20
1.226351
 30
0.0
 11
13.5
 21
28.0
 31
0.0
  0
LINE
  8
0
 10
-8.5
 20
78.0
 30
0.0
 11
8.5
 21
78.0
 31
0.0
  0
LINE
  8
0
 10
13.5
 20
28.0
 30
0.0
 11
13.5
 21
75.052154
 31
0.0
  0
ENDBLK
  8
0
  0
ENDSEC
  0
SECTION
  2
ENTITIES
  0
ARC
  8
0
 10
142.85171
 20
78.157368
 30
0.0
 40
1.0
 50
270.0
 51
351.469234
  0
ARC
  8
0
 10
130.574085
 20
78.157368
 30
0.0
 40
1.0
 50
188.530766
 51
270.0
  0
LINE
  8
0
 10
136.712898
 20
125.657368
 30
0.0
 11
146.658592
 21
125.657368
 31
0.0
  0
ARC
  8
0
 10
145.712898
 20
125.33231
 30
0.0
 40
1.0
 50
0.0
 51
79.524318
  0
ARC
  8
0
 10
127.712898
 20
125.33231
 30
0.0
 40
1.0
 50
100.475682
 51
180.0
  0
LINE
  8
0
 10
126.712898
 20
97.157368
 30
0.0
 11
126.712898
 21
125.33231
 31
0.0
  0
LINE
  8
0
 10
129.585149
 20
78.009028
 30
0.0
 11
126.712898
 21
97.157368
 31
0.0
  0
LINE
  8
0
 10
146.712898
 20
97.157368
 30
0.0
 11
146.712898
 21
125.33231
 31
0.0
  0
LINE
  8
0
 10
143.840647
 20
78.009028
 30
0.0
 11
146.712898
 21
97.157368
 31
0.0
  0
LINE
  8
0
 10
130.574085
 20
77.157368
 30
0.0
 11
133.712898
 21
77.157368
 31
0.0
  0
LINE
  8
0
 10
133.712898
 20
119.157368
 30
0.0
 11
133.712898
 21
60.657368
 31
0.0
  0
LINE
  8
0
 10
130.962898
 20
72.157368
 30
0.0
 11
130.962898
 21
77.157368
 31
0.0
  0
LINE
  8
0
 10
142.462898
 20
72.157368
 30
0.0
 11
142.462898
 21
77.157368
 31
0.0
  0
LINE
  8
0
 10
139.612898
 20
72.157368
 30
0.0
 11
139.612898
 21
77.157368
 31
0.0
  0
LINE
  8
0
 10
131.112898
 20
125.715395
 30
0.0
 11
131.112898
 21
118.964351
 31
0.0
  0
LINE
  8
0
 10
131.112898
 20
118.964351
 30
0.0
 11
133.512898
 21
118.964351
 31
0.0
  0
LINE
  8
0
 10
133.512898
 20
118.964351
 30
0.0
 11
133.512898
 21
77.157368
 31
0.0
  0
LINE
  8
0
 10
131.712898
 20
119.157368
 30
0.0
 11
133.712898
 21
119.157368
 31
0.0
  0
LINE
  8
0
 10
136.712898
 20
125.157368
 30
0.0
 11
132.212898
 21
125.157368
 31
0.0
  0
LINE
  8
0
 10
131.712898
 20
119.157368
 30
0.0
 11
131.712898
 21
124.657368
 31
0.0
  0
ARC
  8
0
 10
130.112898
 20
125.715395
 30
0.0
 40
1.0
 50
0.0
 51
97.662256
  0
LINE
  8
0
 10
134.212898
 20
120.657368
 30
0.0
 11
134.212898
 21
125.157368
 31
0.0
  0
LINE
  8
0
 10
136.712898
 20
120.657368
 30
0.0
 11
134.212898
 21
120.657368
 31
0.0
  0
ARC
  8
0
 10
132.212898
 20
124.657368
 30
0.0
 40
0.5
 50
90.0
 51
180.0
  0
LINE
  8
0
 10
136.712898
 20
77.157368
 30
0.0
 11
142.85171
 21
77.157368
 31
0.0
  0
LINE
  8
0
 10
130.962898
 20
72.157368
 30
0.0
 11
133.712898
 21
72.157368
 31
0.0
  0
LINE
  8
0
 10
129.979564
 20
126.706466
 30
0.0
 11
143.446231
 21
126.706466
 31
0.0
  0
LINE
  8
0
 10
197.327706
 20
77.157368
 30
0.0
 11
200.577706
 21
77.157368
 31
0.0
  0
LINE
  8
0
 10
212.631004
 20
78.17936
 30
0.0
 11
216.077706
 21
101.157368
 31
0.0
  0
LINE
  8
0
 10
216.077706
 20
101.157368
 30
0.0
 11
216.077706
 21
134.967299
 31
0.0
  0
LINE
  8
0
 10
196.524407
 20
78.17936
 30
0.0
 11
193.077706
 21
101.157368
 31
0.0
  0
LINE
  8
0
 10
193.077706
 20
101.157368
 30
0.0
 11
193.077706
 21
134.967299
 31
0.0
  0
ARC
  8
0
 10
194.277706
 20
134.967299
 30
0.0
 40
1.2
 50
100.475682
 51
180.0
  0
ARC
  8
0
 10
214.877706
 20
134.967299
 30
0.0
 40
1.2
 50
0.0
 51
79.524318
  0
LINE
  8
0
 10
204.577706
 20
135.357368
 30
0.0
 11
216.012538
 21
135.357368
 31
0.0
  0
ARC
  8
0
 10
197.71113
 20
78.357368
 30
0.0
 40
1.2
 50
188.530766
 51
270.0
  0
ARC
  8
0
 10
211.444281
 20
78.357368
 30
0.0
 40
1.2
 50
270.0
 51
351.469234
  0
LINE
  8
0
 10
167.03623
 20
77.157368
 30
0.0
 11
174.28623
 21
77.157368
 31
0.0
  0
ARC
  8
0
 10
161.03623
 20
125.657368
 30
0.0
 40
0.5
 50
90.0
 51
180.0
  0
LINE
  8
0
 10
167.03623
 20
120.657368
 30
0.0
 11
164.03623
 21
120.657368
 31
0.0
  0
LINE
  8
0
 10
160.53623
 20
118.157368
 30
0.0
 11
160.53623
 21
125.657368
 31
0.0
  0
LINE
  8
0
 10
167.03623
 20
126.157368
 30
0.0
 11
161.03623
 21
126.157368
 31
0.0
  0
LINE
  8
0
 10
160.53623
 20
118.157368
 30
0.0
 11
163.03623
 21
118.157368
 31
0.0
  0
LINE
  8
0
 10
162.83623
 20
117.964351
 30
0.0
 11
162.83623
 21
77.157368
 31
0.0
  0
LINE
  8
0
 10
160.03623
 20
117.964351
 30
0.0
 11
162.83623
 21
117.964351
 31
0.0
  0
LINE
  8
0
 10
160.03623
 20
126.091668
 30
0.0
 11
160.03623
 21
117.964351
 31
0.0
  0
LINE
  8
0
 10
163.03623
 20
118.157368
 30
0.0
 11
163.03623
 21
59.257368
 31
0.0
  0
LINE
  8
0
 10
159.78623
 20
77.157368
 30
0.0
 11
163.03623
 21
77.157368
 31
0.0
  0
LINE
  8
0
 10
174.163979
 20
78.009028
 30
0.0
 11
177.03623
 21
97.157368
 31
0.0
  0
LINE
  8
0
 10
177.03623
 20
97.157368
 30
0.0
 11
177.03623
 21
125.33231
 31
0.0
  0
LINE
  8
0
 10
157.03623
 20
97.157368
 30
0.0
 11
157.03623
 21
125.332311
 31
0.0
  0
ARC
  8
0
 10
176.03623
 20
125.33231
 30
0.0
 40
1.0
 50
0.0
 51
79.524318
  0
LINE
  8
0
 10
167.03623
 20
125.657368
 30
0.0
 11
176.981924
 21
125.657368
 31
0.0
  0
ARC
  8
0
 10
173.175043
 20
78.157368
 30
0.0
 40
1.0
 50
270.0
 51
351.469234
  0
ARC
  8
0
 10
160.897418
 20
78.157368
 30
0.0
 40
1.0
 50
188.530766
 51
270.0
  0
LINE
  8
0
 10
159.908481
 20
78.009028
 30
0.0
 11
157.03623
 21
97.157368
 31
0.0
  0
LINE
  8
0
 10
164.03623
 20
120.657368
 30
0.0
 11
164.03623
 21
126.157368
 31
0.0
  0
ARC
  8
0
 10
158.03623
 20
125.33231
 30
0.0
 40
1.0
 50
100.475682
 51
180.0
  0
ARC
  8
0
 10
159.53623
 20
126.091668
 30
0.0
 40
0.5
 50
0.0
 51
98.626927
  0
LINE
  8
0
 10
159.46123
 20
126.586011
 30
0.0
 11
174.61123
 21
126.586011
 31
0.0
  0
LINE
  8
0
 10
159.78623
 20
70.657368
 30
0.0
 11
159.78623
 21
77.157368
 31
0.0
  0
LINE
  8
0
 10
174.28623
 20
70.657368
 30
0.0
 11
174.28623
 21
77.157368
 31
0.0
  0
LINE
  8
0
 10
159.78623
 20
70.657368
 30
0.0
 11
163.03623
 21
70.657368
 31
0.0
  0
ARC
  8
0
 10
197.077706
 20
136.141423
 30
0.0
 40
0.5
 50
0.0
 51
97.87066
  0
LINE
  8
0
 10
197.009237
 20
136.636713
 30
0.0
 11
212.146174
 21
136.636713
 31
0.0
  0
ARC
  8
0
 10
198.577706
 20
135.70807
 30
0.0
 40
0.5
 50
90.0
 51
180.0
  0
LINE
  8
0
 10
204.577706
 20
130.70807
 30
0.0
 11
201.577706
 21
130.70807
 31
0.0
  0
LINE
  8
0
 10
198.077706
 20
128.20807
 30
0.0
 11
198.077706
 21
135.70807
 31
0.0
  0
LINE
  8
0
 10
204.577706
 20
136.20807
 30
0.0
 11
198.577706
 21
136.20807
 31
0.0
  0
LINE
  8
0
 10
198.077706
 20
128.20807
 30
0.0
 11
200.577706
 21
128.20807
 31
0.0
  0
LINE
  8
0
 10
197.577706
 20
128.015053
 30
0.0
 11
200.377706
 21
128.015053
 31
0.0
  0
LINE
  8
0
 10
197.577706
 20
136.14237
 30
0.0
 11
197.577706
 21
128.015053
 31
0.0
  0
LINE
  8
0
 10
201.577706
 20
130.70807
 30
0.0
 11
201.577706
 21
136.20807
 31
0.0
  0
LINE
  8
0
 10
200.377706
 20
128.015053
 30
0.0
 11
200.377706
 21
77.157368
 31
0.0
  0
LINE
  8
0
 10
200.577706
 20
128.20807
 30
0.0
 11
200.577706
 21
59.257368
 31
0.0
  0
LINE
  8
0
 10
211.827706
 20
70.657368
 30
0.0
 11
211.827706
 21
77.157368
 31
0.0
  0
LINE
  8
0
 10
197.327706
 20
70.657368
 30
0.0
 11
197.327706
 21
77.157368
 31
0.0
  0
LINE
  8
0
 10
204.577706
 20
77.157368
 30
0.0
 11
211.827706
 21
77.157368
 31
0.0
  0
LINE
  8
0
 10
197.327706
 20
70.657368
 30
0.0
 11
200.577706
 21
70.657368
 31
0.0
  0
LINE
  8
0
 10
208.341241
 20
70.657368
 30
0.0
 11
208.341241
 21
77.157368
 31
0.0
  0
LINE
  8
0
 10
170.789849
 20
70.657368
 30
0.0
 11
170.789849
 21
77.157368
 31
0.0
  0
LINE
  8
0
 10
246.82472
 20
77.157368
 30
0.0
 11
254.419113
 21
77.157368
 31
0.0
  0
ARC
  8
0
 10
291.764585
 20
78.55736
 30
0.0
 40
1.399992
 50
270.0
 51
351.469234
  0
ARC
  8
0
 10
276.5758
 20
78.55736
 30
0.0
 40
1.399992
 50
188.530766
 51
270.0
  0
LINE
  8
0
 10
284.170192
 20
145.05698
 30
0.0
 11
296.594188
 21
145.05698
 31
0.0
  0
ARC
  8
0
 10
295.270224
 20
144.601902
 30
0.0
 40
1.399992
 50
0.0
 51
79.524318
  0
ARC
  8
0
 10
273.07016
 20
144.601902
 30
0.0
 40
1.399992
 50
100.475682
 51
180.0
  0
LINE
  8
0
 10
271.670168
 20
105.157208
 30
0.0
 11
271.670168
 21
144.601902
 31
0.0
  0
LINE
  8
0
 10
275.191297
 20
78.349685
 30
0.0
 11
271.670168
 21
105.157208
 31
0.0
  0
LINE
  8
0
 10
296.670216
 20
105.157208
 30
0.0
 11
296.670216
 21
144.601902
 31
0.0
  0
LINE
  8
0
 10
293.149088
 20
78.349685
 30
0.0
 11
296.670216
 21
105.157208
 31
0.0
  0
LINE
  8
0
 10
274.670192
 20
77.157368
 30
0.0
 11
279.170192
 21
77.157368
 31
0.0
  0
LINE
  8
0
 10
279.170192
 20
55.907368
 30
0.0
 11
279.170192
 21
136.207891
 31
0.0
  0
ARC
  8
0
 10
254.419113
 20
78.55736
 30
0.0
 40
1.399992
 50
270.0
 51
351.469234
  0
ARC
  8
0
 10
239.230328
 20
78.55736
 30
0.0
 40
1.399992
 50
188.530766
 51
270.0
  0
LINE
  8
0
 10
246.82472
 20
145.05698
 30
0.0
 11
259.248716
 21
145.05698
 31
0.0
  0
ARC
  8
0
 10
257.924752
 20
144.601902
 30
0.0
 40
1.399992
 50
0.0
 51
79.524318
  0
ARC
  8
0
 10
235.724688
 20
144.601902
 30
0.0
 40
1.399992
 50
100.475682
 51
180.0
  0
LINE
  8
0
 10
234.324696
 20
105.157208
 30
0.0
 11
234.324696
 21
144.601902
 31
0.0
  0
LINE
  8
0
 10
237.845825
 20
78.349685
 30
0.0
 11
234.324696
 21
105.157208
 31
0.0
  0
LINE
  8
0
 10
259.324744
 20
105.157208
 30
0.0
 11
259.324744
 21
144.601902
 31
0.0
  0
LINE
  8
0
 10
255.803616
 20
78.349685
 30
0.0
 11
259.324744
 21
105.157208
 31
0.0
  0
LINE
  8
0
 10
239.230328
 20
77.157368
 30
0.0
 11
242.82472
 21
77.157368
 31
0.0
  0
LINE
  8
0
 10
250.588255
 20
70.657368
 30
0.0
 11
250.588255
 21
77.157368
 31
0.0
  0
LINE
  8
0
 10
239.57472
 20
70.657368
 30
0.0
 11
242.82472
 21
70.657368
 31
0.0
  0
LINE
  8
0
 10
239.57472
 20
70.657368
 30
0.0
 11
239.57472
 21
77.157368
 31
0.0
  0
LINE
  8
0
 10
254.07472
 20
70.657368
 30
0.0
 11
254.07472
 21
77.157368
 31
0.0
  0
LINE
  8
0
 10
242.82472
 20
138.207891
 30
0.0
 11
242.82472
 21
57.257368
 31
0.0
  0
LINE
  8
0
 10
242.62472
 20
138.014873
 30
0.0
 11
242.62472
 21
77.157368
 31
0.0
  0
LINE
  8
0
 10
243.82472
 20
140.707891
 30
0.0
 11
243.82472
 21
146.207891
 31
0.0
  0
LINE
  8
0
 10
239.82472
 20
146.14219
 30
0.0
 11
239.82472
 21
138.014873
 31
0.0
  0
LINE
  8
0
 10
239.82472
 20
138.014873
 30
0.0
 11
242.62472
 21
138.014873
 31
0.0
  0
LINE
  8
0
 10
240.32472
 20
138.207891
 30
0.0
 11
242.82472
 21
138.207891
 31
0.0
  0
LINE
  8
0
 10
246.82472
 20
146.207891
 30
0.0
 11
240.82472
 21
146.207891
 31
0.0
  0
LINE
  8
0
 10
240.32472
 20
138.207891
 30
0.0
 11
240.32472
 21
145.707891
 31
0.0
  0
LINE
  8
0
 10
246.82472
 20
140.707891
 30
0.0
 11
243.82472
 21
140.707891
 31
0.0
  0
ARC
  8
0
 10
240.82472
 20
145.707891
 30
0.0
 40
0.5
 50
90.0
 51
180.0
  0
ARC
  8
0
 10
239.32472
 20
146.141244
 30
0.0
 40
0.5
 50
0.0
 51
97.87066
  0
LINE
  8
0
 10
239.256252
 20
146.636533
 30
0.0
 11
254.393189
 21
146.636533
 31
0.0
  0
LINE
  8
0
 10
276.170192
 20
136.207891
 30
0.0
 11
279.170192
 21
136.207891
 31
0.0
  0
LINE
  8
0
 10
275.670192
 20
136.014873
 30
0.0
 11
278.870192
 21
136.014873
 31
0.0
  0
LINE
  8
0
 10
276.170192
 20
136.207891
 30
0.0
 11
276.170192
 21
143.207891
 31
0.0
  0
LINE
  8
0
 10
277.170192
 20
144.207891
 30
0.0
 11
284.170192
 21
144.207891
 31
0.0
  0
LINE
  8
0
 10
275.670192
 20
136.014873
 30
0.0
 11
275.670192
 21
145.912766
 31
0.0
  0
ARC
  8
0
 10
275.170192
 20
145.912766
 30
0.0
 40
0.5
 50
0.0
 51
99.45397
  0
LINE
  8
0
 10
275.088065
 20
146.405975
 30
0.0
 11
293.25232
 21
146.405975
 31
0.0
  0
ARC
  8
0
 10
277.170192
 20
143.207891
 30
0.0
 40
1.0
 50
90.0
 51
180.0
  0
LINE
  8
0
 10
280.170192
 20
140.207891
 30
0.0
 11
280.170192
 21
144.207891
 31
0.0
  0
LINE
  8
0
 10
280.170192
 20
140.207891
 30
0.0
 11
284.170192
 21
140.207891
 31
0.0
  0
LINE
  8
0
 10
278.870192
 20
77.157368
 30
0.0
 11
278.870192
 21
136.014873
 31
0.0
  0
LINE
  8
0
 10
284.170192
 20
77.157368
 30
0.0
 11
284.170192
 21
69.157368
 31
0.0
  0
LINE
  8
0
 10
274.670192
 20
77.157368
 30
0.0
 11
274.670192
 21
69.157368
 31
0.0
  0
LINE
  8
0
 10
293.670192
 20
77.157368
 30
0.0
 11
293.670192
 21
69.157368
 31
0.0
  0
LINE
  8
0
 10
288.870192
 20
77.157368
 30
0.0
 11
288.870192
 21
69.157368
 31
0.0
  0
LINE
  8
0
 10
293.670192
 20
69.157368
 30
0.0
 11
284.170192
 21
69.157368
 31
0.0
  0
LINE
  8
0
 10
284.170192
 20
77.157368
 30
0.0
 11
293.670192
 21
77.157368
 31
0.0
  0
CIRCLE
  8
0
 10
167.03623
 20
33.982924
 30
0.0
 40
10.0
  0
CIRCLE
  8
0
 10
167.03623
 20
33.982924
 30
0.0
 40
7.0
  0
CIRCLE
  8
0
 10
167.03623
 20
33.982924
 30
0.0
 40
6.5
  0
POLYLINE
  8
0
 66
     1
 10
0.0
 20
0.0
 30
0.0
 70
     1
  0
VERTEX
  8
0
 10
165.30418
 20
36.982924
 30
0.0
  0
VERTEX
  8
0
 10
163.572129
 20
33.982924
 30
0.0
  0
VERTEX
  8
0
 10
165.30418
 20
30.982924
 30
0.0
  0
VERTEX
  8
0
 10
168.768281
 20
30.982924
 30
0.0
  0
VERTEX
  8
0
 10
170.500332
 20
33.982924
 30
0.0
  0
VERTEX
  8
0
 10
168.768281
 20
36.982924
 30
0.0
  0
SEQEND
  8
0
  0
CIRCLE
  8
0
 10
204.577706
 20
33.982924
 30
0.0
 40
11.5
  0
CIRCLE
  8
0
 10
204.577706
 20
33.982924
 30
0.0
 40
7.0
  0
CIRCLE
  8
0
 10
204.577706
 20
33.982924
 30
0.0
 40
6.5
  0
POLYLINE
  8
0
 66
     1
 10
0.0
 20
0.0
 30
0.0
 70
     1
  0
VERTEX
  8
0
 10
202.845655
 20
36.982924
 30
0.0
  0
VERTEX
  8
0
 10
201.113604
 20
33.982924
 30
0.0
  0
VERTEX
  8
0
 10
202.845655
 20
30.982924
 30
0.0
  0
VERTEX
  8
0
 10
206.309756
 20
30.982924
 30
0.0
  0
VERTEX
  8
0
 10
208.041807
 20
33.982924
 30
0.0
  0
VERTEX
  8
0
 10
206.309756
 20
36.982924
 30
0.0
  0
SEQEND
  8
0
  0
CIRCLE
  8
0
 10
284.170192
 20
32.882157
 30
0.0
 40
12.500024
  0
CIRCLE
  8
0
 10
284.170192
 20
32.882157
 30
0.0
 40
8.5
  0
CIRCLE
  8
0
 10
284.170192
 20
32.882157
 30
0.0
 40
8.0
  0
POLYLINE
  8
0
 66
     1
 10
0.0
 20
0.0
 30
0.0
 70
     1
  0
VERTEX
  8
0
 10
281.860791
 20
36.882157
 30
0.0
  0
VERTEX
  8
0
 10
279.55139
 20
32.882157
 30
0.0
  0
VERTEX
  8
0
 10
281.860791
 20
28.882157
 30
0.0
  0
VERTEX
  8
0
 10
286.479593
 20
28.882157
 30
0.0
  0
VERTEX
  8
0
 10
288.788994
 20
32.882157
 30
0.0
  0
VERTEX
  8
0
 10
286.479593
 20
36.882157
 30
0.0
  0
SEQEND
  8
0
  0
LINE
  8
0
  6
CENTER
 10
136.712898
 20
57.962661
 30
0.0
 11
136.712898
 21
129.003796
 31
0.0
  0
LINE
  8
0
  6
CENTER
 10
167.03623
 20
56.550725
 30
0.0
 11
167.03623
 21
129.003796
 31
0.0
  0
LINE
  8
0
  6

 10
246.82472
 20
54.153303
 30
0.0
 11
246.82472
 21
54.828793
 31
0.0
  0
LINE
  8
0
  6
CENTER
 10
284.170192
 20
52.465724
 30
0.0
 11
284.170192
 21
150.701051
 31
0.0
  0
LINE
  8
0
  6
CENTER
 10
204.577706
 20
57.610832
 30
0.0
 11
204.577706
 21
139.154315
 31
0.0
  0
LINE
  8
0
  6
CENTER
 10
246.82472
 20
54.828793
 30
0.0
 11
246.82472
 21
150.701051
 31
0.0
  0
LINE
  8
0
 10
127.531079
 20
126.315642
 30
0.0
 11
129.979564
 21
126.706466
 31
0.0
  0
LINE
  8
0
 10
143.446231
 20
126.706466
 30
0.0
 11
145.894716
 21
126.315642
 31
0.0
  0
LINE
  8
0
 10
157.854412
 20
126.315642
 30
0.0
 11
159.46123
 21
126.586011
 31
0.0
  0
LINE
  8
0
 10
174.61123
 20
126.586011
 30
0.0
 11
176.218049
 21
126.315642
 31
0.0
  0
LINE
  8
0
 10
194.059524
 20
136.147297
 30
0.0
 11
197.009237
 21
136.636713
 31
0.0
  0
LINE
  8
0
 10
212.146174
 20
136.636713
 30
0.0
 11
215.095887
 21
136.147297
 31
0.0
  0
LINE
  8
0
 10
239.256252
 20
146.636533
 30
0.0
 11
235.470144
 21
145.978559
 31
0.0
  0
LINE
  8
0
 10
254.393189
 20
146.636533
 30
0.0
 11
258.179296
 21
145.978559
 31
0.0
  0
LINE
  8
0
 10
275.088065
 20
146.405975
 30
0.0
 11
272.815616
 21
145.978559
 31
0.0
  0
LINE
  8
0
 10
293.25232
 20
146.405975
 30
0.0
 11
295.524768
 21
145.978559
 31
0.0
  0
POLYLINE
  8
0
 66
     1
 10
0.0
 20
0.0
 30
0.0
 70
     1
  0
VERTEX
  8
0
 10
134.980847
 20
36.982924
 30
0.0
  0
VERTEX
  8
0
 10
133.248796
 20
33.982924
 30
0.0
  0
VERTEX
  8
0
 10
134.980847
 20
30.982924
 30
0.0
  0
VERTEX
  8
0
 10
138.444948
 20
30.982924
 30
0.0
  0
VERTEX
  8
0
 10
140.176999
 20
33.982924
 30
0.0
  0
VERTEX
  8
0
 10
138.444948
 20
36.982924
 30
0.0
  0
SEQEND
  8
0
  0
CIRCLE
  8
0
 10
136.712898
 20
33.982924
 30
0.0
 40
10.0
  0
POLYLINE
  8
0
 66
     1
 10
0.0
 20
0.0
 30
0.0
 70
     1
  0
VERTEX
  8
0
 10
244.515319
 20
36.882157
 30
0.0
  0
VERTEX
  8
0
 10
242.205918
 20
32.882157
 30
0.0
  0
VERTEX
  8
0
 10
244.515319
 20
28.882157
 30
0.0
  0
VERTEX
  8
0
 10
249.134121
 20
28.882157
 30
0.0
  0
VERTEX
  8
0
 10
251.443522
 20
32.882157
 30
0.0
  0
VERTEX
  8
0
 10
249.134121
 20
36.882157
 30
0.0
  0
SEQEND
  8
0
  0
CIRCLE
  8
0
 10
246.82472
 20
32.882157
 30
0.0
 40
12.500024
  0
INSERT
  8
0
  2
*X0
 10
161.164553
 20
132.28742
 30
0.0
  0
INSERT
  8
0
  2
*X1
 10
161.164553
 20
132.28742
 30
0.0
  0
INSERT
  8
0
  2
*X2
 10
41.16355
 20
0.0
 30
0.0
  0
INSERT
  8
0
  2
*X3
 10
41.16355
 20
0.0
 30
0.0
  0
INSERT
  8
0
  2
*X4
 10
-0.389954
 20
10.615555
 30
0.0
  0
CIRCLE
  8
0
 10
324.65846
 20
28.003698
 30
0.0
 40
13.5
  0
LINE
  8
0
 10
311.15846
 20
105.157368
 30
0.0
 11
311.15846
 21
152.209522
 31
0.0
  0
LINE
  8
0
 10
315.15846
 20
77.157368
 30
0.0
 11
319.65846
 21
77.157368
 31
0.0
  0
LINE
  8
0
  6
CENTER
 10
324.65846
 20
50.12184
 30
0.0
 11
324.65846
 21
158.423451
 31
0.0
  0
LINE
  8
0
 10
314.505166
 20
78.383719
 30
0.0
 11
311.15846
 21
105.157368
 31
0.0
  0
ARC
  8
0
 10
315.894355
 20
78.557368
 30
0.0
 40
1.4
 50
187.125016
 51
270.0
  0
LINE
  8
0
 10
316.15846
 20
144.157368
 30
0.0
 11
316.15846
 21
155.157368
 31
0.0
  0
LINE
  8
0
 10
316.15846
 20
155.157368
 30
0.0
 11
312.038513
 21
153.509389
 31
0.0
  0
ARC
  8
0
 10
312.55846
 20
152.209522
 30
0.0
 40
1.4
 50
111.801409
 51
180.0
  0
LINE
  8
0
 10
316.15846
 20
144.157368
 30
0.0
 11
319.40846
 21
144.157368
 31
0.0
  0
LINE
  8
0
 10
319.40846
 20
77.157368
 30
0.0
 11
319.40846
 21
144.157368
 31
0.0
  0
LINE
  8
0
 10
319.65846
 20
53.907368
 30
0.0
 11
319.65846
 21
144.657368
 31
0.0
  0
LINE
  8
0
 10
316.65846
 20
144.657368
 30
0.0
 11
319.65846
 21
144.657368
 31
0.0
  0
LINE
  8
0
 10
316.65846
 20
144.657368
 30
0.0
 11
316.65846
 21
153.407368
 31
0.0
  0
LINE
  8
0
 10
317.90846
 20
154.657368
 30
0.0
 11
324.65846
 21
154.657368
 31
0.0
  0
ARC
  8
0
 10
317.90846
 20
153.407368
 30
0.0
 40
1.25
 50
90.0
 51
180.0
  0
LINE
  8
0
 10
320.65846
 20
148.657368
 30
0.0
 11
320.65846
 21
154.657368
 31
0.0
  0
LINE
  8
0
 10
320.65846
 20
148.657368
 30
0.0
 11
324.65846
 21
148.657368
 31
0.0
  0
LINE
  8
0
 10
315.15846
 20
77.157368
 30
0.0
 11
315.15846
 21
69.157368
 31
0.0
  0
LINE
  8
0
 10
334.15846
 20
69.157368
 30
0.0
 11
324.65846
 21
69.157368
 31
0.0
  0
INSERT
  8
0
  2
*X5
 10
146.336585
 20
147.457363
 30
0.0
  0
CIRCLE
  8
0
 10
368.84857
 20
25.229849
 30
0.0
 40
14.5
  0
LINE
  8
0
 10
354.34857
 20
114.157368
 30
0.0
 11
354.34857
 21
162.141819
 31
0.0
  0
LINE
  8
0
 10
383.34857
 20
114.157368
 30
0.0
 11
383.34857
 21
162.141819
 31
0.0
  0
LINE
  8
0
 10
358.34857
 20
77.157368
 30
0.0
 11
362.84857
 21
77.157368
 31
0.0
  0
LINE
  8
0
 10
359.34857
 20
165.157368
 30
0.0
 11
378.34857
 21
165.157368
 31
0.0
  0
LINE
  8
0
  6
CENTER
 10
368.84857
 20
167.666303
 30
0.0
 11
368.84857
 21
49.375727
 31
0.0
  0
LINE
  8
0
 10
359.34857
 20
165.157368
 30
0.0
 11
359.34857
 21
152.157368
 31
0.0
  0
LINE
  8
0
 10
359.34857
 20
152.157368
 30
0.0
 11
362.44857
 21
152.157368
 31
0.0
  0
LINE
  8
0
 10
355.291484
 20
163.534534
 30
0.0
 11
359.34857
 21
165.157368
 31
0.0
  0
LINE
  8
0
 10
358.203837
 20
78.496145
 30
0.0
 11
354.34857
 21
114.157368
 31
0.0
  0
LINE
  8
0
 10
379.493303
 20
78.496145
 30
0.0
 11
383.34857
 21
114.157368
 31
0.0
  0
LINE
  8
0
 10
382.405656
 20
163.534534
 30
0.0
 11
378.34857
 21
165.157368
 31
0.0
  0
LINE
  8
0
 10
383.34857
 20
162.311077
 30
0.0
 11
368.84857
 21
162.311077
 31
0.0
  0
LINE
  8
0
 10
362.44857
 20
152.157368
 30
0.0
 11
362.44857
 21
77.157368
 31
0.0
  0
LINE
  8
0
 10
362.84857
 20
152.657368
 30
0.0
 11
362.84857
 21
55.057368
 31
0.0
  0
LINE
  8
0
 10
359.84857
 20
163.407368
 30
0.0
 11
359.84857
 21
152.657368
 31
0.0
  0
LINE
  8
0
 10
359.84857
 20
152.657368
 30
0.0
 11
362.84857
 21
152.657368
 31
0.0
  0
LINE
  8
0
 10
361.09857
 20
164.657368
 30
0.0
 11
368.84857
 21
164.657368
 31
0.0
  0
ARC
  8
0
 10
361.09857
 20
163.407368
 30
0.0
 40
1.25
 50
90.0
 51
180.0
  0
ARC
  8
0
 10
355.84857
 20
162.141819
 30
0.0
 40
1.5
 50
111.801409
 51
180.0
  0
ARC
  8
0
 10
381.84857
 20
162.141819
 30
0.0
 40
1.5
 50
0.0
 51
68.198591
  0
ARC
  8
0
 10
359.695148
 20
78.657368
 30
0.0
 40
1.5
 50
186.170175
 51
270.0
  0
ARC
  8
0
 10
378.001992
 20
78.657368
 30
0.0
 40
1.5
 50
270.0
 51
353.829825
  0
LINE
  8
0
 10
358.34857
 20
70.157368
 30
0.0
 11
362.84857
 21
70.157368
 31
0.0
  0
LINE
  8
0
 10
358.34857
 20
77.157368
 30
0.0
 11
358.34857
 21
70.157368
 31
0.0
  0
LINE
  8
0
 10
379.34857
 20
77.157368
 30
0.0
 11
379.34857
 21
70.157368
 31
0.0
  0
LINE
  8
0
 10
368.84857
 20
77.157368
 30
0.0
 11
379.34857
 21
77.157368
 31
0.0
  0
LINE
  8
0
 10
374.34857
 20
77.157368
 30
0.0
 11
374.34857
 21
70.157368
 31
0.0
  0
INSERT
  8
0
  2
*X6
 10
151.925305
 20
147.457363
 30
0.0
  0
POLYLINE
  8
0
 66
     1
 10
0.0
 20
0.0
 30
0.0
 70
     1
  0
VERTEX
  8
0
 10
322.349059
 20
32.003698
 30
0.0
  0
VERTEX
  8
0
 10
320.039658
 20
28.003698
 30
0.0
  0
VERTEX
  8
0
 10
322.349059
 20
24.003698
 30
0.0
  0
VERTEX
  8
0
 10
326.967861
 20
24.003698
 30
0.0
  0
VERTEX
  8
0
 10
329.277262
 20
28.003698
 30
0.0
  0
VERTEX
  8
0
 10
326.967861
 20
32.003698
 30
0.0
  0
SEQEND
  8
0
  0
CIRCLE
  8
0
 10
324.65846
 20
28.003698
 30
0.0
 40
8.0
  0
CIRCLE
  8
0
 10
324.65846
 20
28.003698
 30
0.0
 40
8.5
  0
LINE
  8
0
 10
363.84857
 20
157.657368
 30
0.0
 11
368.84857
 21
157.657368
 31
0.0
  0
LINE
  8
0
 10
363.84857
 20
157.657368
 30
0.0
 11
363.84857
 21
164.657368
 31
0.0
  0
CIRCLE
  8
0
 10
368.84857
 20
25.229849
 30
0.0
 40
9.0
  0
CIRCLE
  8
0
 10
368.84857
 20
25.229849
 30
0.0
 40
9.5
  0
POLYLINE
  8
0
 66
     1
 10
0.0
 20
0.0
 30
0.0
 70
     1
  0
VERTEX
  8
0
 10
365.961819
 20
30.229849
 30
0.0
  0
VERTEX
  8
0
 10
363.075067
 20
25.229849
 30
0.0
  0
VERTEX
  8
0
 10
365.961819
 20
20.229849
 30
0.0
  0
VERTEX
  8
0
 10
371.735321
 20
20.229849
 30
0.0
  0
VERTEX
  8
0
 10
374.622073
 20
25.229849
 30
0.0
  0
VERTEX
  8
0
 10
371.735321
 20
30.229849
 30
0.0
  0
SEQEND
  8
0
  0
LINE
  8
0
 10
139.712898
 20
72.157368
 30
0.0
 11
139.712898
 21
60.657368
 31
0.0
  0
LINE
  8
0
 10
134.212898
 20
60.157368
 30
0.0
 11
139.212898
 21
60.157368
 31
0.0
  0
LINE
  8
0
 10
134.212898
 20
60.157368
 30
0.0
 11
134.212898
 21
90.157368
 31
0.0
  0
LINE
  8
0
 10
139.212898
 20
60.157368
 30
0.0
 11
139.212898
 21
72.157368
 31
0.0
  0
LINE
  8
0
 10
134.212898
 20
60.157368
 30
0.0
 11
133.712898
 21
60.657368
 31
0.0
  0
LINE
  8
0
 10
139.212898
 20
60.157368
 30
0.0
 11
139.712898
 21
60.657368
 31
0.0
  0
LINE
  8
0
 10
133.712898
 20
90.157368
 30
0.0
 11
134.212898
 21
90.157368
 31
0.0
  0
LINE
  8
0
 10
136.712898
 20
72.157368
 30
0.0
 11
142.462898
 21
72.157368
 31
0.0
  0
LINE
  8
0
 10
163.63623
 20
58.657368
 30
0.0
 11
170.43623
 21
58.657368
 31
0.0
  0
LINE
  8
0
 10
171.03623
 20
59.257368
 30
0.0
 11
171.03623
 21
70.657368
 31
0.0
  0
LINE
  8
0
 10
163.63623
 20
58.657368
 30
0.0
 11
163.63623
 21
88.657368
 31
0.0
  0
LINE
  8
0
 10
170.43623
 20
58.657368
 30
0.0
 11
170.43623
 21
70.657368
 31
0.0
  0
LINE
  8
0
 10
163.63623
 20
58.657368
 30
0.0
 11
163.03623
 21
59.257368
 31
0.0
  0
LINE
  8
0
 10
170.43623
 20
58.657368
 30
0.0
 11
171.03623
 21
59.257368
 31
0.0
  0
LINE
  8
0
 10
167.03623
 20
70.657368
 30
0.0
 11
174.28623
 21
70.657368
 31
0.0
  0
LINE
  8
0
 10
163.03623
 20
88.657368
 30
0.0
 11
163.63623
 21
88.657368
 31
0.0
  0
LINE
  8
0
 10
207.977706
 20
58.657368
 30
0.0
 11
208.577706
 21
59.257368
 31
0.0
  0
LINE
  8
0
 10
201.177706
 20
58.657368
 30
0.0
 11
200.577706
 21
59.257368
 31
0.0
  0
LINE
  8
0
 10
207.977706
 20
58.657368
 30
0.0
 11
207.977706
 21
70.657368
 31
0.0
  0
LINE
  8
0
 10
201.177706
 20
58.657368
 30
0.0
 11
201.177706
 21
88.657368
 31
0.0
  0
LINE
  8
0
 10
208.577706
 20
59.257368
 30
0.0
 11
208.577706
 21
70.657368
 31
0.0
  0
LINE
  8
0
 10
201.177706
 20
58.657368
 30
0.0
 11
207.977706
 21
58.657368
 31
0.0
  0
LINE
  8
0
 10
204.577706
 20
70.657368
 30
0.0
 11
211.827706
 21
70.657368
 31
0.0
  0
LINE
  8
0
 10
201.177706
 20
88.657368
 30
0.0
 11
200.577706
 21
88.657368
 31
0.0
  0
LINE
  8
0
 10
243.42472
 20
56.657368
 30
0.0
 11
250.22472
 21
56.657368
 31
0.0
  0
LINE
  8
0
 10
250.82472
 20
57.257368
 30
0.0
 11
250.82472
 21
70.657368
 31
0.0
  0
LINE
  8
0
 10
243.42472
 20
56.657368
 30
0.0
 11
243.42472
 21
88.657368
 31
0.0
  0
LINE
  8
0
 10
250.22472
 20
56.657368
 30
0.0
 11
250.22472
 21
70.657368
 31
0.0
  0
LINE
  8
0
 10
243.42472
 20
56.657368
 30
0.0
 11
242.82472
 21
57.257368
 31
0.0
  0
LINE
  8
0
 10
250.22472
 20
56.657368
 30
0.0
 11
250.82472
 21
57.257368
 31
0.0
  0
LINE
  8
0
 10
246.82472
 20
70.657368
 30
0.0
 11
254.07472
 21
70.657368
 31
0.0
  0
LINE
  8
0
 10
243.42472
 20
88.657368
 30
0.0
 11
242.82472
 21
88.657368
 31
0.0
  0
LINE
  8
0
 10
288.420192
 20
55.157368
 30
0.0
 11
279.920192
 21
55.157368
 31
0.0
  0
LINE
  8
0
 10
289.170192
 20
55.907368
 30
0.0
 11
289.170192
 21
69.157368
 31
0.0
  0
LINE
  8
0
 10
279.920192
 20
55.157368
 30
0.0
 11
279.920192
 21
85.157368
 31
0.0
  0
LINE
  8
0
 10
288.420192
 20
55.157368
 30
0.0
 11
288.420192
 21
69.157368
 31
0.0
  0
LINE
  8
0
 10
279.920192
 20
55.157368
 30
0.0
 11
279.170192
 21
55.907368
 31
0.0
  0
LINE
  8
0
 10
288.420192
 20
55.157368
 30
0.0
 11
289.170192
 21
55.907368
 31
0.0
  0
LINE
  8
0
 10
279.170192
 20
69.157368
 30
0.0
 11
274.670192
 21
69.157368
 31
0.0
  0
LINE
  8
0
 10
279.920192
 20
85.157368
 30
0.0
 11
279.170192
 21
85.157368
 31
0.0
  0
LINE
  8
0
 10
328.90846
 20
53.157368
 30
0.0
 11
329.65846
 21
53.907368
 31
0.0
  0
LINE
  8
0
 10
320.40846
 20
53.157368
 30
0.0
 11
319.65846
 21
53.907368
 31
0.0
  0
LINE
  8
0
 10
328.90846
 20
53.157368
 30
0.0
 11
328.90846
 21
69.157368
 31
0.0
  0
LINE
  8
0
 10
320.40846
 20
53.157368
 30
0.0
 11
320.40846
 21
85.157368
 31
0.0
  0
LINE
  8
0
 10
329.65846
 20
53.907368
 30
0.0
 11
329.65846
 21
69.157368
 31
0.0
  0
LINE
  8
0
 10
328.90846
 20
53.157368
 30
0.0
 11
320.40846
 21
53.157368
 31
0.0
  0
LINE
  8
0
 10
319.65846
 20
69.157368
 30
0.0
 11
315.15846
 21
69.157368
 31
0.0
  0
LINE
  8
0
 10
320.40846
 20
85.157368
 30
0.0
 11
319.65846
 21
85.157368
 31
0.0
  0
LINE
  8
0
 10
363.74857
 20
54.157368
 30
0.0
 11
373.94857
 21
54.157368
 31
0.0
  0
LINE
  8
0
 10
374.84857
 20
70.157368
 30
0.0
 11
374.84857
 21
55.057368
 31
0.0
  0
LINE
  8
0
 10
363.74857
 20
94.157368
 30
0.0
 11
363.74857
 21
54.157368
 31
0.0
  0
LINE
  8
0
 10
373.94857
 20
70.157368
 30
0.0
 11
373.94857
 21
54.157368
 31
0.0
  0
LINE
  8
0
 10
363.74857
 20
54.157368
 30
0.0
 11
362.84857
 21
55.057368
 31
0.0
  0
LINE
  8
0
 10
373.94857
 20
54.157368
 30
0.0
 11
374.84857
 21
55.057368
 31
0.0
  0
LINE
  8
0
 10
368.84857
 20
70.157368
 30
0.0
 11
379.34857
 21
70.157368
 31
0.0
  0
LINE
  8
0
 10
362.84857
 20
94.157368
 30
0.0
 11
363.74857
 21
94.157368
 31
0.0
  0
LINE
  8
0
 10
324.65846
 20
77.157368
 30
0.0
 11
334.15846
 21
77.157368
 31
0.0
  0
LINE
  8
0
 10
334.15846
 20
77.157368
 30
0.0
 11
334.15846
 21
69.157368
 31
0.0
  0
LINE
  8
0
 10
329.35846
 20
77.157368
 30
0.0
 11
329.35846
 21
69.157368
 31
0.0
  0
ARC
  8
0
 10
336.75846
 20
152.209522
 30
0.0
 40
1.4
 50
0.0
 51
68.198591
  0
LINE
  8
0
 10
333.15846
 20
155.157368
 30
0.0
 11
337.278407
 21
153.509389
 31
0.0
  0
ARC
  8
0
 10
333.422565
 20
78.557368
 30
0.0
 40
1.4
 50
270.0
 51
352.874984
  0
LINE
  8
0
 10
334.811754
 20
78.383719
 30
0.0
 11
338.15846
 21
105.157368
 31
0.0
  0
LINE
  8
0
 10
316.15846
 20
155.157368
 30
0.0
 11
333.15846
 21
155.157368
 31
0.0
  0
LINE
  8
0
 10
338.15846
 20
105.157368
 30
0.0
 11
338.15846
 21
152.209522
 31
0.0
  0
LINE
  8
0
 10
133.712898
 20
60.657368
 30
0.0
 11
139.712898
 21
60.657368
 31
0.0
  0
LINE
  8
0
 10
163.03623
 20
59.257368
 30
0.0
 11
171.03623
 21
59.257368
 31
0.0
  0
LINE
  8
0
 10
200.577706
 20
59.257368
 30
0.0
 11
208.577706
 21
59.257368
 31
0.0
  0
LINE
  8
0
 10
242.82472
 20
57.257368
 30
0.0
 11
250.82472
 21
57.257368
 31
0.0
  0
LINE
  8
0
 10
279.170192
 20
55.907368
 30
0.0
 11
289.170192
 21
55.907368
 31
0.0
  0
LINE
  8
0
 10
319.65846
 20
53.907368
 30
0.0
 11
329.65846
 21
53.907368
 31
0.0
  0
LINE
  8
0
 10
362.84857
 20
55.057368
 30
0.0
 11
374.84857
 21
55.057368
 31
0.0
  0
CIRCLE
  8
0
 10
246.82472
 20
32.882157
 30
0.0
 40
6.5
  0
CIRCLE
  8
0
 10
246.82472
 20
32.882157
 30
0.0
 40
7.0
  0
CIRCLE
  8
0
 10
136.712898
 20
33.982924
 30
0.0
 40
5.0
  0
CIRCLE
  8
0
 10
136.712898
 20
33.982924
 30
0.0
 40
5.6
  0
ENDSEC
  0
EOF
