  0
SECTION
  2
HEADER
  9
$ACADVER
  1
AC1009
  9
$INSBASE
 10
0.0
 20
0.0
 30
0.0
  9
$EXTMIN
 10
79.97179310429101
 20
-112.02732668073661
 30
-0.0015258207003583
  9
$EXTMAX
 10
280.18005379327877
 20
194.05594233057349
 30
0.0000000349246037
  9
$LIMMIN
 10
0.0
 20
0.0
  9
$LIMMAX
 10
12.0
 20
9.0
  9
$ORTHOMODE
 70
     0
  9
$REGENMODE
 70
     1
  9
$FILLMODE
 70
     1
  9
$QTEXTMODE
 70
     0
  9
$MIRRTEXT
 70
     1
  9
$DRAGMODE
 70
     2
  9
$LTSCALE
 40
7.0
  9
$OSMODE
 70
    40
  9
$ATTMODE
 70
     1
  9
$TEXTSIZE
 40
0.2
  9
$TRACEWID
 40
2.0
  9
$TEXTSTYLE
  7
STANDARD
  9
$CLAYER
  8
0
  9
$CELTYPE
  6
CONTINUOUS
  9
$CECOLOR
 62
   256
  9
$DIMSCALE
 40
1.0
  9
$DIMASZ
 40
0.18
  9
$DIMEXO
 40
0.0625
  9
$DIMDLI
 40
0.38
  9
$DIMRND
 40
0.0
  9
$DIMDLE
 40
0.0
  9
$DIMEXE
 40
0.18
  9
$DIMTP
 40
0.0
  9
$DIMTM
 40
0.0
  9
$DIMTXT
 40
0.18
  9
$DIMCEN
 40
0.09
  9
$DIMTSZ
 40
0.0
  9
$DIMTOL
 70
     0
  9
$DIMLIM
 70
     0
  9
$DIMTIH
 70
     1
  9
$DIMTOH
 70
     1
  9
$DIMSE1
 70
     0
  9
$DIMSE2
 70
     0
  9
$DIMTAD
 70
     0
  9
$DIMZIN
 70
     0
  9
$DIMBLK
  1

  9
$DIMASO
 70
     1
  9
$DIMSHO
 70
     0
  9
$DIMPOST
  1

  9
$DIMAPOST
  1

  9
$DIMALT
 70
     0
  9
$DIMALTD
 70
     2
  9
$DIMALTF
 40
25.399999999999999
  9
$DIMLFAC
 40
1.0
  9
$DIMTOFL
 70
     0
  9
$DIMTVP
 40
0.0
  9
$DIMTIX
 70
     0
  9
$DIMSOXD
 70
     0
  9
$DIMSAH
 70
     0
  9
$DIMBLK1
  1

  9
$DIMBLK2
  1

  9
$DIMSTYLE
  2
STANDARD
  9
$DIMCLRD
 70
     0
  9
$DIMCLRE
 70
     0
  9
$DIMCLRT
 70
     0
  9
$DIMTFAC
 40
1.0
  9
$DIMGAP
 40
0.09
  9
$LUNITS
 70
     2
  9
$LUPREC
 70
     4
  9
$SKETCHINC
 40
0.1
  9
$FILLETRAD
 40
1.5
  9
$AUNITS
 70
     0
  9
$AUPREC
 70
     0
  9
$MENU
  1
wiberger
  9
$ELEVATION
 40
0.0
  9
$PELEVATION
 40
0.0
  9
$THICKNESS
 40
0.0
  9
$LIMCHECK
 70
     0
  9
$BLIPMODE
 70
     0
  9
$CHAMFERA
 40
1.0
  9
$CHAMFERB
 40
1.0
  9
$SKPOLY
 70
     0
  9
$TDCREATE
 40
2450485.345631944
  9
$TDUPDATE
 40
2452236.6329680551
  9
$TDINDWG
 40
0.1004438657
  9
$TDUSRTIMER
 40
0.1004438657
  9
$USRTIMER
 70
     1
  9
$ANGBASE
 50
0.0
  9
$ANGDIR
 70
     0
  9
$PDMODE
 70
     0
  9
$PDSIZE
 40
0.0
  9
$PLINEWID
 40
0.0
  9
$COORDS
 70
     2
  9
$SPLFRAME
 70
     0
  9
$SPLINETYPE
 70
     6
  9
$SPLINESEGS
 70
     8
  9
$ATTDIA
 70
     0
  9
$ATTREQ
 70
     1
  9
$HANDLING
 70
-16383
  9
$HANDSEED
  5
1F2
  9
$SURFTAB1
 70
     6
  9
$SURFTAB2
 70
     6
  9
$SURFTYPE
 70
     6
  9
$SURFU
 70
     6
  9
$SURFV
 70
     6
  9
$UCSNAME
  2

  9
$UCSORG
 10
0.0
 20
0.0
 30
0.0
  9
$UCSXDIR
 10
1.0
 20
0.0
 30
0.0
  9
$UCSYDIR
 10
0.0
 20
1.0
 30
0.0
  9
$PUCSNAME
  2

  9
$PUCSORG
 10
0.0
 20
0.0
 30
0.0
  9
$PUCSXDIR
 10
1.0
 20
0.0
 30
0.0
  9
$PUCSYDIR
 10
0.0
 20
1.0
 30
0.0
  9
$USERI1
 70
     0
  9
$USERI2
 70
     0
  9
$USERI3
 70
     0
  9
$USERI4
 70
     0
  9
$USERI5
 70
     0
  9
$USERR1
 40
0.0
  9
$USERR2
 40
0.0
  9
$USERR3
 40
0.0
  9
$USERR4
 40
0.0
  9
$USERR5
 40
0.0
  9
$WORLDVIEW
 70
     1
  9
$SHADEDGE
 70
     3
  9
$SHADEDIF
 70
    70
  9
$TILEMODE
 70
     1
  9
$MAXACTVP
 70
    16
  9
$PLIMCHECK
 70
     0
  9
$PEXTMIN
 10
1.0000000000000000E+020
 20
1.0000000000000000E+020
 30
1.0000000000000000E+020
  9
$PEXTMAX
 10
-1.0000000000000000E+020
 20
-1.0000000000000000E+020
 30
-1.0000000000000000E+020
  9
$PLIMMIN
 10
0.0
 20
0.0
  9
$PLIMMAX
 10
12.0
 20
9.0
  9
$UNITMODE
 70
     0
  9
$VISRETAIN
 70
     0
  9
$PLINEGEN
 70
     0
  9
$PSLTSCALE
 70
     0
  0
ENDSEC
  0
SECTION
  2
TABLES
  0
TABLE
  2
VPORT
 70
     3
  0
VPORT
  2
*ACTIVE
 70
     0
 10
0.0
 20
0.0
 11
1.0
 21
1.0
 12
180.07592344878489
 22
41.014307824918433
 13
0.0
 23
0.0
 14
0.5
 24
0.5
 15
0.0
 25
0.0
 16
0.0
 26
0.0
 36
1.0
 17
0.0
 27
0.0
 37
0.0
 40
616.84551793107346
 41
1.5573979591836731
 42
50.0
 43
0.0
 44
0.0
 50
0.0
 51
0.0
 71
     0
 72
   100
 73
     1
 74
     0
 75
     0
 76
     0
 77
     0
 78
     0
  0
ENDTAB
  0
TABLE
  2
LTYPE
 70
     4
  0
LTYPE
  2
CONTINUOUS
 70
     0
  3
Solid line
 72
    65
 73
     0
 40
0.0
  0
LTYPE
  2

 70
     0
  3

 72
    65
 73
     0
 40
0.0
  0
LTYPE
  2
CENTER
 70
     0
  3
____ _ ____ _ ____ _ ____ _ ____ _ ____ _ ____ 
 72
    65
 73
     4
 40
2.0
 49
1.25
 49
-0.25
 49
0.25
 49
-0.25
  0
ENDTAB
  0
TABLE
  2
LAYER
 70
     1
  0
LAYER
  2
0
 70
     0
 62
     7
  6
CONTINUOUS
  0
ENDTAB
  0
TABLE
  2
STYLE
 70
     1
  0
STYLE
  2
STANDARD
 70
     0
 40
0.0
 41
1.0
 50
0.0
 71
     0
 42
0.2
  3
txt
  4

  0
ENDTAB
  0
TABLE
  2
VIEW
 70
     0
  0
ENDTAB
  0
TABLE
  2
UCS
 70
     0
  0
ENDTAB
  0
TABLE
  2
APPID
 70
     1
  0
APPID
  2
ACAD
 70
     0
  0
ENDTAB
  0
TABLE
  2
DIMSTYLE
 70
     1
  0
DIMSTYLE
  2
STANDARD
 70
     0
  3

  4

  5

  6

  7

 40
1.0
 41
0.18
 42
0.0625
 43
0.38
 44
0.18
 45
0.0
 46
0.0
 47
0.0
 48
0.0
140
0.18
141
0.09
142
0.0
143
25.399999999999999
144
1.0
145
0.0
146
1.0
147
0.09
 71
     0
 72
     0
 73
     1
 74
     1
 75
     0
 76
     0
 77
     0
 78
     0
170
     0
171
     2
172
     0
173
     0
174
     0
175
     0
176
     0
177
     0
178
     0
  0
ENDTAB
  0
ENDSEC
  0
SECTION
  2
BLOCKS
  0
BLOCK
  8
0
  2
$MODEL_SPACE
 70
     0
 10
0.0
 20
0.0
 30
0.0
  3
$MODEL_SPACE
  1

  0
ENDBLK
  5
36
  8
0
  0
BLOCK
 67
     1
  8
0
  2
$PAPER_SPACE
 70
     0
 10
0.0
 20
0.0
 30
0.0
  3
$PAPER_SPACE
  1

  0
ENDBLK
  5
34
 67
     1
  8
0
  0
ENDSEC
  0
SECTION
  2
ENTITIES
  0
LINE
  5
D6
  8
0
 10
206.61778194619691
 20
-89.284453999929042
 30
0.0
 11
206.61778194619691
 21
-104.4732390006658
 31
0.0
  0
ARC
  5
D7
  8
0
 10
208.01777394619691
 20
-104.4732390006658
 30
0.0
 40
1.399991999999999
 50
180.0
 51
261.46923439005178
  0
ARC
  5
D8
  8
0
 10
208.01777394619691
 20
-89.284453999929042
 30
0.0
 40
1.399991999999999
 50
98.530765609948119
 51
180.0
  0
LINE
  5
D9
  8
0
 10
274.51739394619688
 20
-84.454850245850537
 30
0.0
 11
274.51739394619688
 21
-109.30284275474671
 31
0.0
  0
ARC
  5
DA
  8
0
 10
274.06231565292859
 20
-107.9788785002973
 30
0.0
 40
1.399991999999999
 50
270.0
 51
349.5243183036099
  0
ARC
  5
DB
  8
0
 10
274.06231565292859
 20
-85.778814500297415
 30
0.0
 40
1.399991999999999
 50
10.47568169638954
 51
90.0
  0
LINE
  5
DC
  8
0
 10
234.61762194619681
 20
-84.378822500297417
 30
0.0
 11
274.06231565292859
 21
-84.378822500297417
 31
0.0
  0
LINE
  5
DD
  8
0
 10
207.81009849881821
 20
-87.899951017404192
 30
0.0
 11
234.61762194619681
 21
-84.378822500297417
 31
0.0
  0
LINE
  5
DE
  8
0
 10
234.61762194619681
 20
-109.3788705002973
 30
0.0
 11
274.06231565292859
 21
-109.3788705002973
 31
0.0
  0
LINE
  5
DF
  8
0
 10
207.81009849881821
 20
-105.85774198319061
 30
0.0
 11
234.61762194619681
 21
-109.3788705002973
 31
0.0
  0
LINE
  5
E0
  8
0
 10
200.11778194619691
 20
-100.642381507439
 30
0.0
 11
206.61778194619691
 21
-100.642381507439
 31
0.0
  0
LINE
  5
E1
  8
0
 10
200.11778194619691
 20
-89.628846500297399
 30
0.0
 11
206.61778194619691
 21
-89.628846500297399
 31
0.0
  0
LINE
  5
E2
  8
0
 10
200.11778194619691
 20
-104.1288465002974
 30
0.0
 11
206.61778194619691
 21
-104.1288465002974
 31
0.0
  0
LINE
  5
E3
  8
0
 10
276.09694722396938
 20
-89.310377848574262
 30
0.0
 11
276.09694722396938
 21
-104.4473151520552
 31
0.0
  0
LINE
  5
E4
  8
0
 10
183.6137170932995
 20
-96.878846500297414
 30
0.0
 11
184.28920709798359
 21
-96.878846500297414
 31
0.0
  0
LINE
  5
E5
  8
0
  6
CENTER
 10
184.28920709798359
 20
-96.878846500297414
 30
0.0
 11
280.16146530112837
 21
-96.878846500297414
 31
0.0
  0
LINE
  5
E6
  8
0
 10
276.09694722396938
 20
-89.310377848574262
 30
0.0
 11
275.43897281872108
 21
-85.524270500297405
 31
0.0
  0
LINE
  5
E7
  8
0
 10
276.09694722396938
 20
-104.4473151520552
 30
0.0
 11
275.43897281872108
 21
-108.23342250029729
 31
0.0
  0
POLYLINE
  5
E8
  8
0
 66
     1
 10
0.0
 20
0.0
 30
0.0
 70
     1
  0
VERTEX
  5
1EB
  8
0
 10
97.690598923241495
 20
-93.0
 30
0.0
  0
VERTEX
  5
1EC
  8
0
 10
95.381197846483005
 20
-97.0
 30
0.0
  0
VERTEX
  5
1ED
  8
0
 10
97.690598923241495
 20
-101.0
 30
0.0
  0
VERTEX
  5
1EE
  8
0
 10
102.30940107675841
 20
-101.0
 30
0.0
  0
VERTEX
  5
1EF
  8
0
 10
104.618802153517
 20
-97.0
 30
0.0
  0
VERTEX
  5
1F0
  8
0
 10
102.3094010767585
 20
-93.0
 30
0.0
  0
SEQEND
  5
1F1
  8
0
  0
CIRCLE
  5
F0
  8
0
 10
100.0
 20
-97.0
 30
0.0
 40
12.50002400000005
  0
LINE
  5
F1
  8
0
 10
200.1177819461968
 20
-89.628846500297399
 30
0.0
 11
200.11778194619691
 21
-104.1288465002974
 31
0.0
  0
CIRCLE
  5
F2
  8
0
 10
100.0
 20
-97.0
 30
0.0
 40
6.4999999999999707
  0
CIRCLE
  5
F3
  8
0
 10
100.0
 20
-97.0
 30
0.0
 40
6.9999999999999707
  0
LINE
  5
F4
  8
0
  6
CENTER
 10
100.0
 20
62.5
 30
0.0
 11
100.0
 21
194.04368335493149
 31
0.0
  0
LINE
  5
F5
  8
0
 10
108.97889548289319
 20
121.69231655262131
 30
0.0
 11
112.5000239999999
 21
148.49984000000001
 31
0.0
  0
LINE
  5
F6
  8
0
 10
91.021104517106764
 20
121.69231655262131
 30
0.0
 11
87.499976000000004
 21
148.49984000000001
 31
0.0
  0
LINE
  5
F7
  8
0
 10
100.0
 20
97.495935147102614
 30
0.0
 11
100.0
 21
98.171425151786693
 31
0.0
  0
LINE
  5
F8
  8
0
 10
100.0
 20
120.5
 30
0.0
 11
107.5943925003684
 21
120.5
 31
0.0
  0
LINE
  5
F9
  8
0
 10
99.999999999999943
 20
114.0
 30
0.0
 11
108.0
 21
114.0
 31
0.0
  0
ARC
  5
FA
  8
0
 10
92.405607499631628
 20
121.899992
 30
0.0
 40
1.399991999999999
 50
188.53076560994811
 51
270.0
  0
LINE
  5
FB
  8
0
 10
92.75
 20
114.0
 30
0.0
 11
92.75
 21
120.5
 31
0.0
  0
LINE
  5
FC
  8
0
 10
92.0
 20
114.0
 30
0.0
 11
100.0
 21
114.0
 31
0.0
  0
LINE
  5
FD
  8
0
 10
92.405607499631628
 20
120.5
 30
0.0
 11
100.0
 21
120.5
 31
0.0
  0
ARC
  5
FE
  8
0
 10
107.5943925003684
 20
121.899992
 30
0.0
 40
1.399991999999999
 50
270.0
 51
351.46923439005178
  0
LINE
  5
FF
  8
0
 10
103.7635350071416
 20
114.0
 30
0.0
 11
103.7635350071416
 21
120.5
 31
0.0
  0
LINE
  5
100
  8
0
 10
107.25
 20
114.0
 30
0.0
 11
107.25
 21
120.5
 31
0.0
  0
LINE
  5
101
  8
0
 10
112.5000239999999
 20
148.49984000000001
 30
0.0
 11
112.5000239999999
 21
187.94453370673159
 31
0.0
  0
LINE
  5
102
  8
0
 10
87.499976000000004
 20
148.49984000000001
 30
0.0
 11
87.499976000000004
 21
187.94453370673159
 31
0.0
  0
ARC
  5
103
  8
0
 10
88.899968000000001
 20
187.94453370673159
 30
0.0
 40
1.399991999999999
 50
100.4756816963895
 51
180.0
  0
LINE
  5
104
  8
0
 10
92.431531348276835
 20
189.97916527777249
 30
0.0
 11
107.5684686517578
 21
189.97916527777249
 31
0.0
  0
LINE
  5
105
  8
0
 10
87.576003745551887
 20
188.39961199999999
 30
0.0
 11
112.42399625444931
 21
188.39961199999999
 31
0.0
  0
LINE
  5
106
  8
0
 10
92.431531348276835
 20
189.97916527777249
 30
0.0
 11
88.645423999999991
 21
189.3211908725242
 31
0.0
  0
LINE
  5
107
  8
0
 10
107.5684686517578
 20
189.97916527777249
 30
0.0
 11
111.35457599999989
 21
189.3211908725242
 31
0.0
  0
ARC
  5
108
  8
0
 10
111.1000319999999
 20
187.94453370673159
 30
0.0
 40
1.399991999999999
 50
0.0
 51
79.524318303609931
  0
LINE
  5
109
  8
0
 10
116.1538461538461
 20
113.0
 30
0.0
 11
83.846153846153854
 21
113.0
 31
0.0
  0
LINE
  5
10A
  8
0
 10
92.0
 20
114.0
 30
0.0
 11
92.0
 21
113.0
 31
0.0
  0
LINE
  5
10B
  8
0
 10
108.0
 20
113.0
 30
0.0
 11
108.0
 21
114.0
 31
0.0
  0
LINE
  5
10C
  8
0
 10
111.0
 20
111.4999999999999
 30
0.0
 11
111.0
 21
102.4999999999999
 31
0.0
  0
LINE
  5
10D
  8
0
 10
89.0
 20
102.4999999999999
 30
0.0
 11
89.0
 21
111.4999999999999
 31
0.0
  0
LINE
  5
10E
  8
0
 10
96.0
 20
114.0
 30
0.0
 11
96.0
 21
120.5
 31
0.0
  0
ARC
  5
10F
  8
0
 10
109.4999999999999
 20
111.4999999999999
 30
0.0
 40
1.5
 50
0.0
 51
90.0
  0
ARC
  5
110
  8
0
 10
109.4999999999999
 20
102.4999999999999
 30
0.0
 40
1.5
 50
270.0
 51
0.0
  0
ARC
  5
111
  8
0
 10
90.5
 20
102.4999999999999
 30
0.0
 40
1.5
 50
180.0
 51
270.0
  0
ARC
  5
112
  8
0
 10
90.5
 20
111.4999999999999
 30
0.0
 40
1.5
 50
90.0
 51
180.0
  0
LINE
  5
113
  8
0
 10
107.25
 20
119.0
 30
0.0
 11
114.537968522836
 21
119.0
 31
0.0
  0
LINE
  5
114
  8
0
 10
116.03747566920021
 20
117.5384489011888
 30
0.0
 11
116.9605525922772
 21
81.538448901188815
 31
0.0
  0
LINE
  5
115
  8
0
 10
92.75
 20
119.0
 30
0.0
 11
85.462031477163933
 21
119.0
 31
0.0
  0
LINE
  5
116
  8
0
 10
83.962524330799695
 20
117.5384489011888
 30
0.0
 11
83.039447407722776
 21
81.538448901188815
 31
0.0
  0
LINE
  5
117
  8
0
 10
84.538954554086999
 20
80.0
 30
0.0
 11
115.4610454459129
 21
80.0
 31
0.0
  0
ARC
  5
118
  8
0
 10
114.537968522836
 20
117.5
 30
0.0
 40
1.5
 50
1.4688007143858099
 51
90.0
  0
ARC
  5
119
  8
0
 10
85.462031477163933
 20
117.5
 30
0.0
 40
1.5
 50
90.0
 51
178.53119928561409
  0
ARC
  5
11A
  8
0
 10
115.4610454459129
 20
81.5
 30
0.0
 40
1.5
 50
270.0
 51
1.4688007143858219
  0
ARC
  5
11B
  8
0
 10
84.538954554086999
 20
81.5
 30
0.0
 40
1.5
 50
178.53119928561409
 51
270.0
  0
LINE
  5
11C
  8
0
 10
109.4999999999999
 20
101.0
 30
0.0
 11
90.5
 21
101.0
 31
0.0
  0
LINE
  5
11D
  8
0
 10
109.4999999999999
 20
101.0
 30
0.0
 11
116.6336939721792
 21
94.285935085007736
 31
0.0
  0
LINE
  5
11E
  8
0
 10
116.6336939721792
 20
94.285935085007736
 30
0.0
 11
83.366306027820698
 21
94.285935085007736
 31
0.0
  0
LINE
  5
11F
  8
0
 10
90.5
 20
101.0
 30
0.0
 11
83.366306027820698
 21
94.285935085007736
 31
0.0
  0
LINE
  5
120
  8
0
 10
111.0
 20
102.4999999999999
 30
0.0
 11
116.6336939721792
 21
94.285935085007736
 31
0.0
  0
LINE
  5
121
  8
0
 10
89.0
 20
102.4999999999999
 30
0.0
 11
83.366306027820698
 21
94.285935085007736
 31
0.0
  0
LINE
  5
122
  8
0
 10
112.0
 20
68.0
 30
0.0
 11
88.0
 21
68.0
 31
0.0
  0
LINE
  5
123
  8
0
 10
112.0
 20
80.0
 30
0.0
 11
112.0
 21
68.0
 31
0.0
  0
LINE
  5
124
  8
0
 10
88.0
 20
80.0
 30
0.0
 11
88.0
 21
68.0
 31
0.0
  0
LINE
  5
125
  8
0
 10
100.0
 20
80.0
 30
0.0
 11
100.0
 21
68.0
 31
0.0
  0
LINE
  5
126
  8
0
 10
102.0
 20
68.0
 30
0.0
 11
102.0
 21
80.0
 31
0.0
  0
LINE
  5
127
  8
0
 10
103.4999999999999
 20
80.0
 30
0.0
 11
103.4999999999999
 21
68.0
 31
0.0
  0
LINE
  5
128
  8
0
 10
105.0
 20
68.0
 30
0.0
 11
105.0
 21
80.0
 31
0.0
  0
LINE
  5
129
  8
0
 10
106.0
 20
80.0
 30
0.0
 11
106.0
 21
68.0
 31
0.0
  0
LINE
  5
12A
  8
0
 10
107.0
 20
68.0
 30
0.0
 11
107.0
 21
80.0
 31
0.0
  0
LINE
  5
12B
  8
0
 10
108.0
 20
80.0
 30
0.0
 11
108.0
 21
68.0
 31
0.0
  0
LINE
  5
12C
  8
0
 10
109.0
 20
68.0
 30
0.0
 11
109.0
 21
80.0
 31
0.0
  0
LINE
  5
12D
  8
0
 10
109.4999999999999
 20
80.0
 30
0.0
 11
109.4999999999999
 21
68.0
 31
0.0
  0
LINE
  5
12E
  8
0
 10
110.0
 20
68.0
 30
0.0
 11
110.0
 21
80.0
 31
0.0
  0
LINE
  5
12F
  8
0
 10
111.4999999999999
 20
80.0
 30
0.0
 11
111.4999999999999
 21
68.0
 31
0.0
  0
LINE
  5
130
  8
0
 10
111.0
 20
68.0
 30
0.0
 11
111.0
 21
80.0
 31
0.0
  0
LINE
  5
131
  8
0
 10
110.4999999999999
 20
80.0
 30
0.0
 11
110.4999999999999
 21
68.0
 31
0.0
  0
LINE
  5
132
  8
0
 10
89.0
 20
68.0
 30
0.0
 11
89.0
 21
80.0
 31
0.0
  0
LINE
  5
133
  8
0
 10
88.499999999999986
 20
80.0
 30
0.0
 11
88.499999999999986
 21
68.0
 31
0.0
  0
LINE
  5
134
  8
0
 10
89.500000000000014
 20
80.0
 30
0.0
 11
89.500000000000014
 21
68.0
 31
0.0
  0
LINE
  5
135
  8
0
 10
90.0
 20
68.0
 30
0.0
 11
90.0
 21
80.0
 31
0.0
  0
LINE
  5
136
  8
0
 10
90.5
 20
80.0
 30
0.0
 11
90.5
 21
68.0
 31
0.0
  0
LINE
  5
137
  8
0
 10
91.0
 20
68.0
 30
0.0
 11
91.0
 21
80.0
 31
0.0
  0
LINE
  5
138
  8
0
 10
92.0
 20
80.0
 30
0.0
 11
92.0
 21
68.0
 31
0.0
  0
LINE
  5
139
  8
0
 10
93.0
 20
68.0
 30
0.0
 11
93.0
 21
80.0
 31
0.0
  0
LINE
  5
13A
  8
0
 10
94.0
 20
80.0
 30
0.0
 11
94.0
 21
68.0
 31
0.0
  0
LINE
  5
13B
  8
0
 10
95.0
 20
68.0
 30
0.0
 11
95.0
 21
80.0
 31
0.0
  0
LINE
  5
13C
  8
0
 10
96.5
 20
80.0
 30
0.0
 11
96.5
 21
68.0
 31
0.0
  0
LINE
  5
13D
  8
0
 10
98.0
 20
68.0
 30
0.0
 11
98.0
 21
80.0
 31
0.0
  0
ARC
  5
13E
  8
0
 10
100.0
 20
-17.0
 30
0.0
 40
17.0
 50
355.33958061588521
 51
184.6604193841147
  0
CIRCLE
  5
13F
  8
0
 10
100.0
 20
-17.0
 30
0.0
 40
16.0
  0
LINE
  5
140
  8
0
 10
116.943793802968
 20
-18.381249999999991
 30
0.0
 11
111.0163523127339
 21
-91.09317498800759
 31
0.0
  0
LINE
  5
141
  8
0
 10
83.056206197031912
 20
-18.381249999999991
 30
0.0
 11
88.983647687266057
 21
-91.093174988007604
 31
0.0
  0
CIRCLE
  5
142
  8
0
 10
100.0
 20
-17.0
 30
0.0
 40
5.5
  0
CIRCLE
  5
143
  8
0
 10
100.0
 20
-17.0
 30
0.0
 40
5.0
  0
LINE
  5
144
  8
0
 10
104.4142560786963
 20
-14.651736115405139
 30
0.0
 11
96.953490473201555
 21
-20.96469162774688
 31
0.0
  0
LINE
  5
145
  8
0
 10
103.1406737508517
 20
-13.10947710574648
 30
0.0
 11
95.643303835181413
 21
-19.453405495929069
 31
0.0
  0
ARC
  5
146
  8
0
 10
100.0
 20
-17.0
 30
0.0
 40
20.0
 50
235.071577175843
 51
304.928422824157
  0
ARC
  5
147
  8
0
 10
100.0
 20
-96.5
 30
0.0
 40
13.009611831257679
 50
48.94665749367433
 51
131.05334250632561
  0
ARC
  5
148
  8
0
 10
100.0
 20
-97.0
 30
0.0
 40
14.5086181285469
 50
58.159517942301633
 51
121.8404820576983
  0
ARC
  5
149
  8
0
 10
100.0
 20
-17.0
 30
0.0
 40
21.0
 50
240.4753913755055
 51
299.52460862449442
  0
LINE
  5
14A
  8
0
 10
110.34874400914541
 20
-35.273026499000558
 30
0.0
 11
107.6541107437011
 21
-84.674636365479557
 31
0.0
  0
LINE
  5
14B
  8
0
 10
108.5442106321766
 20
-86.689471743427902
 30
0.0
 11
111.451053145999
 21
-33.397358990017423
 31
0.0
  0
LINE
  5
14C
  8
0
 10
91.455789367823328
 20
-86.689471743427902
 30
0.0
 11
88.548946854000945
 21
-33.397358990017423
 31
0.0
  0
LINE
  5
14D
  8
0
 10
89.651255990854594
 20
-35.273026499000558
 30
0.0
 11
92.345889256298889
 21
-84.674636365479557
 31
0.0
  0
LINE
  5
14E
  8
0
  6
CENTER
 10
100.0
 20
3.0
 30
0.0
 11
100.0
 21
-112.0
 31
0.0
  0
LINE
  5
14F
  8
0
  6
CENTER
 10
84.500000000000014
 20
-97.0
 30
0.0
 11
115.0
 21
-97.0
 31
0.0
  0
LINE
  5
150
  8
0
  6
CENTER
 10
119.5
 20
-17.0
 30
0.0
 11
80.0
 21
-17.0
 31
0.0
  0
LINE
  5
151
  8
0
 10
154.0
 20
-29.0
 30
0.0
 11
154.0
 21
-5.5
 31
0.0
  0
LINE
  5
152
  8
0
 10
154.0
 20
-19.0
 30
0.0
 11
166.0
 21
-19.0
 31
0.0
  0
LINE
  5
153
  8
0
 10
166.0
 20
-20.5
 30
0.0
 11
154.0
 21
-20.5
 31
0.0
  0
LINE
  5
154
  8
0
 10
154.0
 20
-22.0
 30
0.0
 11
166.0
 21
-22.0
 31
0.0
  0
LINE
  5
155
  8
0
 10
166.0
 20
-23.0
 30
0.0
 11
154.0
 21
-23.0
 31
0.0
  0
LINE
  5
156
  8
0
 10
166.0
 20
-1.5389545540870131
 30
0.0
 11
166.0
 21
-5.0
 31
0.0
  0
LINE
  5
157
  8
0
 10
166.0
 20
-27.5
 30
0.0
 11
154.0
 21
-27.5
 31
0.0
  0
LINE
  5
158
  8
0
 10
154.0
 20
-28.0
 30
0.0
 11
166.0
 21
-28.0
 31
0.0
  0
LINE
  5
159
  8
0
 10
166.0
 20
-28.5
 30
0.0
 11
154.0
 21
-28.5
 31
0.0
  0
LINE
  5
15A
  8
0
 10
154.0
 20
-27.0
 30
0.0
 11
166.0
 21
-27.0
 31
0.0
  0
LINE
  5
15B
  8
0
 10
166.0
 20
-26.5
 30
0.0
 11
154.0
 21
-26.5
 31
0.0
  0
LINE
  5
15C
  8
0
 10
154.0
 20
-26.0
 30
0.0
 11
166.0
 21
-26.0
 31
0.0
  0
LINE
  5
15D
  8
0
 10
166.0
 20
-25.0
 30
0.0
 11
154.0
 21
-25.0
 31
0.0
  0
LINE
  5
15E
  8
0
 10
154.0
 20
-24.0
 30
0.0
 11
166.0
 21
-24.0
 31
0.0
  0
LINE
  5
15F
  8
0
 10
166.0
 20
-29.0
 30
0.0
 11
154.0
 21
-29.0
 31
0.0
  0
ARC
  5
160
  8
0
 10
167.5
 20
-32.461045445912987
 30
0.0
 40
1.5
 50
180.0
 51
271.46880071438579
  0
LINE
  5
161
  8
0
 10
203.53844890118879
 20
-33.03747566920029
 30
0.0
 11
199.0
 21
-33.15384615384616
 31
0.0
  0
ARC
  5
162
  8
0
 10
167.5
 20
-1.5389545540870131
 30
0.0
 40
1.5
 50
88.531199285614193
 51
180.0
  0
LINE
  5
163
  8
0
 10
203.53844890118879
 20
-0.9625243307997095
 30
0.0
 11
167.53844890118879
 21
-0.0394474077227756
 31
0.0
  0
LINE
  5
164
  8
0
  6
CENTER
 10
148.5
 20
-17.0
 30
0.0
 11
211.49999999999989
 21
-17.0
 31
0.0
  0
ARC
  5
165
  8
0
 10
203.5
 20
-2.4620314771639178
 30
0.0
 40
1.5
 50
0.0
 51
88.531199285614193
  0
ARC
  5
166
  8
0
 10
203.5
 20
-31.537968522836081
 30
0.0
 40
1.5
 50
271.46880071438579
 51
0.0
  0
LINE
  5
167
  8
0
  6
CONTINUOUS
 10
205.0
 20
-31.5
 30
0.0
 11
205.0
 21
-17.0
 31
0.0
  0
LINE
  5
168
  8
0
  6
CONTINUOUS
 10
158.49999999999989
 20
-5.0
 30
0.0
 11
166.0
 21
-5.0
 31
0.0
  0
LINE
  5
169
  8
0
  6
CONTINUOUS
 10
166.0
 20
-3.0
 30
0.0
 11
170.5
 21
-3.0
 31
0.0
  0
LINE
  5
16A
  8
0
  6
CONTINUOUS
 10
170.5
 20
-4.5
 30
0.0
 11
170.5
 21
-3.0
 31
0.0
  0
LINE
  5
16B
  8
0
  6
CONTINUOUS
 10
170.5
 20
-4.5
 30
0.0
 11
186.0
 21
-4.5
 31
0.0
  0
LINE
  5
16C
  8
0
  6
CONTINUOUS
 10
186.0
 20
-6.0
 30
0.0
 11
200.49999999999989
 21
-6.0
 31
0.0
  0
LINE
  5
16D
  8
0
  6
CONTINUOUS
 10
200.49999999999989
 20
-6.0
 30
0.0
 11
200.49999999999989
 21
-8.0
 31
0.0
  0
LINE
  5
16E
  8
0
  6
CONTINUOUS
 10
200.49999999999989
 20
-8.0
 30
0.0
 11
186.0
 21
-8.0
 31
0.0
  0
LINE
  5
16F
  8
0
  6
CONTINUOUS
 10
186.0
 20
-4.5
 30
0.0
 11
186.0
 21
-17.0
 31
0.0
  0
LINE
  5
170
  8
0
  6
CONTINUOUS
 10
186.0
 20
-13.0
 30
0.0
 11
188.49999999999989
 21
-13.0
 31
0.0
  0
LINE
  5
171
  8
0
  6
CONTINUOUS
 10
188.49999999999989
 20
-11.5
 30
0.0
 11
188.49999999999989
 21
-13.0
 31
0.0
  0
LINE
  5
172
  8
0
  6
CONTINUOUS
 10
188.49999999999989
 20
-11.5
 30
0.0
 11
205.0
 21
-11.5
 31
0.0
  0
LINE
  5
173
  8
0
  6
CONTINUOUS
 10
154.0
 20
-6.0
 30
0.0
 11
158.49999999999989
 21
-6.0
 31
0.0
  0
LINE
  5
174
  8
0
  6
CONTINUOUS
 10
158.49999999999989
 20
-6.0
 30
0.0
 11
158.49999999999989
 21
-5.0
 31
0.0
  0
LINE
  5
175
  8
0
  6
CONTINUOUS
 10
158.49999999999989
 20
-5.5
 30
0.0
 11
154.0
 21
-5.5
 31
0.0
  0
LINE
  5
176
  8
0
  6
CONTINUOUS
 10
154.0
 20
-8.0
 30
0.0
 11
164.0
 21
-8.0
 31
0.0
  0
LINE
  5
177
  8
0
  6
CONTINUOUS
 10
164.0
 20
-8.0
 30
0.0
 11
164.0
 21
-9.0
 31
0.0
  0
LINE
  5
178
  8
0
  6
CONTINUOUS
 10
164.0
 20
-9.0
 30
0.0
 11
169.0
 21
-9.0
 31
0.0
  0
LINE
  5
179
  8
0
  6
CONTINUOUS
 10
169.0
 20
-9.0
 30
0.0
 11
169.0
 21
-8.0
 31
0.0
  0
LINE
  5
17A
  8
0
  6
CONTINUOUS
 10
177.0
 20
-8.0
 30
0.0
 11
177.0
 21
-9.0
 31
0.0
  0
LINE
  5
17B
  8
0
  6
CONTINUOUS
 10
177.0
 20
-9.0
 30
0.0
 11
182.5
 21
-9.0
 31
0.0
  0
LINE
  5
17C
  8
0
  6
CONTINUOUS
 10
182.5
 20
-9.0
 30
0.0
 11
182.5
 21
-8.0
 31
0.0
  0
LINE
  5
17D
  8
0
  6
CONTINUOUS
 10
182.5
 20
-8.0
 30
0.0
 11
186.0
 21
-8.0
 31
0.0
  0
LINE
  5
17E
  8
0
  6
CONTINUOUS
 10
169.0
 20
-8.0
 30
0.0
 11
177.0
 21
-8.0
 31
0.0
  0
LINE
  5
17F
  8
0
  6
CONTINUOUS
 10
166.0
 20
-32.5
 30
0.0
 11
166.0
 21
-17.0
 31
0.0
  0
LINE
  5
180
  8
0
  6
CONTINUOUS
 10
154.0
 20
-12.0
 30
0.0
 11
182.0
 21
-12.0
 31
0.0
  0
LINE
  5
181
  8
0
  6
CONTINUOUS
 10
182.0
 20
-12.0
 30
0.0
 11
183.0
 21
-15.0
 31
0.0
  0
LINE
  5
182
  8
0
  6
CONTINUOUS
 10
183.0
 20
-15.0
 30
0.0
 11
186.0
 21
-15.0
 31
0.0
  0
LINE
  5
183
  8
0
  6
CONTINUOUS
 10
182.0
 20
-12.0
 30
0.0
 11
182.0
 21
-17.0
 31
0.0
  0
LINE
  5
184
  8
0
  6
CONTINUOUS
 10
183.0
 20
-15.0
 30
0.0
 11
183.0
 21
-17.0
 31
0.0
  0
LINE
  5
185
  8
0
  6
CONTINUOUS
 10
186.0
 20
-14.5
 30
0.0
 11
183.0
 21
-14.5
 31
0.0
  0
LINE
  5
186
  8
0
  6
CONTINUOUS
 62
     0
 10
175.17619023324849
 20
-12.0
 30
0.0
 11
178.17619023324849
 21
-9.0
 31
0.0
  0
LINE
  5
187
  8
0
  6
CONTINUOUS
 62
     0
 10
170.9335495461292
 20
-12.0
 30
0.0
 11
174.9335495461292
 21
-8.0
 31
0.0
  0
LINE
  5
188
  8
0
  6
CONTINUOUS
 62
     0
 10
166.69090885900991
 20
-12.0
 30
0.0
 11
170.69090885900991
 21
-8.0
 31
0.0
  0
LINE
  5
189
  8
0
  6
CONTINUOUS
 62
     0
 10
162.44826817189059
 20
-12.0
 30
0.0
 11
165.44826817189059
 21
-9.0
 31
0.0
  0
LINE
  5
18A
  8
0
  6
CONTINUOUS
 62
     0
 10
158.2056274847713
 20
-12.0
 30
0.0
 11
162.20562748477141
 21
-8.0
 31
0.0
  0
LINE
  5
18B
  8
0
  6
CONTINUOUS
 62
     0
 10
154.0
 20
-11.96298679765211
 30
0.0
 11
157.96298679765209
 21
-8.0
 31
0.0
  0
LINE
  5
18C
  8
0
  6
CONTINUOUS
 62
     0
 10
179.41883092036781
 20
-12.0
 30
0.0
 11
182.41883092036781
 21
-9.0
 31
0.0
  0
LINE
  5
18D
  8
0
  6
CONTINUOUS
 62
     0
 10
182.5
 20
-8.9188309203678084
 30
0.0
 11
183.41883092036781
 21
-8.0
 31
0.0
  0
LINE
  5
18E
  8
0
  6
CONTINUOUS
 62
     0
 10
182.41536790187169
 20
-13.246103705615321
 30
0.0
 11
186.0
 21
-9.6614716074870923
 31
0.0
  0
LINE
  5
18F
  8
0
  6
CONTINUOUS
 62
     0
 10
185.40411229460639
 20
-14.5
 30
0.0
 11
186.0
 21
-13.904112294606371
 31
0.0
  0
LINE
  5
190
  8
0
  6
CONTINUOUS
 62
     0
 10
176.34776310850231
 20
-8.0
 30
0.0
 11
179.84776310850231
 21
-4.5
 31
0.0
  0
LINE
  5
191
  8
0
  6
CONTINUOUS
 62
     0
 10
173.51933598375609
 20
-8.0
 30
0.0
 11
177.01933598375609
 21
-4.5
 31
0.0
  0
LINE
  5
192
  8
0
  6
CONTINUOUS
 62
     0
 10
170.69090885900991
 20
-8.0
 30
0.0
 11
174.19090885900991
 21
-4.5
 31
0.0
  0
LINE
  5
193
  8
0
  6
CONTINUOUS
 62
     0
 10
166.8624817342637
 20
-9.0
 30
0.0
 11
171.3624817342637
 21
-4.5
 31
0.0
  0
LINE
  5
194
  8
0
  6
CONTINUOUS
 62
     0
 10
164.03405460951751
 20
-9.0
 30
0.0
 11
170.03405460951751
 21
-3.0
 31
0.0
  0
LINE
  5
195
  8
0
  6
CONTINUOUS
 62
     0
 10
162.20562748477141
 20
-8.0
 30
0.0
 11
165.20562748477141
 21
-5.0
 31
0.0
  0
LINE
  5
196
  8
0
  6
CONTINUOUS
 62
     0
 10
159.3772003600252
 20
-8.0
 30
0.0
 11
162.3772003600252
 21
-5.0
 31
0.0
  0
LINE
  5
197
  8
0
  6
CONTINUOUS
 62
     0
 10
156.54877323527899
 20
-8.0
 30
0.0
 11
159.54877323527899
 21
-5.0
 31
0.0
  0
LINE
  5
198
  8
0
  6
CONTINUOUS
 62
     0
 10
154.0
 20
-7.7203461105328302
 30
0.0
 11
155.7203461105328
 21
-6.0
 31
0.0
  0
LINE
  5
199
  8
0
  6
CONTINUOUS
 62
     0
 10
178.17619023324849
 20
-9.0
 30
0.0
 11
182.67619023324849
 21
-4.5
 31
0.0
  0
LINE
  5
19A
  8
0
  6
CONTINUOUS
 62
     0
 10
181.0046173579947
 20
-9.0
 30
0.0
 11
185.50461735799459
 21
-4.5
 31
0.0
  0
LINE
  5
19B
  8
0
  6
CONTINUOUS
 62
     0
 10
184.83304448274089
 20
-8.0
 30
0.0
 11
186.0
 21
-6.8330444827409043
 31
0.0
  0
LINE
  5
19C
  8
0
  6
CONTINUOUS
 62
     0
 10
160.23506473629419
 20
-8.0
 30
0.0
 11
158.23506473629419
 21
-6.0
 31
0.0
  0
LINE
  5
19D
  8
0
  6
CONTINUOUS
 62
     0
 10
157.40663761154801
 20
-8.0
 30
0.0
 11
155.40663761154801
 21
-6.0
 31
0.0
  0
LINE
  5
19E
  8
0
  6
CONTINUOUS
 62
     0
 10
154.57821048680179
 20
-8.0
 30
0.0
 11
154.0
 21
-7.42178951319812
 31
0.0
  0
LINE
  5
19F
  8
0
  6
CONTINUOUS
 62
     0
 10
164.0634918610404
 20
-9.0
 30
0.0
 11
164.0
 21
-8.9365081389595513
 31
0.0
  0
LINE
  5
1A0
  8
0
  6
CONTINUOUS
 62
     0
 10
163.0634918610404
 20
-8.0
 30
0.0
 11
160.0634918610404
 21
-5.0
 31
0.0
  0
LINE
  5
1A1
  8
0
  6
CONTINUOUS
 62
     0
 10
166.89191898578659
 20
-9.0
 30
0.0
 11
162.89191898578659
 21
-5.0
 31
0.0
  0
LINE
  5
1A2
  8
0
  6
CONTINUOUS
 62
     0
 10
169.0
 20
-8.2796538894671698
 30
0.0
 11
165.7203461105328
 21
-5.0
 31
0.0
  0
LINE
  5
1A3
  8
0
  6
CONTINUOUS
 62
     0
 10
171.54877323527899
 20
-8.0
 30
0.0
 11
166.54877323527899
 21
-3.0
 31
0.0
  0
LINE
  5
1A4
  8
0
  6
CONTINUOUS
 62
     0
 10
174.37720036002511
 20
-8.0
 30
0.0
 11
170.8772003600252
 21
-4.5
 31
0.0
  0
LINE
  5
1A5
  8
0
  6
CONTINUOUS
 62
     0
 10
170.5
 20
-4.1227996399747902
 30
0.0
 11
169.37720036002511
 21
-3.0
 31
0.0
  0
LINE
  5
1A6
  8
0
  6
CONTINUOUS
 62
     0
 10
178.2056274847713
 20
-8.9999999999999982
 30
0.0
 11
173.7056274847713
 21
-4.5
 31
0.0
  0
LINE
  5
1A7
  8
0
  6
CONTINUOUS
 62
     0
 10
181.03405460951751
 20
-9.0
 30
0.0
 11
176.53405460951751
 21
-4.5
 31
0.0
  0
LINE
  5
1A8
  8
0
  6
CONTINUOUS
 62
     0
 10
182.8624817342637
 20
-8.0
 30
0.0
 11
179.3624817342637
 21
-4.5
 31
0.0
  0
LINE
  5
1A9
  8
0
  6
CONTINUOUS
 62
     0
 10
185.69090885900991
 20
-8.0
 30
0.0
 11
182.19090885900991
 21
-4.5
 31
0.0
  0
LINE
  5
1AA
  8
0
  6
CONTINUOUS
 62
     0
 10
186.0
 20
-5.4806640162438578
 30
0.0
 11
185.01933598375609
 21
-4.5
 31
0.0
  0
LINE
  5
1AB
  8
0
  6
CONTINUOUS
 62
     0
 10
166.0
 20
-4.2056274847714077
 30
0.0
 11
167.2056274847713
 21
-3.0
 31
0.0
  0
LINE
  5
1AC
  8
0
  6
CONTINUOUS
 10
186.0
 20
-13.5
 30
0.0
 11
204.0
 21
-13.5
 31
0.0
  0
LINE
  5
1AD
  8
0
  6
CONTINUOUS
 10
204.0
 20
-13.5
 30
0.0
 11
204.0
 21
-12.0
 31
0.0
  0
LINE
  5
1AE
  8
0
  6
CONTINUOUS
 10
204.0
 20
-12.0
 30
0.0
 11
207.5
 21
-12.0
 31
0.0
  0
LINE
  5
1AF
  8
0
  6
CONTINUOUS
 10
208.49999999999989
 20
-13.0
 30
0.0
 11
208.49999999999989
 21
-16.5
 31
0.0
  0
LINE
  5
1B0
  8
0
  6
CONTINUOUS
 10
205.0
 20
-12.0
 30
0.0
 11
205.0
 21
-2.4620314771639178
 31
0.0
  0
LINE
  5
1B1
  8
0
  6
CONTINUOUS
 10
208.49999999999989
 20
-13.0
 30
0.0
 11
207.5
 21
-12.0
 31
0.0
  0
LINE
  5
1B2
  8
0
  6
CONTINUOUS
 10
205.0
 20
-22.0
 30
0.0
 11
207.5
 21
-22.0
 31
0.0
  0
LINE
  5
1B3
  8
0
  6
CONTINUOUS
 10
207.5
 20
-22.0
 30
0.0
 11
208.49999999999989
 21
-21.0
 31
0.0
  0
LINE
  5
1B4
  8
0
  6
CONTINUOUS
 10
208.49999999999989
 20
-16.5
 30
0.0
 11
207.0
 21
-16.5
 31
0.0
  0
LINE
  5
1B5
  8
0
  6
CONTINUOUS
 10
207.0
 20
-16.5
 30
0.0
 11
207.0
 21
-17.5
 31
0.0
  0
LINE
  5
1B6
  8
0
  6
CONTINUOUS
 10
207.0
 20
-17.5
 30
0.0
 11
208.49999999999989
 21
-17.5
 31
0.0
  0
LINE
  5
1B7
  8
0
  6
CONTINUOUS
 10
208.49999999999989
 20
-17.5
 30
0.0
 11
208.49999999999989
 21
-21.0
 31
0.0
  0
CIRCLE
  5
1B8
  8
0
  6
CONTINUOUS
 10
191.0
 20
-12.5
 30
0.0
 40
1.0
  0
CIRCLE
  5
1B9
  8
0
  6
CONTINUOUS
 10
201.0
 20
-12.5
 30
0.0
 40
1.0
  0
CIRCLE
  5
1BA
  8
0
  6
CONTINUOUS
 10
196.0
 20
-12.5
 30
0.0
 40
1.0
  0
LINE
  5
1BB
  8
0
  6
CONTINUOUS
 62
     0
 10
186.0
 20
-5.4188309203678076
 30
0.0
 11
190.78336014735859
 21
-0.6354707730091889
 31
0.0
  0
LINE
  5
1BC
  8
0
  6
CONTINUOUS
 62
     0
 10
182.67619023324849
 20
-4.5
 30
0.0
 11
186.6467854774173
 21
-0.5294047558312052
 31
0.0
  0
LINE
  5
1BD
  8
0
  6
CONTINUOUS
 62
     0
 10
178.4335495461292
 20
-4.5
 30
0.0
 11
182.510210807476
 21
-0.4233387386532215
 31
0.0
  0
LINE
  5
1BE
  8
0
  6
CONTINUOUS
 62
     0
 10
174.19090885900991
 20
-4.5
 30
0.0
 11
178.37363613753459
 21
-0.3172727214752378
 31
0.0
  0
LINE
  5
1BF
  8
0
  6
CONTINUOUS
 62
     0
 10
170.5
 20
-3.9482681718906649
 30
0.0
 11
174.23706146759341
 21
-0.2112067042972541
 31
0.0
  0
LINE
  5
1C0
  8
0
  6
CONTINUOUS
 62
     0
 10
167.2056274847713
 20
-3.0
 30
0.0
 11
170.10048679765211
 21
-0.1051406871192704
 31
0.0
  0
LINE
  5
1C1
  8
0
  6
CONTINUOUS
 62
     0
 10
186.0
 20
-9.6614716074870941
 30
0.0
 11
187.66147160748699
 21
-8.0
 31
0.0
  0
LINE
  5
1C2
  8
0
  6
CONTINUOUS
 62
     0
 10
189.66147160748699
 20
-6.0
 30
0.0
 11
194.91993481729989
 21
-0.7415367901871726
 31
0.0
  0
LINE
  5
1C3
  8
0
  6
CONTINUOUS
 62
     0
 10
186.90411229460631
 20
-13.0
 30
0.0
 11
191.90411229460639
 21
-8.0
 31
0.0
  0
LINE
  5
1C4
  8
0
  6
CONTINUOUS
 62
     0
 10
193.90411229460631
 20
-6.0
 30
0.0
 11
199.05650948724119
 21
-0.8476028073651563
 31
0.0
  0
LINE
  5
1C5
  8
0
  6
CONTINUOUS
 62
     0
 10
192.6467529817256
 20
-11.5
 30
0.0
 11
196.1467529817256
 21
-8.0
 31
0.0
  0
LINE
  5
1C6
  8
0
  6
CONTINUOUS
 62
     0
 10
198.1467529817256
 20
-6.0
 30
0.0
 11
203.19308415718251
 21
-0.9536688245431363
 31
0.0
  0
LINE
  5
1C7
  8
0
  6
CONTINUOUS
 62
     0
 10
196.88939366884489
 20
-11.5
 30
0.0
 11
200.38939366884489
 21
-8.0
 31
0.0
  0
LINE
  5
1C8
  8
0
  6
CONTINUOUS
 62
     0
 10
200.49999999999989
 20
-7.8893936688449493
 30
0.0
 11
205.0
 21
-3.3893936688449489
 31
0.0
  0
LINE
  5
1C9
  8
0
  6
CONTINUOUS
 62
     0
 10
201.13203435596421
 20
-11.5
 30
0.0
 11
205.0
 21
-7.6320343559642358
 31
0.0
  0
LINE
  5
1CA
  8
0
  6
CONTINUOUS
 62
     0
 10
186.44826817189059
 20
-13.0
 30
0.0
 11
186.0
 21
-12.551731828109331
 31
0.0
  0
LINE
  5
1CB
  8
0
  6
CONTINUOUS
 62
     0
 10
177.94826817189059
 20
-4.5
 30
0.0
 11
173.6442752290456
 21
-0.1960070571550041
 31
0.0
  0
LINE
  5
1CC
  8
0
  6
CONTINUOUS
 62
     0
 10
173.70562748477141
 20
-4.5
 30
0.0
 11
169.2899861027916
 21
-0.0843586180202856
 31
0.0
  0
LINE
  5
1CD
  8
0
  6
CONTINUOUS
 62
     0
 10
167.96298679765201
 20
-3.0
 30
0.0
 11
166.06503812826921
 21
-1.1020513306170829
 31
0.0
  0
LINE
  5
1CE
  8
0
  6
CONTINUOUS
 62
     0
 10
189.19090885900991
 20
-11.5
 30
0.0
 11
186.0
 21
-8.3090911409900485
 31
0.0
  0
LINE
  5
1CF
  8
0
  6
CONTINUOUS
 62
     0
 10
182.19090885900991
 20
-4.5
 30
0.0
 11
177.99856435529969
 21
-0.3076554962897227
 31
0.0
  0
LINE
  5
1D0
  8
0
  6
CONTINUOUS
 62
     0
 10
193.4335495461292
 20
-11.5
 30
0.0
 11
189.9335495461292
 21
-8.0
 31
0.0
  0
LINE
  5
1D1
  8
0
  6
CONTINUOUS
 62
     0
 10
187.9335495461292
 20
-6.0
 30
0.0
 11
182.35285348155369
 21
-0.4193039354244448
 31
0.0
  0
LINE
  5
1D2
  8
0
  6
CONTINUOUS
 62
     0
 10
197.67619023324849
 20
-11.5
 30
0.0
 11
194.17619023324849
 21
-8.0
 31
0.0
  0
LINE
  5
1D3
  8
0
  6
CONTINUOUS
 62
     0
 10
192.17619023324849
 20
-6.0
 30
0.0
 11
186.70714260780761
 21
-0.5309523745591634
 31
0.0
  0
LINE
  5
1D4
  8
0
  6
CONTINUOUS
 62
     0
 10
201.9188309203677
 20
-11.5
 30
0.0
 11
198.41883092036781
 21
-8.0
 31
0.0
  0
LINE
  5
1D5
  8
0
  6
CONTINUOUS
 62
     0
 10
196.4188309203677
 20
-6.0
 30
0.0
 11
191.06143173406161
 21
-0.6426008136938819
 31
0.0
  0
LINE
  5
1D6
  8
0
  6
CONTINUOUS
 62
     0
 10
205.0
 20
-10.338528392512901
 30
0.0
 11
195.4157208603157
 21
-0.7542492528286005
 31
0.0
  0
LINE
  5
1D7
  8
0
  6
CONTINUOUS
 62
     0
 10
205.0
 20
-6.0958877053936202
 30
0.0
 11
199.7700099865697
 21
-0.8658976919633225
 31
0.0
  0
LINE
  5
1D8
  8
0
  6
CONTINUOUS
 62
     0
 10
204.66953139083509
 20
-1.5227784091095109
 30
0.0
 11
204.4392530680544
 21
-1.292500086328741
 31
0.0
  0
LINE
  5
1D9
  8
0
  6
CONTINUOUS
 10
199.0
 20
-20.0
 30
0.0
 11
199.0
 21
-106.0
 31
0.0
  0
LINE
  5
1DA
  8
0
 10
181.12401574803141
 20
-33.612204724409459
 30
0.0
 11
167.53844890118879
 21
-33.960552592277217
 31
0.0
  0
LINE
  5
1DB
  8
0
  6
CONTINUOUS
 10
199.0
 20
-89.0
 30
0.0
 11
200.0
 21
-89.0
 31
0.0
  0
LINE
  5
1DC
  8
0
  6
CONTINUOUS
 10
200.0
 20
-89.0
 30
0.0
 11
200.0
 21
-105.0
 31
0.0
  0
LINE
  5
1DD
  8
0
  6
CONTINUOUS
 10
200.0
 20
-105.0
 30
0.0
 11
199.0
 21
-105.0
 31
0.0
  0
LINE
  5
1DE
  8
0
  6
CONTINUOUS
 10
197.5
 20
-107.4999999999999
 30
0.0
 11
187.40228120080431
 21
-107.4999999999999
 31
0.0
  0
LINE
  5
1DF
  8
0
  6
CONTINUOUS
 10
180.0
 20
-18.5
 30
0.0
 11
185.9056782861918
 21
-106.10089457851321
 31
0.0
  0
ARC
  5
1E0
  8
0
  6
CONTINUOUS
 10
197.5
 20
-106.0
 30
0.0
 40
1.5
 50
270.0
 51
0.0
  0
ARC
  5
1E1
  8
0
  6
CONTINUOUS
 10
187.40228120080431
 20
-106.0
 30
0.0
 40
1.5
 50
183.85680098558981
 51
270.0
  0
LINE
  5
1E2
  8
0
  6
CONTINUOUS
 10
200.11778194619691
 20
-92.878846500297414
 30
0.0
 11
206.61778194619691
 21
-92.878846500297414
 31
0.0
  0
ENDSEC
  0
EOF
