  0
SECTION
  2
HEADER
  9
$ACADVER
  1
AC1009
  9
$INSBASE
 10
0.0
 20
0.0
 30
0.0
  9
$EXTMIN
 10
-6.758788029615288
 20
-101.50086124192261
 30
-0.0015258207003583
  9
$EXTMAX
 10
438.31842144429493
 20
167.0212958772477
 30
0.0000000349246037
  9
$LIMMIN
 10
0.0
 20
0.0
  9
$LIMMAX
 10
420.0
 20
297.0
  9
$ORTHOMODE
 70
     0
  9
$REGENMODE
 70
     1
  9
$FILLMODE
 70
     1
  9
$QTEXTMODE
 70
     0
  9
$MIRRTEXT
 70
     1
  9
$DRAGMODE
 70
     2
  9
$LTSCALE
 40
1.0
  9
$OSMODE
 70
    40
  9
$ATTMODE
 70
     1
  9
$TEXTSIZE
 40
3.5
  9
$TRACEWID
 40
1.0
  9
$TEXTSTYLE
  7
STANDARD
  9
$CLAYER
  8
0
  9
$CELTYPE
  6
CONTINUOUS
  9
$CECOLOR
 62
   256
  9
$DIMSCALE
 40
1.0
  9
$DIMASZ
 40
2.5
  9
$DIMEXO
 40
0.625
  9
$DIMDLI
 40
3.75
  9
$DIMRND
 40
0.0
  9
$DIMDLE
 40
0.0
  9
$DIMEXE
 40
1.25
  9
$DIMTP
 40
0.0
  9
$DIMTM
 40
0.0
  9
$DIMTXT
 40
2.5
  9
$DIMCEN
 40
2.5
  9
$DIMTSZ
 40
0.0
  9
$DIMTOL
 70
     0
  9
$DIMLIM
 70
     0
  9
$DIMTIH
 70
     1
  9
$DIMTOH
 70
     0
  9
$DIMSE1
 70
     0
  9
$DIMSE2
 70
     0
  9
$DIMTAD
 70
     1
  9
$DIMZIN
 70
     8
  9
$DIMBLK
  1

  9
$DIMASO
 70
     1
  9
$DIMSHO
 70
     1
  9
$DIMPOST
  1

  9
$DIMAPOST
  1

  9
$DIMALT
 70
     0
  9
$DIMALTD
 70
     2
  9
$DIMALTF
 40
0.0394
  9
$DIMLFAC
 40
1.0
  9
$DIMTOFL
 70
     1
  9
$DIMTVP
 40
1.0
  9
$DIMTIX
 70
     0
  9
$DIMSOXD
 70
     0
  9
$DIMSAH
 70
     0
  9
$DIMBLK1
  1

  9
$DIMBLK2
  1

  9
$DIMSTYLE
  2
STANDARD
  9
$DIMCLRD
 70
     0
  9
$DIMCLRE
 70
     0
  9
$DIMCLRT
 70
     0
  9
$DIMTFAC
 40
1.0
  9
$DIMGAP
 40
0.625
  9
$LUNITS
 70
     2
  9
$LUPREC
 70
     4
  9
$SKETCHINC
 40
1.0
  9
$FILLETRAD
 40
1.5
  9
$AUNITS
 70
     0
  9
$AUPREC
 70
     0
  9
$MENU
  1
acad
  9
$ELEVATION
 40
0.0
  9
$PELEVATION
 40
0.0
  9
$THICKNESS
 40
0.0
  9
$LIMCHECK
 70
     0
  9
$BLIPMODE
 70
     0
  9
$CHAMFERA
 40
10.0
  9
$CHAMFERB
 40
10.0
  9
$SKPOLY
 70
     0
  9
$TDCREATE
 40
2450483.4109805552
  9
$TDUPDATE
 40
2452236.629834617
  9
$TDINDWG
 40
0.1347746759
  9
$TDUSRTIMER
 40
0.1347746759
  9
$USRTIMER
 70
     1
  9
$ANGBASE
 50
0.0
  9
$ANGDIR
 70
     0
  9
$PDMODE
 70
     0
  9
$PDSIZE
 40
0.0
  9
$PLINEWID
 40
0.0
  9
$COORDS
 70
     2
  9
$SPLFRAME
 70
     0
  9
$SPLINETYPE
 70
     6
  9
$SPLINESEGS
 70
     8
  9
$ATTDIA
 70
     0
  9
$ATTREQ
 70
     1
  9
$HANDLING
 70
-16383
  9
$HANDSEED
  5
424
  9
$SURFTAB1
 70
     6
  9
$SURFTAB2
 70
     6
  9
$SURFTYPE
 70
     6
  9
$SURFU
 70
     6
  9
$SURFV
 70
     6
  9
$UCSNAME
  2

  9
$UCSORG
 10
0.0
 20
0.0
 30
0.0
  9
$UCSXDIR
 10
1.0
 20
0.0
 30
0.0
  9
$UCSYDIR
 10
0.0
 20
1.0
 30
0.0
  9
$PUCSNAME
  2

  9
$PUCSORG
 10
0.0
 20
0.0
 30
0.0
  9
$PUCSXDIR
 10
1.0
 20
0.0
 30
0.0
  9
$PUCSYDIR
 10
0.0
 20
1.0
 30
0.0
  9
$USERI1
 70
     0
  9
$USERI2
 70
     0
  9
$USERI3
 70
     0
  9
$USERI4
 70
     0
  9
$USERI5
 70
     0
  9
$USERR1
 40
0.0
  9
$USERR2
 40
0.0
  9
$USERR3
 40
0.0
  9
$USERR4
 40
0.0
  9
$USERR5
 40
0.0
  9
$WORLDVIEW
 70
     1
  9
$SHADEDGE
 70
     3
  9
$SHADEDIF
 70
    70
  9
$TILEMODE
 70
     1
  9
$MAXACTVP
 70
    16
  9
$PLIMCHECK
 70
     0
  9
$PEXTMIN
 10
1.0000000000000000E+020
 20
1.0000000000000000E+020
 30
1.0000000000000000E+020
  9
$PEXTMAX
 10
-1.0000000000000000E+020
 20
-1.0000000000000000E+020
 30
-1.0000000000000000E+020
  9
$PLIMMIN
 10
0.0
 20
0.0
  9
$PLIMMAX
 10
420.0
 20
297.0
  9
$UNITMODE
 70
     0
  9
$VISRETAIN
 70
     0
  9
$PLINEGEN
 70
     0
  9
$PSLTSCALE
 70
     1
  0
ENDSEC
  0
SECTION
  2
TABLES
  0
TABLE
  2
VPORT
 70
     3
  0
VPORT
  2
*ACTIVE
 70
     0
 10
0.0
 20
0.0
 11
1.0
 21
1.0
 12
215.77981670733971
 22
32.76021731766258
 13
0.0
 23
0.0
 14
0.5
 24
0.5
 15
10.0
 25
10.0
 16
0.0
 26
0.0
 36
1.0
 17
0.0
 27
0.0
 37
0.0
 40
574.37025944658831
 41
1.5573979591836731
 42
50.0
 43
0.0
 44
0.0
 50
0.0
 51
0.0
 71
     0
 72
   100
 73
     1
 74
     0
 75
     1
 76
     0
 77
     0
 78
     0
  0
ENDTAB
  0
TABLE
  2
LTYPE
 70
    25
  0
LTYPE
  2
CONTINUOUS
 70
     0
  3
Solid line
 72
    65
 73
     0
 40
0.0
  0
LTYPE
  2
CENTER
 70
     0
  3
____ _ ____ _ ____ _ ____ _ ____ _ ____ _ ____ 
 72
    65
 73
     4
 40
2.0
 49
1.25
 49
-0.25
 49
0.25
 49
-0.25
  0
ENDTAB
  0
TABLE
  2
LAYER
 70
     1
  0
LAYER
  2
0
 70
     0
 62
     7
  6
CONTINUOUS
  0
ENDTAB
  0
TABLE
  2
STYLE
 70
     1
  0
STYLE
  2
STANDARD
 70
     0
 40
0.0
 41
1.0
 50
0.0
 71
     0
 42
3.5
  3
txt
  4

  0
ENDTAB
  0
TABLE
  2
VIEW
 70
     0
  0
ENDTAB
  0
TABLE
  2
UCS
 70
     0
  0
ENDTAB
  0
TABLE
  2
APPID
 70
     1
  0
APPID
  2
ACAD
 70
     0
  0
ENDTAB
  0
TABLE
  2
DIMSTYLE
 70
     1
  0
DIMSTYLE
  2
STANDARD
 70
     0
  3

  4

  5

  6

  7

 40
1.0
 41
0.18
 42
0.0625
 43
0.38
 44
0.18
 45
0.0
 46
0.0
 47
0.0
 48
0.0
140
0.18
141
0.09
142
0.0
143
25.399999999999999
144
1.0
145
0.0
146
1.0
147
0.09
 71
     0
 72
     0
 73
     1
 74
     1
 75
     0
 76
     0
 77
     0
 78
     0
170
     0
171
     2
172
     0
173
     0
174
     0
175
     0
176
     0
177
     0
178
     0
  0
ENDTAB
  0
ENDSEC
  0
SECTION
  2
BLOCKS
  0
BLOCK
  8
0
  2
$MODEL_SPACE
 70
     0
 10
0.0
 20
0.0
 30
0.0
  3
$MODEL_SPACE
  1

  0
ENDBLK
  5
52
  8
0
  0
BLOCK
 67
     1
  8
0
  2
$PAPER_SPACE
 70
     0
 10
0.0
 20
0.0
 30
0.0
  3
$PAPER_SPACE
  1

  0
ENDBLK
  5
50
 67
     1
  8
0
  0
BLOCK
  8
0
  2
*X5
 70
     1
 10
0.0
 20
0.0
 30
0.0
  3
*X5
  1

  0
LINE
  5
B6
  8
0
  6
CONTINUOUS
 62
     0
 10
195.0
 20
36.608081014213361
 30
0.0
 11
196.5
 21
38.108081014213361
 31
0.0
  0
LINE
  5
B7
  8
0
  6
CONTINUOUS
 62
     0
 10
195.0
 20
39.436508138959539
 30
0.0
 11
196.5
 21
40.936508138959539
 31
0.0
  0
LINE
  5
B8
  8
0
  6
CONTINUOUS
 62
     0
 10
195.0
 20
42.264935263705738
 30
0.0
 11
196.5
 21
43.764935263705731
 31
0.0
  0
LINE
  5
B9
  8
0
  6
CONTINUOUS
 62
     0
 10
195.0
 20
45.093362388451922
 30
0.0
 11
196.5
 21
46.593362388451929
 31
0.0
  0
LINE
  5
BA
  8
0
  6
CONTINUOUS
 62
     0
 10
195.0
 20
47.921789513198121
 30
0.0
 11
196.5
 21
49.421789513198121
 31
0.0
  0
LINE
  5
BB
  8
0
  6
CONTINUOUS
 62
     0
 10
196.63686835190319
 20
49.558657865101409
 30
0.0
 11
199.07821048680179
 21
52.0
 31
0.0
  0
LINE
  5
BC
  8
0
  6
CONTINUOUS
 62
     0
 10
195.0
 20
50.750216637944312
 30
0.0
 11
196.24978336205561
 21
52.0
 31
0.0
  0
LINE
  5
BD
  8
0
  6
CONTINUOUS
 62
     0
 10
195.0
 20
33.77965388946717
 30
0.0
 11
196.5
 21
35.27965388946717
 31
0.0
  0
LINE
  5
BE
  8
0
  6
CONTINUOUS
 62
     0
 10
195.0
 20
30.951226764720971
 30
0.0
 11
196.5
 21
32.451226764720978
 31
0.0
  0
LINE
  5
BF
  8
0
  6
CONTINUOUS
 62
     0
 10
195.0
 20
28.12279963997479
 30
0.0
 11
196.5
 21
29.622799639974779
 31
0.0
  0
ENDBLK
  5
C0
  8
0
  0
BLOCK
  8
0
  2
*X7
 70
     1
 10
0.0
 20
0.0
 30
0.0
  3
*X7
  1

  0
LINE
  5
E5
  8
0
  6
CONTINUOUS
 62
     0
 10
27.0
 20
-71.994949366116643
 30
0.0
 11
28.0
 21
-70.994949366116643
 31
0.0
  0
LINE
  5
E6
  8
0
  6
CONTINUOUS
 62
     0
 10
27.0
 20
-69.166522241370444
 30
0.0
 11
28.0
 21
-68.166522241370444
 31
0.0
  0
LINE
  5
E7
  8
0
  6
CONTINUOUS
 62
     0
 10
27.0
 20
-66.33809511662426
 30
0.0
 11
29.83809511662426
 21
-63.5
 31
0.0
  0
LINE
  5
E8
  8
0
  6
CONTINUOUS
 62
     0
 10
27.0
 20
-63.509667991878082
 30
0.0
 11
27.009667991878072
 21
-63.5
 31
0.0
  0
LINE
  5
E9
  8
0
  6
CONTINUOUS
 62
     0
 10
27.0
 20
-74.823376490862842
 30
0.0
 11
28.0
 21
-73.823376490862827
 31
0.0
  0
LINE
  5
EA
  8
0
  6
CONTINUOUS
 62
     0
 10
27.0
 20
-77.651803615609026
 30
0.0
 11
28.0
 21
-76.651803615609026
 31
0.0
  0
ENDBLK
  5
EB
  8
0
  0
BLOCK
  8
0
  2
*X12
 70
     1
 10
0.0
 20
0.0
 30
0.0
  3
*X12
  1

  0
LINE
  5
168
  8
0
  6
CONTINUOUS
 62
     0
 10
196.5
 20
-75.029003975634225
 30
0.0
 11
197.5
 21
-74.029003975634225
 31
0.0
  0
LINE
  5
169
  8
0
  6
CONTINUOUS
 62
     0
 10
196.5
 20
-72.200576850888041
 30
0.0
 11
197.5
 21
-71.200576850888041
 31
0.0
  0
LINE
  5
16A
  8
0
  6
CONTINUOUS
 62
     0
 10
196.5
 20
-69.372149726141856
 30
0.0
 11
198.8721497261418
 21
-67.0
 31
0.0
  0
LINE
  5
16B
  8
0
  6
CONTINUOUS
 62
     0
 10
196.5
 20
-77.857431100380424
 30
0.0
 11
197.5
 21
-76.857431100380424
 31
0.0
  0
ENDBLK
  5
16C
  8
0
  0
BLOCK
  8
0
  2
*X15
 70
     1
 10
0.0
 20
0.0
 30
0.0
  3
*X15
  1

  0
LINE
  5
19E
  8
0
  6
CONTINUOUS
 62
     0
 10
195.0
 20
141.2598846298223
 30
0.0
 11
196.5
 21
142.7598846298223
 31
0.0
  0
LINE
  5
19F
  8
0
  6
CONTINUOUS
 62
     0
 10
195.0
 20
144.08831175456851
 30
0.0
 11
196.5
 21
145.58831175456851
 31
0.0
  0
LINE
  5
1A0
  8
0
  6
CONTINUOUS
 62
     0
 10
195.0
 20
146.91673887931469
 30
0.0
 11
196.5
 21
148.41673887931469
 31
0.0
  0
LINE
  5
1A1
  8
0
  6
CONTINUOUS
 62
     0
 10
195.0
 20
149.74516600406091
 30
0.0
 11
196.5
 21
151.24516600406091
 31
0.0
  0
LINE
  5
1A2
  8
0
  6
CONTINUOUS
 62
     0
 10
195.0
 20
152.57359312880709
 30
0.0
 11
198.9264068711928
 21
156.49999999999989
 31
0.0
  0
LINE
  5
1A3
  8
0
  6
CONTINUOUS
 62
     0
 10
195.0
 20
155.4020202535533
 30
0.0
 11
196.09797974644661
 21
156.49999999999989
 31
0.0
  0
LINE
  5
1A4
  8
0
  6
CONTINUOUS
 62
     0
 10
195.0
 20
138.43145750507611
 30
0.0
 11
196.5
 21
139.9314575050762
 31
0.0
  0
LINE
  5
1A5
  8
0
  6
CONTINUOUS
 62
     0
 10
195.0
 20
135.60303038033001
 30
0.0
 11
196.5
 21
137.10303038033001
 31
0.0
  0
LINE
  5
1A6
  8
0
  6
CONTINUOUS
 62
     0
 10
195.0
 20
132.7746032555838
 30
0.0
 11
196.5
 21
134.2746032555838
 31
0.0
  0
ENDBLK
  5
1A7
  8
0
  0
ENDSEC
  0
SECTION
  2
ENTITIES
  0
ARC
  5
1FC
  8
0
 10
30.0
 20
178.75
 30
0.0
 40
181.25
 50
261.70490029483881
 51
278.29509970516108
  0
LINE
  5
1FD
  8
0
 10
60.0
 20
3.8491352222636972
 30
0.0
 11
60.0
 21
6.5
 31
0.0
  0
LINE
  5
1FE
  8
0
 10
-0.0000000000000046
 20
3.8491352222636972
 30
0.0
 11
-0.0000000000000046
 21
6.5
 31
0.0
  0
ARC
  5
1FF
  8
0
 10
55.500000000000007
 20
3.8491352222636972
 30
0.0
 40
4.5
 50
278.29509970516028
 51
0.0
  0
ARC
  5
200
  8
0
 10
4.4999999999999956
 20
3.8491352222636972
 30
0.0
 40
4.5
 50
180.0
 51
261.70490029483938
  0
ARC
  5
201
  8
0
 10
30.0
 20
-165.74999999999989
 30
0.0
 40
181.25
 50
81.704900294838893
 51
98.295099705161107
  0
ARC
  5
202
  8
0
 10
4.4999999999999956
 20
9.1508647777363024
 30
0.0
 40
4.5
 50
98.295099705160567
 51
180.0
  0
LINE
  5
203
  8
0
 10
-0.0000000000000046
 20
9.1508647777363024
 30
0.0
 11
-0.0000000000000046
 21
6.5
 31
0.0
  0
ARC
  5
204
  8
0
 10
55.500000000000007
 20
9.1508647777363024
 30
0.0
 40
4.5
 50
0.0
 51
81.704900294839646
  0
LINE
  5
205
  8
0
 10
60.0
 20
9.1508647777363024
 30
0.0
 11
60.0
 21
6.5
 31
0.0
  0
LINE
  5
206
  8
0
 10
22.999999999999989
 20
25.999999999999989
 30
0.0
 11
37.0
 21
26.0
 31
0.0
  0
LINE
  5
207
  8
0
 10
38.0
 20
27.0
 30
0.0
 11
38.0
 21
45.126290006043313
 31
0.0
  0
LINE
  5
208
  8
0
 10
21.999999999999989
 20
26.999999999999989
 30
0.0
 11
22.0
 21
45.174429763881179
 31
0.0
  0
LINE
  5
209
  8
0
 10
44.810679228399877
 20
51.071271014309097
 30
0.0
 11
58.297330192900027
 21
49.232182246422731
 31
0.0
  0
LINE
  5
20A
  8
0
 10
60.0
 20
50.71842749848917
 30
0.0
 11
60.0
 21
53.76761354758213
 31
0.0
  0
LINE
  5
20B
  8
0
 10
15.17082380853121
 20
51.116859136074119
 30
0.0
 11
1.707294047867195
 21
49.238227076446577
 31
0.0
  0
LINE
  5
20C
  8
0
 10
0.0000000000000002
 20
50.723834419494821
 30
0.0
 11
0.0000000000000001
 21
53.76761354758213
 31
0.0
  0
ARC
  5
20D
  8
0
 10
30.0
 20
-93.499999999999986
 30
0.0
 40
151.5
 50
79.047215801108877
 51
100.9527841988911
  0
ARC
  5
20E
  8
0
 10
44.0
 20
45.126290006043313
 30
0.0
 40
6.0
 50
82.234833981574667
 51
180.0
  0
ARC
  5
20F
  8
0
 10
16.0
 20
45.174429763881179
 30
0.0
 40
6.0
 50
0.0
 51
97.943471810590395
  0
ARC
  5
210
  8
0
 10
58.5
 20
50.71842749848917
 30
0.0
 40
1.5
 50
262.2348339815747
 51
0.0
  0
ARC
  5
211
  8
0
 10
1.5
 20
50.723834419494821
 30
0.0
 40
1.5
 50
180.0
 51
277.94347181059032
  0
ARC
  5
212
  8
0
 10
1.5
 20
53.76761354758213
 30
0.0
 40
1.5
 50
100.9527841988909
 51
180.0
  0
ARC
  5
213
  8
0
 10
58.5
 20
53.76761354758213
 30
0.0
 40
1.5
 50
0.0
 51
79.047215801109175
  0
ARC
  5
214
  8
0
 10
37.0
 20
27.0
 30
0.0
 40
1.0
 50
270.0
 51
0.0
  0
ARC
  5
215
  8
0
 10
22.999999999999989
 20
26.999999999999989
 30
0.0
 40
1.0
 50
180.0
 51
270.0
  0
LINE
  5
216
  8
0
 10
91.0
 20
26.0
 30
0.0
 11
105.0
 21
26.0
 31
0.0
  0
LINE
  5
217
  8
0
 10
106.0
 20
27.0
 30
0.0
 11
106.0
 21
56.5
 31
0.0
  0
LINE
  5
218
  8
0
 10
104.4999999999999
 20
58.0
 30
0.0
 11
91.5
 21
58.0
 31
0.0
  0
LINE
  5
219
  8
0
 10
90.0
 20
56.5
 30
0.0
 11
90.0
 21
27.0
 31
0.0
  0
LINE
  5
21A
  8
0
 10
91.5
 20
55.0
 30
0.0
 11
104.4999999999999
 21
55.0
 31
0.0
  0
LINE
  5
21B
  8
0
 10
91.5
 20
49.0
 30
0.0
 11
104.4999999999999
 21
49.0
 31
0.0
  0
ARC
  5
21C
  8
0
 10
91.0
 20
27.0
 30
0.0
 40
1.0
 50
180.0
 51
270.0
  0
ARC
  5
21D
  8
0
 10
105.0
 20
27.0
 30
0.0
 40
1.0
 50
270.0
 51
0.0
  0
ARC
  5
21E
  8
0
 10
91.5
 20
50.5
 30
0.0
 40
1.5
 50
180.0
 51
270.0
  0
ARC
  5
21F
  8
0
 10
104.4999999999999
 20
50.5
 30
0.0
 40
1.5
 50
270.0
 51
0.0
  0
ARC
  5
220
  8
0
 10
91.5
 20
53.5
 30
0.0
 40
1.5
 50
90.0
 51
180.0
  0
ARC
  5
221
  8
0
 10
104.4999999999999
 20
53.5
 30
0.0
 40
1.5
 50
0.0
 51
90.0
  0
ARC
  5
222
  8
0
 10
104.4999999999999
 20
56.5
 30
0.0
 40
1.5
 50
0.0
 51
90.0
  0
ARC
  5
223
  8
0
 10
91.5
 20
56.5
 30
0.0
 40
1.5
 50
90.0
 51
180.0
  0
LINE
  5
224
  8
0
 10
230.0
 20
50.71842749848917
 30
0.0
 11
230.0
 21
53.76761354758213
 31
0.0
  0
LINE
  5
225
  8
0
 10
170.0
 20
50.723834419494821
 30
0.0
 11
170.0
 21
53.76761354758213
 31
0.0
  0
LINE
  5
226
  8
0
 10
185.1708238085312
 20
51.116859136074119
 30
0.0
 11
171.70729404786721
 21
49.238227076446577
 31
0.0
  0
ARC
  5
227
  8
0
 10
200.0
 20
-165.74999999999989
 30
0.0
 40
181.25
 50
81.704900294838893
 51
98.295099705161107
  0
ARC
  5
228
  8
0
 10
200.0
 20
178.75
 30
0.0
 40
181.25
 50
261.70490029483881
 51
278.29509970516108
  0
LINE
  5
229
  8
0
 10
170.0
 20
9.1508647777363024
 30
0.0
 11
170.0
 21
6.5
 31
0.0
  0
ARC
  5
22A
  8
0
 10
174.5
 20
3.8491352222636972
 30
0.0
 40
4.5
 50
180.0
 51
261.70490029483938
  0
LINE
  5
22B
  8
0
 10
170.0
 20
3.8491352222636972
 30
0.0
 11
170.0
 21
6.5
 31
0.0
  0
ARC
  5
22C
  8
0
 10
174.5
 20
9.1508647777363024
 30
0.0
 40
4.5
 50
98.295099705160567
 51
180.0
  0
ARC
  5
22D
  8
0
 10
171.5
 20
50.723834419494821
 30
0.0
 40
1.5
 50
180.0
 51
277.94347181059032
  0
LINE
  5
22E
  8
0
 10
230.0
 20
9.1508647777363024
 30
0.0
 11
230.0
 21
6.5
 31
0.0
  0
ARC
  5
22F
  8
0
 10
225.49999999999989
 20
3.8491352222636972
 30
0.0
 40
4.5
 50
278.29509970516028
 51
0.0
  0
LINE
  5
230
  8
0
 10
230.0
 20
3.8491352222636972
 30
0.0
 11
230.0
 21
6.5
 31
0.0
  0
LINE
  5
231
  8
0
 10
214.81067922839989
 20
51.071271014309097
 30
0.0
 11
228.29733019290001
 21
49.232182246422731
 31
0.0
  0
LINE
  5
232
  8
0
 10
192.0
 20
26.999999999999989
 30
0.0
 11
192.0
 21
45.174429763881179
 31
0.0
  0
LINE
  5
233
  8
0
 10
208.0
 20
27.0
 30
0.0
 11
208.0
 21
45.126290006043313
 31
0.0
  0
LINE
  5
234
  8
0
 10
193.0
 20
25.999999999999989
 30
0.0
 11
207.0
 21
26.0
 31
0.0
  0
ARC
  5
235
  8
0
 10
193.0
 20
26.999999999999989
 30
0.0
 40
1.0
 50
180.0
 51
270.0
  0
ARC
  5
236
  8
0
 10
207.0
 20
27.0
 30
0.0
 40
1.0
 50
270.0
 51
0.0
  0
ARC
  5
237
  8
0
 10
186.0
 20
45.174429763881179
 30
0.0
 40
6.0
 50
0.0
 51
97.943471810590395
  0
ARC
  5
238
  8
0
 10
214.0
 20
45.126290006043313
 30
0.0
 40
6.0
 50
82.234833981574667
 51
180.0
  0
ARC
  5
239
  8
0
 10
225.49999999999989
 20
9.1508647777363024
 30
0.0
 40
4.5
 50
0.0
 51
81.704900294839646
  0
ARC
  5
23A
  8
0
 10
228.5
 20
50.71842749848917
 30
0.0
 40
1.5
 50
262.2348339815747
 51
0.0
  0
ARC
  5
23B
  8
0
 10
200.0
 20
-93.499999999999986
 30
0.0
 40
151.5
 50
79.047215801108877
 51
100.9527841988911
  0
ARC
  5
23C
  8
0
 10
171.5
 20
53.76761354758213
 30
0.0
 40
1.5
 50
100.9527841988909
 51
180.0
  0
ARC
  5
23D
  8
0
 10
228.5
 20
53.76761354758213
 30
0.0
 40
1.5
 50
0.0
 51
79.047215801109175
  0
LINE
  5
23E
  8
0
 10
260.0
 20
56.5
 30
0.0
 11
260.0
 21
27.0
 31
0.0
  0
LINE
  5
23F
  8
0
 10
276.0
 20
27.0
 30
0.0
 11
276.0
 21
56.5
 31
0.0
  0
LINE
  5
240
  8
0
 10
261.0
 20
26.0
 30
0.0
 11
275.0
 21
26.0
 31
0.0
  0
ARC
  5
241
  8
0
 10
261.0
 20
27.0
 30
0.0
 40
1.0
 50
180.0
 51
270.0
  0
ARC
  5
242
  8
0
 10
275.0
 20
27.0
 30
0.0
 40
1.0
 50
270.0
 51
0.0
  0
LINE
  5
243
  8
0
 10
261.5
 20
49.0
 30
0.0
 11
274.5
 21
49.0
 31
0.0
  0
ARC
  5
244
  8
0
 10
261.5
 20
50.5
 30
0.0
 40
1.5
 50
180.0
 51
270.0
  0
ARC
  5
245
  8
0
 10
274.5
 20
50.5
 30
0.0
 40
1.5
 50
270.0
 51
0.0
  0
LINE
  5
246
  8
0
 10
274.5
 20
58.0
 30
0.0
 11
261.5
 21
58.0
 31
0.0
  0
LINE
  5
247
  8
0
 10
261.5
 20
55.0
 30
0.0
 11
274.5
 21
55.0
 31
0.0
  0
ARC
  5
248
  8
0
 10
261.5
 20
56.5
 30
0.0
 40
1.5
 50
90.0
 51
180.0
  0
ARC
  5
249
  8
0
 10
261.5
 20
53.5
 30
0.0
 40
1.5
 50
90.0
 51
180.0
  0
ARC
  5
24A
  8
0
 10
274.5
 20
56.5
 30
0.0
 40
1.5
 50
0.0
 51
90.0
  0
ARC
  5
24B
  8
0
 10
274.5
 20
53.5
 30
0.0
 40
1.5
 50
0.0
 51
90.0
  0
LINE
  5
24C
  8
0
 10
26.5
 20
39.0
 30
0.0
 11
26.5
 21
26.0
 31
0.0
  0
LINE
  5
24D
  8
0
 10
30.0
 20
38.0
 30
0.0
 11
27.5
 21
36.5
 31
0.0
  0
LINE
  5
24E
  8
0
 10
27.5
 20
36.5
 30
0.0
 11
27.5
 21
26.0
 31
0.0
  0
LINE
  5
24F
  8
0
 10
26.5
 20
39.0
 30
0.0
 11
30.0
 21
39.0
 31
0.0
  0
LINE
  5
250
  8
0
 10
27.0
 20
26.0
 30
0.0
 11
27.0
 21
35.5
 31
0.0
  0
LINE
  5
251
  8
0
  6
CENTER
 10
30.0
 20
23.0
 30
0.0
 11
30.0
 21
59.5
 31
0.0
  0
LINE
  5
252
  8
0
  6
CONTINUOUS
 62
     0
 10
22.0
 20
30.485281374238561
 30
0.0
 11
26.5
 21
34.985281374238568
 31
0.0
  0
LINE
  5
253
  8
0
  6
CONTINUOUS
 62
     0
 10
22.0
 20
34.727922061357852
 30
0.0
 11
30.0
 21
42.727922061357852
 31
0.0
  0
LINE
  5
254
  8
0
  6
CONTINUOUS
 62
     0
 10
22.0
 20
38.970562748477143
 30
0.0
 11
30.0
 21
46.970562748477143
 31
0.0
  0
LINE
  5
255
  8
0
  6
CONTINUOUS
 62
     0
 10
22.0
 20
43.213203435596427
 30
0.0
 11
30.0
 21
51.213203435596419
 31
0.0
  0
LINE
  5
256
  8
0
  6
CONTINUOUS
 62
     0
 10
21.672825330910861
 20
47.128669453626571
 30
0.0
 11
30.0
 21
55.455844122715718
 31
0.0
  0
LINE
  5
257
  8
0
  6
CONTINUOUS
 62
     0
 10
19.972513960726211
 20
49.670998770561212
 30
0.0
 11
28.29188566104694
 21
57.990370470881942
 31
0.0
  0
LINE
  5
258
  8
0
  6
CONTINUOUS
 62
     0
 10
17.126588450132989
 20
51.06771394708727
 30
0.0
 11
23.937526963289098
 21
57.878652460243387
 31
0.0
  0
LINE
  5
259
  8
0
  6
CONTINUOUS
 62
     0
 10
12.57021767796855
 20
50.753983862042119
 30
0.0
 11
19.448336271210731
 21
57.632102455284297
 31
0.0
  0
LINE
  5
25A
  8
0
  6
CONTINUOUS
 62
     0
 10
7.6395812037488477
 20
50.065988074941693
 30
0.0
 11
14.810182754735241
 21
57.236589625928112
 31
0.0
  0
LINE
  5
25B
  8
0
  6
CONTINUOUS
 62
     0
 10
2.7089447295291458
 20
49.377992287841273
 30
0.0
 11
10.005788966092179
 21
56.674836524404313
 31
0.0
  0
LINE
  5
25C
  8
0
  6
CONTINUOUS
 62
     0
 10
0.0000000000000002
 20
50.911688245431421
 30
0.0
 11
5.0136524265542048
 21
55.925340671985609
 31
0.0
  0
LINE
  5
25D
  8
0
  6
CONTINUOUS
 62
     0
 10
22.182058256942302
 20
26.424698944061589
 30
0.0
 11
26.5
 21
30.74264068711928
 31
0.0
  0
LINE
  5
25E
  8
0
  6
CONTINUOUS
 62
     0
 10
25.999999999999989
 20
25.999999999999989
 30
0.0
 11
26.5
 21
26.5
 31
0.0
  0
LINE
  5
25F
  8
0
  6
CONTINUOUS
 62
     0
 10
28.882250993908549
 20
39.0
 30
0.0
 11
21.952233840961249
 21
45.930017152947329
 31
0.0
  0
LINE
  5
260
  8
0
  6
CONTINUOUS
 62
     0
 10
16.755587389066122
 20
51.126663604842442
 30
0.0
 11
11.069609137677171
 21
56.81264185623138
 31
0.0
  0
LINE
  5
261
  8
0
  6
CONTINUOUS
 62
     0
 10
26.5
 20
37.139610306789272
 30
0.0
 11
22.0
 21
41.639610306789272
 31
0.0
  0
LINE
  5
262
  8
0
  6
CONTINUOUS
 62
     0
 10
12.84700496310079
 20
50.792605343688493
 30
0.0
 11
7.343330838602899
 21
56.29627946818637
 31
0.0
  0
LINE
  5
263
  8
0
  6
CONTINUOUS
 62
     0
 10
26.5
 20
32.896969619669989
 30
0.0
 11
22.0
 21
37.396969619669989
 31
0.0
  0
LINE
  5
264
  8
0
  6
CONTINUOUS
 62
     0
 10
9.1238712988940716
 20
50.273098320775908
 30
0.0
 11
3.6976516823057919
 21
55.699317937364199
 31
0.0
  0
LINE
  5
265
  8
0
  6
CONTINUOUS
 62
     0
 10
26.5
 20
28.654328932550701
 30
0.0
 11
22.0
 21
33.15432893255069
 31
0.0
  0
LINE
  5
266
  8
0
  6
CONTINUOUS
 62
     0
 10
5.4007376346873501
 20
49.753591297863352
 30
0.0
 11
0.3842110317241978
 21
54.770117900826499
 31
0.0
  0
LINE
  5
267
  8
0
  6
CONTINUOUS
 62
     0
 10
24.911688245431431
 20
25.999999999999989
 30
0.0
 11
22.0
 21
28.911688245431431
 31
0.0
  0
LINE
  5
268
  8
0
  6
CONTINUOUS
 62
     0
 10
30.0
 20
42.12489168102784
 30
0.0
 11
14.88116592076733
 21
57.243725760260517
 31
0.0
  0
LINE
  5
269
  8
0
  6
CONTINUOUS
 62
     0
 10
30.0
 20
46.367532368147117
 30
0.0
 11
18.783329664537039
 21
57.584202703610103
 31
0.0
  0
LINE
  5
26A
  8
0
  6
CONTINUOUS
 62
     0
 10
30.0
 20
50.610173055266408
 30
0.0
 11
22.78220651501293
 21
57.827966540253477
 31
0.0
  0
LINE
  5
26B
  8
0
  6
CONTINUOUS
 62
     0
 10
30.0
 20
54.852813742385699
 30
0.0
 11
26.884844177201131
 21
57.967969565184568
 31
0.0
  0
LINE
  5
26C
  8
0
  6
CONTINUOUS
 62
     0
 10
1.677334439015842
 20
49.234353806415562
 30
0.0
 11
0.0000000000000002
 21
50.911688245431407
 31
0.0
  0
LINE
  5
26D
  8
0
  6
CONTINUOUS
 62
     0
 10
26.5
 20
26.5
 30
0.0
 11
27.5
 21
27.5
 31
0.0
  0
LINE
  5
26E
  8
0
  6
CONTINUOUS
 62
     0
 10
26.5
 20
29.328427124746181
 30
0.0
 11
27.5
 21
30.328427124746181
 31
0.0
  0
LINE
  5
26F
  8
0
  6
CONTINUOUS
 62
     0
 10
26.5
 20
32.156854249492369
 30
0.0
 11
27.5
 21
33.156854249492369
 31
0.0
  0
LINE
  5
270
  8
0
  6
CONTINUOUS
 62
     0
 10
26.5
 20
34.985281374238568
 30
0.0
 11
27.5
 21
35.985281374238568
 31
0.0
  0
LINE
  5
271
  8
0
  6
CONTINUOUS
 62
     0
 10
28.786796564403581
 20
37.272077938642148
 30
0.0
 11
30.0
 21
38.485281374238568
 31
0.0
  0
LINE
  5
272
  8
0
  6
CONTINUOUS
 62
     0
 10
26.5
 20
37.813708498984752
 30
0.0
 11
27.686291501015241
 21
39.0
 31
0.0
  0
LINE
  5
273
  8
0
  6
CONTINUOUS
 10
195.0
 20
26.0
 30
0.0
 11
195.0
 21
52.0
 31
0.0
  0
LINE
  5
274
  8
0
  6
CONTINUOUS
 10
195.0
 20
52.0
 30
0.0
 11
200.0
 21
52.0
 31
0.0
  0
LINE
  5
275
  8
0
  6
CONTINUOUS
 10
196.5
 20
26.0
 30
0.0
 11
196.5
 21
49.5
 31
0.0
  0
LINE
  5
276
  8
0
  6
CENTER
 10
200.0
 20
23.0
 30
0.0
 11
200.0
 21
61.5
 31
0.0
  0
LINE
  5
277
  8
0
  6
CONTINUOUS
 10
196.5
 20
49.5
 30
0.0
 11
200.0
 21
51.0
 31
0.0
  0
LINE
  5
278
  8
0
  6
CONTINUOUS
 10
196.0
 20
26.0
 30
0.0
 11
196.0
 21
47.5
 31
0.0
  0
INSERT
  5
279
  8
0
  6
CONTINUOUS
  2
*X5
 10
0.0
 20
0.0
 30
0.0
1001
ACAD
1000
HATCH
1002
{
1070
    16
1000
_U
1040
2.0
1040
0.7853981633974483
1070
     0
1002
}
  0
LINE
  5
27A
  8
0
  6
CONTINUOUS
 10
196.5
 20
26.5
 30
0.0
 11
196.0
 21
26.0
 31
0.0
  0
LINE
  5
27B
  8
0
  6
CONTINUOUS
 62
     0
 10
191.99999999999989
 20
35.02229457658644
 30
0.0
 11
195.0
 21
38.022294576586447
 31
0.0
  0
LINE
  5
27C
  8
0
  6
CONTINUOUS
 62
     0
 10
191.99999999999989
 20
39.264935263705731
 30
0.0
 11
195.0
 21
42.264935263705738
 31
0.0
  0
LINE
  5
27D
  8
0
  6
CONTINUOUS
 62
     0
 10
191.99999999999989
 20
43.507575950825007
 30
0.0
 11
195.0
 21
46.507575950825007
 31
0.0
  0
LINE
  5
27E
  8
0
  6
CONTINUOUS
 62
     0
 10
191.59394776490359
 20
47.344164402847987
 30
0.0
 11
195.0
 21
50.750216637944312
 31
0.0
  0
LINE
  5
27F
  8
0
  6
CONTINUOUS
 62
     0
 10
196.24978336205569
 20
52.0
 30
0.0
 11
200.0
 21
55.750216637944312
 31
0.0
  0
LINE
  5
280
  8
0
  6
CONTINUOUS
 62
     0
 10
189.81364592365841
 20
49.806503248722088
 30
0.0
 11
197.99385958649029
 21
57.98671691155397
 31
0.0
  0
LINE
  5
281
  8
0
  6
CONTINUOUS
 62
     0
 10
186.8748141761717
 20
51.110312188354591
 30
0.0
 11
193.63054867538631
 21
57.866046687569181
 31
0.0
  0
LINE
  5
282
  8
0
  6
CONTINUOUS
 62
     0
 10
182.2281090791893
 20
50.70624777849153
 30
0.0
 11
189.13150998250649
 21
57.609648681808679
 31
0.0
  0
LINE
  5
283
  8
0
  6
CONTINUOUS
 62
     0
 10
177.29747260496961
 20
50.018251991391097
 30
0.0
 11
184.48242150030779
 21
57.20320088672932
 31
0.0
  0
LINE
  5
284
  8
0
  6
CONTINUOUS
 62
     0
 10
172.3668361307499
 20
49.33025620429067
 30
0.0
 11
179.66575219564581
 21
56.62917226918664
 31
0.0
  0
LINE
  5
285
  8
0
  6
CONTINUOUS
 62
     0
 10
170.0
 20
51.206060760660009
 30
0.0
 11
174.65965447827881
 21
55.865715238938911
 31
0.0
  0
LINE
  5
286
  8
0
  6
CONTINUOUS
 62
     0
 10
191.99999999999989
 20
30.779653889467149
 30
0.0
 11
195.0
 21
33.77965388946717
 31
0.0
  0
LINE
  5
287
  8
0
  6
CONTINUOUS
 62
     0
 10
192.07734952694011
 20
26.614362729288011
 30
0.0
 11
195.0
 21
29.537013202347879
 31
0.0
  0
LINE
  5
288
  8
0
  6
CONTINUOUS
 62
     0
 10
195.0
 20
42.58787847867994
 30
0.0
 11
191.9846586430985
 21
45.603219835581342
 31
0.0
  0
LINE
  5
289
  8
0
  6
CONTINUOUS
 62
     0
 10
186.42879007170009
 20
51.159088406979777
 30
0.0
 11
180.80836802518149
 21
56.779510453498361
 31
0.0
  0
LINE
  5
28A
  8
0
  6
CONTINUOUS
 62
     0
 10
195.0
 20
38.345237791560628
 30
0.0
 11
191.99999999999989
 21
41.34523779156067
 31
0.0
  0
LINE
  5
28B
  8
0
  6
CONTINUOUS
 62
     0
 10
182.5886780619818
 20
50.756559729578861
 30
0.0
 11
177.08782630090229
 21
56.25741149065837
 31
0.0
  0
LINE
  5
28C
  8
0
  6
CONTINUOUS
 62
     0
 10
195.0
 20
34.102597104441351
 30
0.0
 11
191.99999999999989
 21
37.102597104441386
 31
0.0
  0
LINE
  5
28D
  8
0
  6
CONTINUOUS
 62
     0
 10
178.86554439777501
 20
50.23705270666629
 30
0.0
 11
173.44758038496551
 21
55.655016719475881
 31
0.0
  0
LINE
  5
28E
  8
0
  6
CONTINUOUS
 62
     0
 10
195.0
 20
29.859956417322099
 30
0.0
 11
191.99999999999989
 21
32.859956417322117
 31
0.0
  0
LINE
  5
28F
  8
0
  6
CONTINUOUS
 62
     0
 10
175.14241073356831
 20
49.71754568375372
 30
0.0
 11
170.25528051069151
 21
54.604675906630533
 31
0.0
  0
LINE
  5
290
  8
0
  6
CONTINUOUS
 62
     0
 10
194.61731573020279
 20
25.999999999999989
 30
0.0
 11
192.0
 21
28.61731573020279
 31
0.0
  0
LINE
  5
291
  8
0
  6
CONTINUOUS
 62
     0
 10
195.0
 20
46.830519165799231
 30
0.0
 11
184.61384390815741
 21
57.216675257641789
 31
0.0
  0
LINE
  5
292
  8
0
  6
CONTINUOUS
 62
     0
 10
195.0
 20
51.073159852918501
 30
0.0
 11
188.50953358391601
 21
57.563626269002441
 31
0.0
  0
LINE
  5
293
  8
0
  6
CONTINUOUS
 62
     0
 10
198.3158005400378
 20
52.0
 30
0.0
 11
192.5014844161534
 21
57.81431612388436
 31
0.0
  0
LINE
  5
294
  8
0
  6
CONTINUOUS
 62
     0
 10
200.0
 20
54.558441227157097
 30
0.0
 11
196.5966725775871
 21
57.961768649569947
 31
0.0
  0
LINE
  5
295
  8
0
  6
CONTINUOUS
 62
     0
 10
171.3893981646894
 20
49.227917565513309
 30
0.0
 11
170.0040831460189
 21
50.613232584183912
 31
0.0
  0
ARC
  5
296
  8
0
  6
CONTINUOUS
 10
30.0
 20
107.5833333333333
 30
0.0
 40
209.08333333333329
 50
263.87183013018591
 51
276.12816986981397
  0
LINE
  5
297
  8
0
  6
CONTINUOUS
 10
54.999999999999943
 20
-97.322352965943864
 30
0.0
 11
55.0
 21
-94.500000000000014
 31
0.0
  0
LINE
  5
298
  8
0
  6
CONTINUOUS
 10
5.0
 20
-97.322352965943821
 30
0.0
 11
5.0
 21
-94.500000000000014
 31
0.0
  0
ARC
  5
299
  8
0
  6
CONTINUOUS
 10
51.999999999999943
 20
-97.322352965943821
 30
0.0
 40
3.0
 50
276.12816986981301
 51
359.99999999999892
  0
ARC
  5
29A
  8
0
  6
CONTINUOUS
 10
8.0
 20
-97.322352965943821
 30
0.0
 40
3.0
 50
180.0
 51
263.87183013018449
  0
ARC
  5
29B
  8
0
  6
CONTINUOUS
 10
30.0
 20
-296.58333333333331
 30
0.0
 40
209.08333333333329
 50
83.871830130185941
 51
96.128169869814116
  0
ARC
  5
29C
  8
0
  6
CONTINUOUS
 10
8.0
 20
-91.677647034056193
 30
0.0
 40
3.0
 50
96.128169869815437
 51
180.0
  0
LINE
  5
29D
  8
0
  6
CONTINUOUS
 10
5.0
 20
-91.677647034056193
 30
0.0
 11
5.0
 21
-94.500000000000014
 31
0.0
  0
ARC
  5
29E
  8
0
  6
CONTINUOUS
 10
51.999999999999943
 20
-91.677647034056193
 30
0.0
 40
3.0
 50
0.0000000000010687
 51
83.871830130187007
  0
LINE
  5
29F
  8
0
  6
CONTINUOUS
 10
54.999999999999943
 20
-91.677647034056136
 30
0.0
 11
55.0
 21
-94.500000000000014
 31
0.0
  0
LINE
  5
2A0
  8
0
  6
CONTINUOUS
 10
24.0
 20
-80.0
 30
0.0
 11
36.0
 21
-80.0
 31
0.0
  0
LINE
  5
2A1
  8
0
  6
CONTINUOUS
 10
37.0
 20
-79.0
 30
0.0
 11
37.0
 21
-66.433997741163452
 31
0.0
  0
LINE
  5
2A2
  8
0
  6
CONTINUOUS
 10
42.415227399268701
 20
-61.451268949939049
 30
0.0
 11
53.916954520146263
 21
-62.40974621001218
 31
0.0
  0
LINE
  5
2A3
  8
0
  6
CONTINUOUS
 10
55.0
 20
-61.41320045176731
 30
0.0
 11
55.0
 21
-58.854201805878141
 31
0.0
  0
LINE
  5
2A4
  8
0
  6
CONTINUOUS
 10
23.0
 20
-79.0
 30
0.0
 11
23.0
 21
-66.433997741163452
 31
0.0
  0
LINE
  5
2A5
  8
0
  6
CONTINUOUS
 10
17.584772600731299
 20
-61.451268949939049
 30
0.0
 11
6.0830454798537401
 21
-62.40974621001218
 31
0.0
  0
LINE
  5
2A6
  8
0
  6
CONTINUOUS
 10
5.0
 20
-61.41320045176731
 30
0.0
 11
5.0
 21
-58.854201805878141
 31
0.0
  0
ARC
  5
2A7
  8
0
  6
CONTINUOUS
 10
30.0
 20
-213.24999999999989
 30
0.0
 40
157.24999999999989
 50
81.164390130143715
 51
98.835609869856285
  0
ARC
  5
2A8
  8
0
  6
CONTINUOUS
 10
42.0
 20
-66.433997741163452
 30
0.0
 40
5.0
 50
85.236358309273825
 51
180.0
  0
ARC
  5
2A9
  8
0
  6
CONTINUOUS
 10
18.0
 20
-66.433997741163452
 30
0.0
 40
5.0
 50
0.0
 51
94.763641690726175
  0
ARC
  5
2AA
  8
0
  6
CONTINUOUS
 10
24.0
 20
-79.0
 30
0.0
 40
1.0
 50
180.0
 51
270.0
  0
ARC
  5
2AB
  8
0
  6
CONTINUOUS
 10
36.0
 20
-79.0
 30
0.0
 40
1.0
 50
270.0
 51
0.0
  0
ARC
  5
2AC
  8
0
  6
CONTINUOUS
 10
54.0
 20
-61.41320045176731
 30
0.0
 40
1.0
 50
265.23635830927378
 51
0.0
  0
ARC
  5
2AD
  8
0
  6
CONTINUOUS
 10
54.0
 20
-58.854201805878141
 30
0.0
 40
1.0
 50
0.0
 51
81.164390130145776
  0
ARC
  5
2AE
  8
0
  6
CONTINUOUS
 10
6.0
 20
-61.41320045176731
 30
0.0
 40
1.0
 50
180.0
 51
274.7636416907261
  0
ARC
  5
2AF
  8
0
  6
CONTINUOUS
 10
6.0
 20
-58.854201805878141
 30
0.0
 40
1.0
 50
98.835609869854295
 51
180.0
  0
LINE
  5
2B0
  8
0
  6
CONTINUOUS
 10
74.0
 20
-80.0
 30
0.0
 11
86.0
 21
-80.0
 31
0.0
  0
LINE
  5
2B1
  8
0
  6
CONTINUOUS
 10
87.0
 20
-79.0
 30
0.0
 11
87.0
 21
-57.0
 31
0.0
  0
LINE
  5
2B2
  8
0
  6
CONTINUOUS
 10
86.0
 20
-56.0
 30
0.0
 11
74.0
 21
-56.0
 31
0.0
  0
LINE
  5
2B3
  8
0
  6
CONTINUOUS
 10
73.0
 20
-57.0
 30
0.0
 11
73.0
 21
-79.0
 31
0.0
  0
LINE
  5
2B4
  8
0
  6
CONTINUOUS
 10
74.0
 20
-62.5
 30
0.0
 11
86.0
 21
-62.5
 31
0.0
  0
LINE
  5
2B5
  8
0
  6
CONTINUOUS
 10
86.0
 20
-58.0
 30
0.0
 11
74.0
 21
-58.0
 31
0.0
  0
ARC
  5
2B6
  8
0
  6
CONTINUOUS
 10
86.0
 20
-61.5
 30
0.0
 40
1.0
 50
270.0
 51
0.0
  0
ARC
  5
2B7
  8
0
  6
CONTINUOUS
 10
86.0
 20
-59.0
 30
0.0
 40
1.0
 50
0.0
 51
90.0
  0
ARC
  5
2B8
  8
0
  6
CONTINUOUS
 10
74.0
 20
-61.5
 30
0.0
 40
1.0
 50
180.0
 51
270.0
  0
ARC
  5
2B9
  8
0
  6
CONTINUOUS
 10
74.0
 20
-59.0
 30
0.0
 40
1.0
 50
90.0
 51
180.0
  0
ARC
  5
2BA
  8
0
  6
CONTINUOUS
 10
74.0
 20
-79.0
 30
0.0
 40
1.0
 50
180.0
 51
270.0
  0
ARC
  5
2BB
  8
0
  6
CONTINUOUS
 10
86.0
 20
-79.0
 30
0.0
 40
1.0
 50
270.0
 51
0.0
  0
ARC
  5
2BC
  8
0
  6
CONTINUOUS
 10
86.0
 20
-57.0
 30
0.0
 40
1.0
 50
0.0
 51
90.0
  0
ARC
  5
2BD
  8
0
  6
CONTINUOUS
 10
74.0
 20
-57.0
 30
0.0
 40
1.0
 50
90.0
 51
180.0
  0
LINE
  5
2BE
  8
0
  6
CONTINUOUS
 10
256.0
 20
-56.0
 30
0.0
 11
244.0
 21
-56.0
 31
0.0
  0
LINE
  5
2BF
  8
0
  6
CONTINUOUS
 10
244.0
 20
-80.0
 30
0.0
 11
256.0
 21
-80.0
 31
0.0
  0
LINE
  5
2C0
  8
0
  6
CONTINUOUS
 10
256.0
 20
-58.0
 30
0.0
 11
244.0
 21
-58.0
 31
0.0
  0
LINE
  5
2C1
  8
0
  6
CONTINUOUS
 10
244.0
 20
-62.5
 30
0.0
 11
256.0
 21
-62.5
 31
0.0
  0
ARC
  5
2C2
  8
0
  6
CONTINUOUS
 10
200.0
 20
-213.24999999999989
 30
0.0
 40
157.24999999999989
 50
81.164390130143715
 51
98.835609869856285
  0
LINE
  5
2C3
  8
0
  6
CONTINUOUS
 10
187.5847726007313
 20
-61.451268949939049
 30
0.0
 11
176.08304547985369
 21
-62.40974621001218
 31
0.0
  0
ARC
  5
2C4
  8
0
  6
CONTINUOUS
 10
200.0
 20
-296.58333333333331
 30
0.0
 40
209.08333333333329
 50
83.871830130185941
 51
96.128169869814116
  0
ARC
  5
2C5
  8
0
  6
CONTINUOUS
 10
200.0
 20
107.5833333333333
 30
0.0
 40
209.08333333333329
 50
263.87183013018591
 51
276.12816986981397
  0
ARC
  5
2C6
  8
0
  6
CONTINUOUS
 10
178.0
 20
-97.322352965943821
 30
0.0
 40
3.0
 50
180.0
 51
263.87183013018449
  0
ARC
  5
2C7
  8
0
  6
CONTINUOUS
 10
178.0
 20
-91.677647034056193
 30
0.0
 40
3.0
 50
96.128169869815437
 51
180.0
  0
LINE
  5
2C8
  8
0
  6
CONTINUOUS
 10
175.0
 20
-91.677647034056193
 30
0.0
 11
175.0
 21
-94.500000000000014
 31
0.0
  0
LINE
  5
2C9
  8
0
  6
CONTINUOUS
 10
175.0
 20
-97.322352965943821
 30
0.0
 11
175.0
 21
-94.500000000000014
 31
0.0
  0
ARC
  5
2CA
  8
0
  6
CONTINUOUS
 10
176.0
 20
-58.854201805878141
 30
0.0
 40
1.0
 50
98.835609869854295
 51
180.0
  0
ARC
  5
2CB
  8
0
  6
CONTINUOUS
 10
176.0
 20
-61.41320045176731
 30
0.0
 40
1.0
 50
180.0
 51
274.7636416907261
  0
LINE
  5
2CC
  8
0
  6
CONTINUOUS
 10
175.0
 20
-61.41320045176731
 30
0.0
 11
175.0
 21
-58.854201805878141
 31
0.0
  0
ARC
  5
2CD
  8
0
  6
CONTINUOUS
 10
221.99999999999989
 20
-97.322352965943821
 30
0.0
 40
3.0
 50
276.12816986981301
 51
359.99999999999892
  0
ARC
  5
2CE
  8
0
  6
CONTINUOUS
 10
221.99999999999989
 20
-91.677647034056193
 30
0.0
 40
3.0
 50
0.0000000000010687
 51
83.871830130187007
  0
LINE
  5
2CF
  8
0
  6
CONTINUOUS
 10
224.99999999999989
 20
-91.677647034056136
 30
0.0
 11
225.0
 21
-94.500000000000014
 31
0.0
  0
LINE
  5
2D0
  8
0
  6
CONTINUOUS
 10
224.99999999999989
 20
-97.322352965943864
 30
0.0
 11
225.0
 21
-94.500000000000014
 31
0.0
  0
LINE
  5
2D1
  8
0
  6
CONTINUOUS
 10
212.4152273992687
 20
-61.451268949939049
 30
0.0
 11
223.91695452014619
 21
-62.40974621001218
 31
0.0
  0
ARC
  5
2D2
  8
0
  6
CONTINUOUS
 10
188.0
 20
-66.433997741163452
 30
0.0
 40
5.0
 50
0.0
 51
94.763641690726175
  0
ARC
  5
2D3
  8
0
  6
CONTINUOUS
 10
212.0
 20
-66.433997741163452
 30
0.0
 40
5.0
 50
85.236358309273825
 51
180.0
  0
LINE
  5
2D4
  8
0
  6
CONTINUOUS
 10
194.0
 20
-80.0
 30
0.0
 11
206.0
 21
-80.0
 31
0.0
  0
LINE
  5
2D5
  8
0
  6
CONTINUOUS
 10
193.0
 20
-79.0
 30
0.0
 11
193.0
 21
-66.433997741163452
 31
0.0
  0
ARC
  5
2D6
  8
0
  6
CONTINUOUS
 10
194.0
 20
-79.0
 30
0.0
 40
1.0
 50
180.0
 51
270.0
  0
LINE
  5
2D7
  8
0
  6
CONTINUOUS
 10
207.0
 20
-79.0
 30
0.0
 11
207.0
 21
-66.433997741163452
 31
0.0
  0
ARC
  5
2D8
  8
0
  6
CONTINUOUS
 10
206.0
 20
-79.0
 30
0.0
 40
1.0
 50
270.0
 51
0.0
  0
LINE
  5
2D9
  8
0
  6
CONTINUOUS
 10
243.0
 20
-57.0
 30
0.0
 11
243.0
 21
-79.0
 31
0.0
  0
ARC
  5
2DA
  8
0
  6
CONTINUOUS
 10
244.0
 20
-79.0
 30
0.0
 40
1.0
 50
180.0
 51
270.0
  0
ARC
  5
2DB
  8
0
  6
CONTINUOUS
 10
224.0
 20
-61.41320045176731
 30
0.0
 40
1.0
 50
265.23635830927378
 51
0.0
  0
ARC
  5
2DC
  8
0
  6
CONTINUOUS
 10
224.0
 20
-58.854201805878141
 30
0.0
 40
1.0
 50
0.0
 51
81.164390130145776
  0
LINE
  5
2DD
  8
0
  6
CONTINUOUS
 10
225.0
 20
-61.41320045176731
 30
0.0
 11
225.0
 21
-58.854201805878141
 31
0.0
  0
ARC
  5
2DE
  8
0
  6
CONTINUOUS
 10
244.0
 20
-59.0
 30
0.0
 40
1.0
 50
90.0
 51
180.0
  0
ARC
  5
2DF
  8
0
  6
CONTINUOUS
 10
244.0
 20
-61.5
 30
0.0
 40
1.0
 50
180.0
 51
270.0
  0
ARC
  5
2E0
  8
0
  6
CONTINUOUS
 10
244.0
 20
-57.0
 30
0.0
 40
1.0
 50
90.0
 51
180.0
  0
LINE
  5
2E1
  8
0
  6
CONTINUOUS
 10
257.0
 20
-79.0
 30
0.0
 11
257.0
 21
-57.0
 31
0.0
  0
ARC
  5
2E2
  8
0
  6
CONTINUOUS
 10
256.0
 20
-79.0
 30
0.0
 40
1.0
 50
270.0
 51
0.0
  0
ARC
  5
2E3
  8
0
  6
CONTINUOUS
 10
256.0
 20
-57.0
 30
0.0
 40
1.0
 50
0.0
 51
90.0
  0
ARC
  5
2E4
  8
0
  6
CONTINUOUS
 10
256.0
 20
-59.0
 30
0.0
 40
1.0
 50
0.0
 51
90.0
  0
ARC
  5
2E5
  8
0
  6
CONTINUOUS
 10
256.0
 20
-61.5
 30
0.0
 40
1.0
 50
270.0
 51
0.0
  0
LINE
  5
2E6
  8
0
  6
CENTER
 10
30.0
 20
-83.0
 30
0.0
 11
30.0
 21
-53.0
 31
0.0
  0
LINE
  5
2E7
  8
0
  6
CONTINUOUS
 10
28.0
 20
-80.0
 30
0.0
 11
28.0
 21
-65.5
 31
0.0
  0
LINE
  5
2E8
  8
0
  6
CONTINUOUS
 10
28.0
 20
-65.5
 30
0.0
 11
30.0
 21
-64.5
 31
0.0
  0
LINE
  5
2E9
  8
0
  6
CONTINUOUS
 10
27.5
 20
-80.0
 30
0.0
 11
27.5
 21
-67.5
 31
0.0
  0
LINE
  5
2EA
  8
0
  6
CONTINUOUS
 10
27.0
 20
-80.0
 30
0.0
 11
27.0
 21
-63.5
 31
0.0
  0
LINE
  5
2EB
  8
0
  6
CONTINUOUS
 10
27.0
 20
-63.5
 30
0.0
 11
30.0
 21
-63.5
 31
0.0
  0
INSERT
  5
2EC
  8
0
  6
CONTINUOUS
  2
*X7
 10
0.0
 20
0.0
 30
0.0
1001
ACAD
1000
HATCH
1002
{
1070
    16
1000
_U
1040
2.0
1040
0.7853981633974483
1070
     0
1002
}
  0
LINE
  5
2ED
  8
0
  6
CONTINUOUS
 10
28.0
 20
-79.5
 30
0.0
 11
27.5
 21
-80.0
 31
0.0
  0
LINE
  5
2EE
  8
0
  6
CONTINUOUS
 62
     0
 10
27.0
 20
-69.426406871192853
 30
0.0
 11
22.868524097488631
 21
-65.294930968681498
 31
0.0
  0
LINE
  5
2EF
  8
0
  6
CONTINUOUS
 62
     0
 10
27.0
 20
-73.66904755831213
 30
0.0
 11
23.0
 21
-69.66904755831213
 31
0.0
  0
LINE
  5
2F0
  8
0
  6
CONTINUOUS
 62
     0
 10
27.0
 20
-77.911688245431421
 30
0.0
 11
23.0
 21
-73.911688245431407
 31
0.0
  0
LINE
  5
2F1
  8
0
  6
CONTINUOUS
 62
     0
 10
24.84567106744932
 20
-80.0
 30
0.0
 11
23.0
 21
-78.154328932550698
 31
0.0
  0
LINE
  5
2F2
  8
0
  6
CONTINUOUS
 62
     0
 10
23.0
 20
-70.338095116624245
 30
0.0
 11
27.0
 21
-66.33809511662426
 31
0.0
  0
LINE
  5
2F3
  8
0
  6
CONTINUOUS
 62
     0
 10
22.989243979949329
 20
-66.106210449555633
 30
0.0
 11
30.0
 21
-59.095454429504983
 31
0.0
  0
LINE
  5
2F4
  8
0
  6
CONTINUOUS
 62
     0
 10
21.73873488959153
 20
-63.114078852794151
 30
0.0
 11
28.848598341595299
 21
-56.0042154007904
 31
0.0
  0
LINE
  5
2F5
  8
0
  6
CONTINUOUS
 62
     0
 10
19.062073398927389
 20
-61.548099656339012
 30
0.0
 11
24.514464766310521
 21
-56.095708288955883
 31
0.0
  0
LINE
  5
2F6
  8
0
  6
CONTINUOUS
 62
     0
 10
14.673671674342319
 20
-61.693860693804801
 30
0.0
 11
20.0525873480047
 21
-56.31494502014241
 31
0.0
  0
LINE
  5
2F7
  8
0
  6
CONTINUOUS
 62
     0
 10
10.0453363793031
 20
-62.079555301724739
 30
0.0
 11
15.450336048595229
 21
-56.674555632432607
 31
0.0
  0
LINE
  5
2F8
  8
0
  6
CONTINUOUS
 62
     0
 10
5.5674436439594031
 20
-62.314807349949149
 30
0.0
 11
10.692432812676779
 21
-57.189818181231772
 31
0.0
  0
LINE
  5
2F9
  8
0
  6
CONTINUOUS
 62
     0
 10
5.0305000641389457
 20
-58.609110242650317
 30
0.0
 11
5.7549084367721779
 21
-57.884701870017103
 31
0.0
  0
LINE
  5
2FA
  8
0
  6
CONTINUOUS
 62
     0
 10
23.0
 20
-74.580735803743536
 30
0.0
 11
27.0
 21
-70.580735803743551
 31
0.0
  0
LINE
  5
2FB
  8
0
  6
CONTINUOUS
 62
     0
 10
23.0
 20
-78.823376490862827
 30
0.0
 11
27.0
 21
-74.823376490862842
 31
0.0
  0
LINE
  5
2FC
  8
0
  6
CONTINUOUS
 62
     0
 10
26.066017177982101
 20
-80.0
 30
0.0
 11
27.0
 21
-79.066017177982104
 31
0.0
  0
LINE
  5
2FD
  8
0
  6
CONTINUOUS
 62
     0
 10
27.0
 20
-65.183766184073562
 30
0.0
 11
18.25543183287504
 21
-56.439198016948609
 31
0.0
  0
LINE
  5
2FE
  8
0
  6
CONTINUOUS
 62
     0
 10
19.139066772481922
 20
-61.565473643674778
 30
0.0
 11
14.35390817192066
 21
-56.780315043113518
 31
0.0
  0
LINE
  5
2FF
  8
0
  6
CONTINUOUS
 62
     0
 10
14.99780225386572
 20
-61.666849812177837
 30
0.0
 11
10.5397377195051
 21
-57.208785277817242
 31
0.0
  0
LINE
  5
300
  8
0
  6
CONTINUOUS
 62
     0
 10
11.08151854267868
 20
-61.993206788110101
 30
0.0
 11
6.8079559049940057
 21
-57.719644150425431
 31
0.0
  0
LINE
  5
301
  8
0
  6
CONTINUOUS
 62
     0
 10
7.1652348314916594
 20
-62.319563764042357
 30
0.0
 11
5.0
 21
-60.154328932550698
 31
0.0
  0
LINE
  5
302
  8
0
  6
CONTINUOUS
 62
     0
 10
29.558874503045711
 20
-63.5
 30
0.0
 11
22.249969844358372
 21
-56.191095341312653
 31
0.0
  0
LINE
  5
303
  8
0
  6
CONTINUOUS
 62
     0
 10
30.0
 20
-59.698484809834987
 30
0.0
 11
26.344020726473659
 21
-56.042505536308653
 31
0.0
  0
LINE
  5
304
  8
0
  6
CENTER
 10
200.0
 20
-83.0
 30
0.0
 11
200.0
 21
-53.0
 31
0.0
  0
LINE
  5
305
  8
0
  6
CONTINUOUS
 10
197.5
 20
-80.0
 30
0.0
 11
197.5
 21
-69.5
 31
0.0
  0
LINE
  5
306
  8
0
  6
CONTINUOUS
 10
197.5
 20
-69.5
 30
0.0
 11
200.0
 21
-68.0
 31
0.0
  0
LINE
  5
307
  8
0
  6
CONTINUOUS
 10
197.0
 20
-80.0
 30
0.0
 11
197.0
 21
-71.0
 31
0.0
  0
LINE
  5
308
  8
0
  6
CONTINUOUS
 10
196.5
 20
-80.0
 30
0.0
 11
196.5
 21
-67.0
 31
0.0
  0
LINE
  5
309
  8
0
  6
CONTINUOUS
 10
196.5
 20
-67.0
 30
0.0
 11
200.0
 21
-67.0
 31
0.0
  0
LINE
  5
30A
  8
0
  6
CONTINUOUS
 62
     0
 10
193.0
 20
-74.28636328851492
 30
0.0
 11
196.5
 21
-70.786363288514934
 31
0.0
  0
LINE
  5
30B
  8
0
  6
CONTINUOUS
 62
     0
 10
193.0
 20
-70.043722601395643
 30
0.0
 11
200.0
 21
-63.04372260139565
 31
0.0
  0
LINE
  5
30C
  8
0
  6
CONTINUOUS
 62
     0
 10
192.96421537844759
 20
-65.836866535828761
 30
0.0
 11
200.0
 21
-58.801081914276381
 31
0.0
  0
LINE
  5
30D
  8
0
  6
CONTINUOUS
 62
     0
 10
191.59720808734079
 20
-62.961233139816272
 30
0.0
 11
198.55177220258119
 21
-56.006669024575842
 31
0.0
  0
LINE
  5
30E
  8
0
  6
CONTINUOUS
 62
     0
 10
188.8149426227254
 20
-61.500857917312352
 30
0.0
 11
194.20913770017461
 21
-56.106662839863112
 31
0.0
  0
LINE
  5
30F
  8
0
  6
CONTINUOUS
 62
     0
 10
184.3525380213656
 20
-61.720621831552847
 30
0.0
 11
189.73795498761501
 21
-56.33520486530346
 31
0.0
  0
LINE
  5
310
  8
0
  6
CONTINUOUS
 62
     0
 10
179.72420272632641
 20
-62.106316439472778
 30
0.0
 11
185.12543197369189
 21
-56.705087192107293
 31
0.0
  0
LINE
  5
311
  8
0
  6
CONTINUOUS
 62
     0
 10
175.3856468468133
 20
-62.202231631866617
 30
0.0
 11
180.3560789040688
 21
-57.23179957461106
 31
0.0
  0
LINE
  5
312
  8
0
  6
CONTINUOUS
 62
     0
 10
193.0
 20
-78.529003975634211
 30
0.0
 11
196.5
 21
-75.029003975634225
 31
0.0
  0
LINE
  5
313
  8
0
  6
CONTINUOUS
 62
     0
 10
195.7716446627534
 20
-79.999999999999986
 30
0.0
 11
196.49999999999989
 21
-79.271644662753474
 31
0.0
  0
LINE
  5
314
  8
0
  6
CONTINUOUS
 62
     0
 10
198.52186130069779
 20
-67.0
 30
0.0
 11
187.98179393962309
 21
-56.459932638925359
 31
0.0
  0
LINE
  5
315
  8
0
  6
CONTINUOUS
 62
     0
 10
196.5
 20
-69.220779386421455
 30
0.0
 11
192.93982400252941
 21
-65.660603388950904
 31
0.0
  0
LINE
  5
316
  8
0
  6
CONTINUOUS
 62
     0
 10
188.77339435221251
 20
-61.494173738634011
 30
0.0
 11
184.08650526592029
 21
-56.807284652341778
 31
0.0
  0
LINE
  5
317
  8
0
  6
CONTINUOUS
 62
     0
 10
196.5
 20
-73.463420073540732
 30
0.0
 11
193.0
 21
-69.963420073540732
 31
0.0
  0
LINE
  5
318
  8
0
  6
CONTINUOUS
 62
     0
 10
184.72607377827009
 20
-61.68949385181083
 30
0.0
 11
180.2782042750724
 21
-57.241624348613172
 31
0.0
  0
LINE
  5
319
  8
0
  6
CONTINUOUS
 62
     0
 10
196.5
 20
-77.706060760660023
 30
0.0
 11
193.0
 21
-74.206060760660051
 31
0.0
  0
LINE
  5
31A
  8
0
  6
CONTINUOUS
 62
     0
 10
180.80979006708299
 20
-62.015850827743073
 30
0.0
 11
176.55197030403701
 21
-57.758031064696993
 31
0.0
  0
LINE
  5
31B
  8
0
  6
CONTINUOUS
 62
     0
 10
194.5512985522206
 20
-80.0
 30
0.0
 11
193.0
 21
-78.448701447779314
 31
0.0
  0
LINE
  5
31C
  8
0
  6
CONTINUOUS
 62
     0
 10
200.0
 20
-64.235498012182887
 30
0.0
 11
191.9696789474113
 21
-56.205176959594269
 31
0.0
  0
LINE
  5
31D
  8
0
  6
CONTINUOUS
 62
     0
 10
200.0
 20
-59.992857325063603
 30
0.0
 11
196.05659541048379
 21
-56.04945273554744
 31
0.0
  0
LINE
  5
31E
  8
0
  6
CONTINUOUS
 62
     0
 10
200.24998206180351
 20
-56.00019869974787
 30
0.0
 11
200.0
 21
-55.750216637944312
 31
0.0
  0
LINE
  5
31F
  8
0
  6
CONTINUOUS
 62
     0
 10
176.89350635589599
 20
-62.342207803675322
 30
0.0
 11
175.0
 21
-60.448701447779307
 31
0.0
  0
INSERT
  5
320
  8
0
  6
CONTINUOUS
  2
*X12
 10
0.0
 20
0.0
 30
0.0
1001
ACAD
1000
HATCH
1002
{
1070
    16
1000
_U
1040
2.0
1040
0.7853981633974483
1070
     0
1002
}
  0
ARC
  5
321
  8
0
  6
CONTINUOUS
 10
30.0
 20
357.94999999999987
 30
0.0
 40
260.44999999999987
 50
262.83191070384493
 51
277.1680892961549
  0
LINE
  5
322
  8
0
  6
CONTINUOUS
 10
66.0
 20
103.5043230864395
 30
0.0
 11
66.0
 21
106.4999999999999
 31
0.0
  0
LINE
  5
323
  8
0
  6
CONTINUOUS
 10
-6.0
 20
106.4999999999999
 30
0.0
 11
-6.0
 21
103.5043230864395
 31
0.0
  0
ARC
  5
324
  8
0
  6
CONTINUOUS
 10
62.0
 20
103.5043230864395
 30
0.0
 40
4.0
 50
277.16808929615422
 51
0.0
  0
ARC
  5
325
  8
0
  6
CONTINUOUS
 10
-2.0
 20
103.5043230864395
 30
0.0
 40
4.0
 50
180.0
 51
262.83191070384231
  0
ARC
  5
326
  8
0
  6
CONTINUOUS
 10
30.0
 20
-144.94999999999999
 30
0.0
 40
260.44999999999987
 50
82.831910703845054
 51
97.168089296154989
  0
ARC
  5
327
  8
0
  6
CONTINUOUS
 10
-2.0
 20
109.4956769135604
 30
0.0
 40
4.0
 50
97.16808929615766
 51
180.0
  0
LINE
  5
328
  8
0
  6
CONTINUOUS
 10
-6.0
 20
106.4999999999999
 30
0.0
 11
-6.0
 21
109.4956769135604
 31
0.0
  0
ARC
  5
329
  8
0
  6
CONTINUOUS
 10
62.0
 20
109.4956769135604
 30
0.0
 40
4.0
 50
0.0
 51
82.831910703845736
  0
LINE
  5
32A
  8
0
  6
CONTINUOUS
 10
66.0
 20
109.4956769135604
 30
0.0
 11
66.0
 21
106.4999999999999
 31
0.0
  0
LINE
  5
32B
  8
0
  6
CONTINUOUS
 10
37.5
 20
130.0
 30
0.0
 11
22.5
 21
130.0
 31
0.0
  0
LINE
  5
32C
  8
0
  6
CONTINUOUS
 10
-6.0
 20
151.73859378488399
 30
0.0
 11
-6.0
 21
158.7954659302336
 31
0.0
  0
LINE
  5
32D
  8
0
  6
CONTINUOUS
 10
66.0
 20
151.73859378488399
 30
0.0
 11
66.0
 21
158.7954659302336
 31
0.0
  0
ARC
  5
32E
  8
0
  6
CONTINUOUS
 10
30.0
 20
0.0
 30
0.0
 40
164.0
 50
77.742376712636798
 51
102.2576232873632
  0
LINE
  5
32F
  8
0
  6
CONTINUOUS
 10
39.0
 20
131.49999999999989
 30
0.0
 11
39.0
 21
145.88656233720789
 31
0.0
  0
LINE
  5
330
  8
0
  6
CONTINUOUS
 10
47.025840627626238
 20
152.810986573685
 30
0.0
 11
64.280177008365811
 21
150.25478859135319
 31
0.0
  0
LINE
  5
331
  8
0
  6
CONTINUOUS
 10
21.0
 20
131.49999999999989
 30
0.0
 11
21.0
 21
145.88656233720789
 31
0.0
  0
LINE
  5
332
  8
0
  6
CONTINUOUS
 10
12.97415937237376
 20
152.810986573685
 30
0.0
 11
-4.2801770083658042
 21
150.25478859135319
 31
0.0
  0
ARC
  5
333
  8
0
  6
CONTINUOUS
 10
46.0
 20
145.88656233720789
 30
0.0
 40
7.0
 50
81.573030978519327
 51
180.0
  0
ARC
  5
334
  8
0
  6
CONTINUOUS
 10
14.0
 20
145.88656233720789
 30
0.0
 40
7.0
 50
0.0
 51
98.42696902148063
  0
ARC
  5
335
  8
0
  6
CONTINUOUS
 10
37.5
 20
131.49999999999989
 30
0.0
 40
1.5
 50
270.0
 51
0.0
  0
ARC
  5
336
  8
0
  6
CONTINUOUS
 10
22.5
 20
131.49999999999989
 30
0.0
 40
1.5
 50
180.0
 51
270.0
  0
ARC
  5
337
  8
0
  6
CONTINUOUS
 10
-4.5
 20
151.73859378488399
 30
0.0
 40
1.5
 50
180.0
 51
278.42696902148072
  0
ARC
  5
338
  8
0
  6
CONTINUOUS
 10
-4.5000000000000027
 20
158.7954659302336
 30
0.0
 40
1.5
 50
102.2576232873634
 51
180.0
  0
ARC
  5
339
  8
0
  6
CONTINUOUS
 10
64.5
 20
158.7954659302336
 30
0.0
 40
1.5
 50
0.0
 51
77.7423767126364
  0
ARC
  5
33A
  8
0
  6
CONTINUOUS
 10
64.5
 20
151.73859378488399
 30
0.0
 40
1.5
 50
261.57303097851923
 51
0.0
  0
LINE
  5
33B
  8
0
  6
CONTINUOUS
 10
80.0
 20
131.49999999999989
 30
0.0
 11
80.0
 21
162.5
 31
0.0
  0
LINE
  5
33C
  8
0
  6
CONTINUOUS
 10
81.5
 20
164.0
 30
0.0
 11
96.5
 21
164.0
 31
0.0
  0
LINE
  5
33D
  8
0
  6
CONTINUOUS
 10
98.0
 20
162.5
 30
0.0
 11
98.0
 21
131.49999999999989
 31
0.0
  0
LINE
  5
33E
  8
0
  6
CONTINUOUS
 10
96.5
 20
130.0
 30
0.0
 11
81.5
 21
130.0
 31
0.0
  0
LINE
  5
33F
  8
0
  6
CONTINUOUS
 10
81.5
 20
160.0
 30
0.0
 11
96.5
 21
160.0
 31
0.0
  0
LINE
  5
340
  8
0
  6
CONTINUOUS
 10
96.5
 20
150.0
 30
0.0
 11
81.5
 21
150.0
 31
0.0
  0
ARC
  5
341
  8
0
  6
CONTINUOUS
 10
81.5
 20
151.5
 30
0.0
 40
1.5
 50
180.0
 51
270.0
  0
ARC
  5
342
  8
0
  6
CONTINUOUS
 10
81.5
 20
158.49999999999989
 30
0.0
 40
1.5
 50
90.0
 51
180.0
  0
ARC
  5
343
  8
0
  6
CONTINUOUS
 10
96.5
 20
158.49999999999989
 30
0.0
 40
1.5
 50
0.0
 51
90.0
  0
ARC
  5
344
  8
0
  6
CONTINUOUS
 10
96.5
 20
151.5
 30
0.0
 40
1.5
 50
270.0
 51
0.0
  0
ARC
  5
345
  8
0
  6
CONTINUOUS
 10
81.5
 20
131.49999999999989
 30
0.0
 40
1.5
 50
180.0
 51
270.0
  0
ARC
  5
346
  8
0
  6
CONTINUOUS
 10
96.5
 20
131.49999999999989
 30
0.0
 40
1.5
 50
270.0
 51
0.0
  0
ARC
  5
347
  8
0
  6
CONTINUOUS
 10
96.5
 20
162.5
 30
0.0
 40
1.5
 50
0.0
 51
90.0
  0
ARC
  5
348
  8
0
  6
CONTINUOUS
 10
81.5
 20
162.5
 30
0.0
 40
1.5
 50
90.0
 51
180.0
  0
ARC
  5
349
  8
0
  6
CONTINUOUS
 10
200.0
 20
357.94999999999987
 30
0.0
 40
260.44999999999987
 50
262.83191070384493
 51
277.1680892961549
  0
LINE
  5
34A
  8
0
  6
CONTINUOUS
 10
182.97415937237369
 20
152.810986573685
 30
0.0
 11
165.7198229916342
 21
150.25478859135319
 31
0.0
  0
ARC
  5
34B
  8
0
  6
CONTINUOUS
 10
200.0
 20
0.0
 30
0.0
 40
164.0
 50
77.742376712636798
 51
102.2576232873632
  0
ARC
  5
34C
  8
0
  6
CONTINUOUS
 10
200.0
 20
-144.94999999999999
 30
0.0
 40
260.44999999999987
 50
82.831910703845054
 51
97.168089296154989
  0
ARC
  5
34D
  8
0
  6
CONTINUOUS
 10
165.5
 20
158.7954659302336
 30
0.0
 40
1.5
 50
102.2576232873634
 51
180.0
  0
ARC
  5
34E
  8
0
  6
CONTINUOUS
 10
168.0
 20
109.4956769135604
 30
0.0
 40
4.0
 50
97.16808929615766
 51
180.0
  0
LINE
  5
34F
  8
0
  6
CONTINUOUS
 10
164.0
 20
106.4999999999999
 30
0.0
 11
164.0
 21
103.5043230864395
 31
0.0
  0
ARC
  5
350
  8
0
  6
CONTINUOUS
 10
168.0
 20
103.5043230864395
 30
0.0
 40
4.0
 50
180.0
 51
262.83191070384231
  0
LINE
  5
351
  8
0
  6
CONTINUOUS
 10
164.0
 20
106.4999999999999
 30
0.0
 11
164.0
 21
109.4956769135604
 31
0.0
  0
LINE
  5
352
  8
0
  6
CONTINUOUS
 10
164.0
 20
151.73859378488399
 30
0.0
 11
164.0
 21
158.7954659302336
 31
0.0
  0
ARC
  5
353
  8
0
  6
CONTINUOUS
 10
165.5
 20
151.73859378488399
 30
0.0
 40
1.5
 50
180.0
 51
278.42696902148072
  0
ARC
  5
354
  8
0
  6
CONTINUOUS
 10
234.5
 20
158.7954659302336
 30
0.0
 40
1.5
 50
0.0
 51
77.7423767126364
  0
ARC
  5
355
  8
0
  6
CONTINUOUS
 10
216.0
 20
145.88656233720789
 30
0.0
 40
7.0
 50
81.573030978519327
 51
180.0
  0
LINE
  5
356
  8
0
  6
CONTINUOUS
 10
207.5
 20
130.0
 30
0.0
 11
192.5
 21
130.0
 31
0.0
  0
LINE
  5
357
  8
0
  6
CONTINUOUS
 10
191.0
 20
131.49999999999989
 30
0.0
 11
191.0
 21
145.88656233720789
 31
0.0
  0
ARC
  5
358
  8
0
  6
CONTINUOUS
 10
192.5
 20
131.49999999999989
 30
0.0
 40
1.5
 50
180.0
 51
270.0
  0
ARC
  5
359
  8
0
  6
CONTINUOUS
 10
184.0
 20
145.88656233720789
 30
0.0
 40
7.0
 50
0.0
 51
98.42696902148063
  0
LINE
  5
35A
  8
0
  6
CONTINUOUS
 10
209.0
 20
131.49999999999989
 30
0.0
 11
209.0
 21
145.88656233720789
 31
0.0
  0
ARC
  5
35B
  8
0
  6
CONTINUOUS
 10
207.5
 20
131.49999999999989
 30
0.0
 40
1.5
 50
270.0
 51
0.0
  0
ARC
  5
35C
  8
0
  6
CONTINUOUS
 10
232.0
 20
109.4956769135604
 30
0.0
 40
4.0
 50
0.0
 51
82.831910703845736
  0
ARC
  5
35D
  8
0
  6
CONTINUOUS
 10
232.0
 20
103.5043230864395
 30
0.0
 40
4.0
 50
277.16808929615422
 51
0.0
  0
LINE
  5
35E
  8
0
  6
CONTINUOUS
 10
236.0
 20
103.5043230864395
 30
0.0
 11
236.0
 21
106.4999999999999
 31
0.0
  0
LINE
  5
35F
  8
0
  6
CONTINUOUS
 10
236.0
 20
109.4956769135604
 30
0.0
 11
236.0
 21
106.4999999999999
 31
0.0
  0
LINE
  5
360
  8
0
  6
CONTINUOUS
 10
217.0258406276262
 20
152.810986573685
 30
0.0
 11
234.28017700836571
 21
150.25478859135319
 31
0.0
  0
ARC
  5
361
  8
0
  6
CONTINUOUS
 10
234.5
 20
151.73859378488399
 30
0.0
 40
1.5
 50
261.57303097851923
 51
0.0
  0
LINE
  5
362
  8
0
  6
CONTINUOUS
 10
236.0
 20
151.73859378488399
 30
0.0
 11
236.0
 21
158.7954659302336
 31
0.0
  0
ARC
  5
363
  8
0
  6
CONTINUOUS
 10
266.5
 20
158.49999999999989
 30
0.0
 40
1.5
 50
0.0
 51
90.0
  0
ARC
  5
364
  8
0
  6
CONTINUOUS
 10
251.5
 20
158.49999999999989
 30
0.0
 40
1.5
 50
90.0
 51
180.0
  0
LINE
  5
365
  8
0
  6
CONTINUOUS
 10
250.0
 20
131.49999999999989
 30
0.0
 11
250.0
 21
162.5
 31
0.0
  0
LINE
  5
366
  8
0
  6
CONTINUOUS
 10
268.0
 20
162.5
 30
0.0
 11
268.0
 21
131.49999999999989
 31
0.0
  0
LINE
  5
367
  8
0
  6
CONTINUOUS
 10
266.5
 20
150.0
 30
0.0
 11
251.5
 21
150.0
 31
0.0
  0
LINE
  5
368
  8
0
  6
CONTINUOUS
 10
266.5
 20
130.0
 30
0.0
 11
251.5
 21
130.0
 31
0.0
  0
ARC
  5
369
  8
0
  6
CONTINUOUS
 10
251.5
 20
131.49999999999989
 30
0.0
 40
1.5
 50
180.0
 51
270.0
  0
ARC
  5
36A
  8
0
  6
CONTINUOUS
 10
251.5
 20
151.5
 30
0.0
 40
1.5
 50
180.0
 51
270.0
  0
ARC
  5
36B
  8
0
  6
CONTINUOUS
 10
266.5
 20
131.49999999999989
 30
0.0
 40
1.5
 50
270.0
 51
0.0
  0
ARC
  5
36C
  8
0
  6
CONTINUOUS
 10
266.5
 20
151.5
 30
0.0
 40
1.5
 50
270.0
 51
0.0
  0
LINE
  5
36D
  8
0
  6
CONTINUOUS
 10
251.5
 20
164.0
 30
0.0
 11
266.5
 21
164.0
 31
0.0
  0
LINE
  5
36E
  8
0
  6
CONTINUOUS
 10
251.5
 20
160.0
 30
0.0
 11
266.5
 21
160.0
 31
0.0
  0
ARC
  5
36F
  8
0
  6
CONTINUOUS
 10
251.5
 20
162.5
 30
0.0
 40
1.5
 50
90.0
 51
180.0
  0
ARC
  5
370
  8
0
  6
CONTINUOUS
 10
266.5
 20
162.5
 30
0.0
 40
1.5
 50
0.0
 51
90.0
  0
LINE
  5
371
  8
0
  6
CENTER
 10
30.0
 20
127.0
 30
0.0
 11
30.0
 21
167.0
 31
0.0
  0
LINE
  5
372
  8
0
  6
CONTINUOUS
 10
27.5
 20
130.0
 30
0.0
 11
27.5
 21
149.5
 31
0.0
  0
LINE
  5
373
  8
0
  6
CONTINUOUS
 10
27.5
 20
149.5
 30
0.0
 11
30.0
 21
151.0
 31
0.0
  0
LINE
  5
374
  8
0
  6
CONTINUOUS
 10
26.0
 20
130.0
 30
0.0
 11
26.0
 21
152.5
 31
0.0
  0
LINE
  5
375
  8
0
  6
CONTINUOUS
 10
26.0
 20
152.5
 30
0.0
 11
30.0
 21
152.5
 31
0.0
  0
LINE
  5
376
  8
0
  6
CONTINUOUS
 10
27.0
 20
130.0
 30
0.0
 11
27.0
 21
146.5
 31
0.0
  0
LINE
  5
377
  8
0
  6
CONTINUOUS
 62
     0
 10
26.0
 20
139.13708498984749
 30
0.0
 11
27.5
 21
140.63708498984749
 31
0.0
  0
LINE
  5
378
  8
0
  6
CONTINUOUS
 62
     0
 10
26.0
 20
141.96551211459379
 30
0.0
 11
27.5
 21
143.46551211459371
 31
0.0
  0
LINE
  5
379
  8
0
  6
CONTINUOUS
 62
     0
 10
26.0
 20
144.79393923933989
 30
0.0
 11
27.5
 21
146.29393923933989
 31
0.0
  0
LINE
  5
37A
  8
0
  6
CONTINUOUS
 62
     0
 10
26.0
 20
147.6223663640861
 30
0.0
 11
27.5
 21
149.1223663640861
 31
0.0
  0
LINE
  5
37B
  8
0
  6
CONTINUOUS
 62
     0
 10
26.0
 20
150.45079348883229
 30
0.0
 11
28.04920651116764
 21
152.5
 31
0.0
  0
LINE
  5
37C
  8
0
  6
CONTINUOUS
 62
     0
 10
26.0
 20
136.3086578651014
 30
0.0
 11
27.5
 21
137.80865786510131
 31
0.0
  0
LINE
  5
37D
  8
0
  6
CONTINUOUS
 62
     0
 10
26.0
 20
133.48023074035521
 30
0.0
 11
27.5
 21
134.98023074035521
 31
0.0
  0
LINE
  5
37E
  8
0
  6
CONTINUOUS
 62
     0
 10
26.0
 20
130.651803615609
 30
0.0
 11
27.5
 21
132.151803615609
 31
0.0
  0
LINE
  5
37F
  8
0
  6
CONTINUOUS
 62
     0
 10
28.444084089784589
 20
150.06645045387069
 30
0.0
 11
30.0
 21
151.6223663640861
 31
0.0
  0
LINE
  5
380
  8
0
  6
CONTINUOUS
 62
     0
 10
21.0
 20
135.5512985522206
 30
0.0
 11
26.0
 21
140.5512985522206
 31
0.0
  0
LINE
  5
381
  8
0
  6
CONTINUOUS
 62
     0
 10
21.0
 20
139.79393923933989
 30
0.0
 11
26.0
 21
144.79393923933989
 31
0.0
  0
LINE
  5
382
  8
0
  6
CONTINUOUS
 62
     0
 10
21.0
 20
144.03657992645921
 30
0.0
 11
26.0
 21
149.03657992645921
 31
0.0
  0
LINE
  5
383
  8
0
  6
CONTINUOUS
 62
     0
 10
29.463420073540739
 20
152.5
 30
0.0
 11
30.0
 21
153.03657992645921
 31
0.0
  0
LINE
  5
384
  8
0
  6
CONTINUOUS
 62
     0
 10
20.684663963889321
 20
147.96388457746781
 30
0.0
 11
30.0
 21
157.2792206135785
 31
0.0
  0
LINE
  5
385
  8
0
  6
CONTINUOUS
 62
     0
 10
19.128737915992058
 20
150.6505992166899
 30
0.0
 11
30.0
 21
161.52186130069779
 31
0.0
  0
LINE
  5
386
  8
0
  6
CONTINUOUS
 62
     0
 10
16.615192668124649
 20
152.37969465594171
 30
0.0
 11
28.22590192663786
 21
163.9904039144549
 31
0.0
  0
LINE
  5
387
  8
0
  6
CONTINUOUS
 62
     0
 10
12.77422381637904
 20
152.7813664913154
 30
0.0
 11
23.878574043320931
 21
163.8857167182573
 31
0.0
  0
LINE
  5
388
  8
0
  6
CONTINUOUS
 62
     0
 10
7.7937325749781374
 20
152.04351593703379
 30
0.0
 11
19.407802310293039
 21
163.65758567234869
 31
0.0
  0
LINE
  5
389
  8
0
  6
CONTINUOUS
 62
     0
 10
2.8132413335772291
 20
151.30566538275221
 30
0.0
 11
14.80183750585169
 21
163.29426155502659
 31
0.0
  0
LINE
  5
38A
  8
0
  6
CONTINUOUS
 62
     0
 10
-2.167249907823678
 20
150.56781482847049
 30
0.0
 11
10.04657008336862
 21
162.7816348196628
 31
0.0
  0
LINE
  5
38B
  8
0
  6
CONTINUOUS
 62
     0
 10
-5.863753232482078
 20
151.1139521909314
 30
0.0
 11
5.1248078716551886
 21
162.10251329506869
 31
0.0
  0
LINE
  5
38C
  8
0
  6
CONTINUOUS
 62
     0
 10
-6.0
 20
155.2203461105328
 30
0.0
 11
0.0152397688980557
 21
161.2355858794308
 31
0.0
  0
LINE
  5
38D
  8
0
  6
CONTINUOUS
 62
     0
 10
21.010893463516929
 20
131.3195513286183
 30
0.0
 11
26.0
 21
136.3086578651014
 31
0.0
  0
LINE
  5
38E
  8
0
  6
CONTINUOUS
 62
     0
 10
23.933982822017889
 20
130.0
 30
0.0
 11
26.0
 21
132.06601717798199
 31
0.0
  0
LINE
  5
38F
  8
0
  6
CONTINUOUS
 62
     0
 10
26.0
 20
147.94826817189059
 30
0.0
 11
11.047108276352491
 21
162.90115989553809
 31
0.0
  0
LINE
  5
390
  8
0
  6
CONTINUOUS
 62
     0
 10
26.0
 20
143.7056274847713
 30
0.0
 11
7.2861652545444029
 21
162.419462230227
 31
0.0
  0
LINE
  5
391
  8
0
  6
CONTINUOUS
 62
     0
 10
26.0
 20
139.46298679765209
 30
0.0
 11
21.0
 21
144.46298679765209
 31
0.0
  0
LINE
  5
392
  8
0
  6
CONTINUOUS
 62
     0
 10
26.0
 20
135.2203461105328
 30
0.0
 11
21.0
 21
140.2203461105328
 31
0.0
  0
LINE
  5
393
  8
0
  6
CONTINUOUS
 62
     0
 10
26.0
 20
130.97770542341351
 30
0.0
 11
21.0
 21
135.97770542341351
 31
0.0
  0
LINE
  5
394
  8
0
  6
CONTINUOUS
 62
     0
 10
5.3031627881343573
 20
151.6745426352791
 30
0.0
 11
-3.5532287857096132
 21
160.5309342091231
 31
0.0
  0
LINE
  5
395
  8
0
  6
CONTINUOUS
 62
     0
 10
1.6079596090304611
 20
151.1271051272638
 30
0.0
 11
-6.0
 21
158.73506473629419
 31
0.0
  0
LINE
  5
396
  8
0
  6
CONTINUOUS
 62
     0
 10
-2.0872435700734222
 20
150.57966761924831
 30
0.0
 11
-6.0
 21
154.4924240491749
 31
0.0
  0
LINE
  5
397
  8
0
  6
CONTINUOUS
 62
     0
 10
26.0
 20
152.19090885900991
 30
0.0
 11
14.888595764460881
 21
163.30231309454899
 31
0.0
  0
LINE
  5
398
  8
0
  6
CONTINUOUS
 62
     0
 10
30.0
 20
152.4335495461292
 30
0.0
 11
18.81538323270102
 21
163.61816631342819
 31
0.0
  0
LINE
  5
399
  8
0
  6
CONTINUOUS
 62
     0
 10
30.0
 20
156.67619023324849
 30
0.0
 11
22.83287391055562
 21
163.8433163226928
 31
0.0
  0
LINE
  5
39A
  8
0
  6
CONTINUOUS
 62
     0
 10
30.0
 20
160.91883092036781
 30
0.0
 11
26.947245905049488
 21
163.97158501531831
 31
0.0
  0
LINE
  5
39B
  8
0
  6
CONTINUOUS
 62
     0
 10
8.998365967238243
 20
152.2219801432945
 30
0.0
 11
-0.0104585660421393
 21
161.23080467657491
 31
0.0
  0
LINE
  5
39C
  8
0
  6
CONTINUOUS
 62
     0
 10
12.69356914634214
 20
152.76941765130991
 30
0.0
 11
3.6015576612256508
 21
161.86142913642641
 31
0.0
  0
LINE
  5
39D
  8
0
  6
CENTER
 10
200.0
 20
127.0
 30
0.0
 11
200.0
 21
167.0
 31
0.0
  0
LINE
  5
39E
  8
0
  6
CONTINUOUS
 10
377.49999999999989
 20
130.0
 30
0.0
 11
362.5
 21
130.0
 31
0.0
  0
ARC
  5
39F
  8
0
  6
CONTINUOUS
 10
370.0
 20
-144.94999999999999
 30
0.0
 40
260.44999999999987
 50
82.831910703845054
 51
97.168089296154989
  0
ARC
  5
3A0
  8
0
  6
CONTINUOUS
 10
370.0
 20
0.0
 30
0.0
 40
164.0
 50
77.742376712636798
 51
102.2576232873632
  0
ARC
  5
3A1
  8
0
  6
CONTINUOUS
 10
370.0
 20
357.94999999999987
 30
0.0
 40
260.44999999999987
 50
262.83191070384493
 51
277.1680892961549
  0
LINE
  5
3A2
  8
0
  6
CENTER
 10
370.0
 20
127.0
 30
0.0
 11
370.0
 21
167.0
 31
0.0
  0
ARC
  5
3A3
  8
0
  6
CONTINUOUS
 10
335.49999999999989
 20
158.7954659302336
 30
0.0
 40
1.5
 50
102.2576232873634
 51
180.0
  0
LINE
  5
3A4
  8
0
  6
CONTINUOUS
 10
352.97415937237372
 20
152.810986573685
 30
0.0
 11
335.7198229916342
 21
150.25478859135319
 31
0.0
  0
ARC
  5
3A5
  8
0
  6
CONTINUOUS
 10
338.0
 20
109.4956769135604
 30
0.0
 40
4.0
 50
97.16808929615766
 51
180.0
  0
ARC
  5
3A6
  8
0
  6
CONTINUOUS
 10
338.0
 20
103.5043230864395
 30
0.0
 40
4.0
 50
180.0
 51
262.83191070384231
  0
LINE
  5
3A7
  8
0
  6
CONTINUOUS
 10
334.0
 20
106.4999999999999
 30
0.0
 11
334.0
 21
103.5043230864395
 31
0.0
  0
LINE
  5
3A8
  8
0
  6
CONTINUOUS
 10
334.0
 20
106.4999999999999
 30
0.0
 11
334.0
 21
109.4956769135604
 31
0.0
  0
ARC
  5
3A9
  8
0
  6
CONTINUOUS
 10
335.49999999999989
 20
151.73859378488399
 30
0.0
 40
1.5
 50
180.0
 51
278.42696902148072
  0
LINE
  5
3AA
  8
0
  6
CONTINUOUS
 10
334.0
 20
151.73859378488399
 30
0.0
 11
334.0
 21
158.7954659302336
 31
0.0
  0
ARC
  5
3AB
  8
0
  6
CONTINUOUS
 10
354.0
 20
145.88656233720789
 30
0.0
 40
7.0
 50
0.0
 51
98.42696902148063
  0
LINE
  5
3AC
  8
0
  6
CONTINUOUS
 10
361.0
 20
131.49999999999989
 30
0.0
 11
361.0
 21
145.88656233720789
 31
0.0
  0
ARC
  5
3AD
  8
0
  6
CONTINUOUS
 10
362.5
 20
131.49999999999989
 30
0.0
 40
1.5
 50
180.0
 51
270.0
  0
LINE
  5
3AE
  8
0
  6
CONTINUOUS
 10
438.0
 20
162.5
 30
0.0
 11
438.0
 21
131.49999999999989
 31
0.0
  0
LINE
  5
3AF
  8
0
  6
CONTINUOUS
 10
420.0
 20
131.49999999999989
 30
0.0
 11
420.0
 21
162.5
 31
0.0
  0
ARC
  5
3B0
  8
0
  6
CONTINUOUS
 10
421.49999999999989
 20
158.49999999999989
 30
0.0
 40
1.5
 50
90.0
 51
180.0
  0
ARC
  5
3B1
  8
0
  6
CONTINUOUS
 10
436.5
 20
158.49999999999989
 30
0.0
 40
1.5
 50
0.0
 51
90.0
  0
ARC
  5
3B2
  8
0
  6
CONTINUOUS
 10
404.49999999999989
 20
158.7954659302336
 30
0.0
 40
1.5
 50
0.0
 51
77.7423767126364
  0
ARC
  5
3B3
  8
0
  6
CONTINUOUS
 10
402.0
 20
109.4956769135604
 30
0.0
 40
4.0
 50
0.0
 51
82.831910703845736
  0
LINE
  5
3B4
  8
0
  6
CONTINUOUS
 10
406.0
 20
103.5043230864395
 30
0.0
 11
406.0
 21
106.4999999999999
 31
0.0
  0
ARC
  5
3B5
  8
0
  6
CONTINUOUS
 10
402.0
 20
103.5043230864395
 30
0.0
 40
4.0
 50
277.16808929615422
 51
0.0
  0
LINE
  5
3B6
  8
0
  6
CONTINUOUS
 10
406.0
 20
109.4956769135604
 30
0.0
 11
406.0
 21
106.4999999999999
 31
0.0
  0
LINE
  5
3B7
  8
0
  6
CONTINUOUS
 10
387.02584062762622
 20
152.810986573685
 30
0.0
 11
404.2801770083658
 21
150.25478859135319
 31
0.0
  0
LINE
  5
3B8
  8
0
  6
CONTINUOUS
 10
379.0
 20
131.49999999999989
 30
0.0
 11
379.0
 21
145.88656233720789
 31
0.0
  0
ARC
  5
3B9
  8
0
  6
CONTINUOUS
 10
377.49999999999989
 20
131.49999999999989
 30
0.0
 40
1.5
 50
270.0
 51
0.0
  0
ARC
  5
3BA
  8
0
  6
CONTINUOUS
 10
386.0
 20
145.88656233720789
 30
0.0
 40
7.0
 50
81.573030978519327
 51
180.0
  0
LINE
  5
3BB
  8
0
  6
CONTINUOUS
 10
406.0
 20
151.73859378488399
 30
0.0
 11
406.0
 21
158.7954659302336
 31
0.0
  0
ARC
  5
3BC
  8
0
  6
CONTINUOUS
 10
404.49999999999989
 20
151.73859378488399
 30
0.0
 40
1.5
 50
261.57303097851923
 51
0.0
  0
LINE
  5
3BD
  8
0
  6
CONTINUOUS
 10
436.5
 20
130.0
 30
0.0
 11
421.49999999999989
 21
130.0
 31
0.0
  0
LINE
  5
3BE
  8
0
  6
CONTINUOUS
 10
436.5
 20
150.0
 30
0.0
 11
421.49999999999989
 21
150.0
 31
0.0
  0
ARC
  5
3BF
  8
0
  6
CONTINUOUS
 10
421.49999999999989
 20
131.49999999999989
 30
0.0
 40
1.5
 50
180.0
 51
270.0
  0
ARC
  5
3C0
  8
0
  6
CONTINUOUS
 10
421.49999999999989
 20
151.5
 30
0.0
 40
1.5
 50
180.0
 51
270.0
  0
ARC
  5
3C1
  8
0
  6
CONTINUOUS
 10
436.5
 20
131.49999999999989
 30
0.0
 40
1.5
 50
270.0
 51
0.0
  0
ARC
  5
3C2
  8
0
  6
CONTINUOUS
 10
436.5
 20
151.5
 30
0.0
 40
1.5
 50
270.0
 51
0.0
  0
LINE
  5
3C3
  8
0
  6
CONTINUOUS
 10
421.49999999999989
 20
160.0
 30
0.0
 11
436.5
 21
160.0
 31
0.0
  0
LINE
  5
3C4
  8
0
  6
CONTINUOUS
 10
421.49999999999989
 20
164.0
 30
0.0
 11
436.5
 21
164.0
 31
0.0
  0
ARC
  5
3C5
  8
0
  6
CONTINUOUS
 10
421.49999999999989
 20
162.5
 30
0.0
 40
1.5
 50
90.0
 51
180.0
  0
ARC
  5
3C6
  8
0
  6
CONTINUOUS
 10
436.5
 20
162.5
 30
0.0
 40
1.5
 50
0.0
 51
90.0
  0
LINE
  5
3C7
  8
0
  6
CONTINUOUS
 10
196.5
 20
130.0
 30
0.0
 11
196.5
 21
153.5
 31
0.0
  0
LINE
  5
3C8
  8
0
  6
CONTINUOUS
 10
196.5
 20
153.5
 30
0.0
 11
200.0
 21
155.0
 31
0.0
  0
LINE
  5
3C9
  8
0
  6
CONTINUOUS
 10
196.0
 20
130.0
 30
0.0
 11
196.0
 21
150.0
 31
0.0
  0
LINE
  5
3CA
  8
0
  6
CONTINUOUS
 10
195.0
 20
130.0
 30
0.0
 11
195.0
 21
156.49999999999989
 31
0.0
  0
LINE
  5
3CB
  8
0
  6
CONTINUOUS
 10
195.0
 20
156.49999999999989
 30
0.0
 11
200.0
 21
156.49999999999989
 31
0.0
  0
INSERT
  5
3CC
  8
0
  6
CONTINUOUS
  2
*X15
 10
0.0
 20
0.0
 30
0.0
1001
ACAD
1000
HATCH
1002
{
1070
    16
1000
_U
1040
2.0
1040
0.7853981633974483
1070
     0
1002
}
  0
LINE
  5
3CD
  8
0
  6
CONTINUOUS
 10
196.5
 20
132.0
 30
0.0
 11
195.0
 21
130.49999999999989
 31
0.0
  0
LINE
  5
3CE
  8
0
  6
CONTINUOUS
 62
     0
 10
191.0
 20
140.08831175456851
 30
0.0
 11
195.0
 21
144.08831175456851
 31
0.0
  0
LINE
  5
3CF
  8
0
  6
CONTINUOUS
 62
     0
 10
191.0
 20
144.3309524416878
 30
0.0
 11
195.0
 21
148.3309524416878
 31
0.0
  0
LINE
  5
3D0
  8
0
  6
CONTINUOUS
 62
     0
 10
190.61177069510919
 20
148.18536382391639
 30
0.0
 11
195.0
 21
152.57359312880709
 31
0.0
  0
LINE
  5
3D1
  8
0
  6
CONTINUOUS
 62
     0
 10
188.98478681946
 20
150.80102063538649
 30
0.0
 11
200.0
 21
161.81623381592641
 31
0.0
  0
LINE
  5
3D2
  8
0
  6
CONTINUOUS
 62
     0
 10
186.4024910181239
 20
152.4613655211696
 30
0.0
 11
197.92803645965111
 21
163.98691096269681
 31
0.0
  0
LINE
  5
3D3
  8
0
  6
CONTINUOUS
 62
     0
 10
182.4286560811106
 20
152.73017127127559
 30
0.0
 11
193.572482181895
 21
163.87399737205999
 31
0.0
  0
LINE
  5
3D4
  8
0
  6
CONTINUOUS
 62
     0
 10
177.4481648397097
 20
151.99232071699399
 30
0.0
 11
189.0927334097241
 21
163.63688928700839
 31
0.0
  0
LINE
  5
3D5
  8
0
  6
CONTINUOUS
 62
     0
 10
172.46767359830881
 20
151.25447016271241
 30
0.0
 11
184.47689577135969
 21
163.26369233576321
 31
0.0
  0
LINE
  5
3D6
  8
0
  6
CONTINUOUS
 62
     0
 10
167.48718235690791
 20
150.5166196084308
 30
0.0
 11
179.71067203548881
 21
162.74010928701159
 31
0.0
  0
LINE
  5
3D7
  8
0
  6
CONTINUOUS
 62
     0
 10
164.05698710635991
 20
151.32906504500201
 30
0.0
 11
174.77662218441409
 21
162.04870012305619
 31
0.0
  0
LINE
  5
3D8
  8
0
  6
CONTINUOUS
 62
     0
 10
164.0
 20
155.51471862576139
 30
0.0
 11
169.6530996170477
 21
161.16781824280909
 31
0.0
  0
LINE
  5
3D9
  8
0
  6
CONTINUOUS
 62
     0
 10
191.0
 20
135.84567106744919
 30
0.0
 11
195.0
 21
139.84567106744919
 31
0.0
  0
LINE
  5
3DA
  8
0
  6
CONTINUOUS
 62
     0
 10
191.0
 20
131.60303038033001
 30
0.0
 11
195.0
 21
135.60303038033001
 31
0.0
  0
LINE
  5
3DB
  8
0
  6
CONTINUOUS
 62
     0
 10
193.63961030678919
 20
130.0
 30
0.0
 11
195.0
 21
131.36038969321069
 31
0.0
  0
LINE
  5
3DC
  8
0
  6
CONTINUOUS
 62
     0
 10
195.0
 20
148.653895656662
 30
0.0
 11
180.7836088865599
 21
162.8702867701021
 31
0.0
  0
LINE
  5
3DD
  8
0
  6
CONTINUOUS
 62
     0
 10
195.0
 20
144.41125496954271
 30
0.0
 11
190.11144140728831
 21
149.29981356225451
 31
0.0
  0
LINE
  5
3DE
  8
0
  6
CONTINUOUS
 62
     0
 10
195.0
 20
140.1686142824235
 30
0.0
 11
191.0
 21
144.1686142824235
 31
0.0
  0
LINE
  5
3DF
  8
0
  6
CONTINUOUS
 62
     0
 10
182.43718018146561
 20
152.7314341009579
 30
0.0
 11
173.348637523798
 21
161.81997675862539
 31
0.0
  0
LINE
  5
3E0
  8
0
  6
CONTINUOUS
 62
     0
 10
195.0
 20
135.92597359530421
 30
0.0
 11
191.0
 21
139.92597359530421
 31
0.0
  0
LINE
  5
3E1
  8
0
  6
CONTINUOUS
 62
     0
 10
178.74197700236169
 20
152.18399659294249
 30
0.0
 11
169.7415296444598
 21
161.1844439508443
 31
0.0
  0
LINE
  5
3E2
  8
0
  6
CONTINUOUS
 62
     0
 10
195.0
 20
131.68333290818489
 30
0.0
 11
191.0
 21
135.68333290818489
 31
0.0
  0
LINE
  5
3E3
  8
0
  6
CONTINUOUS
 62
     0
 10
175.04677382325781
 20
151.63655908492709
 30
0.0
 11
166.20344899660299
 21
160.47988391158179
 31
0.0
  0
LINE
  5
3E4
  8
0
  6
CONTINUOUS
 62
     0
 10
192.4394704479312
 20
130.0012217731344
 30
0.0
 11
191.0012217731344
 21
131.4394704479312
 31
0.0
  0
LINE
  5
3E5
  8
0
  6
CONTINUOUS
 62
     0
 10
171.3515706441539
 20
151.08912157691171
 30
0.0
 11
164.0
 21
158.4406922210656
 31
0.0
  0
LINE
  5
3E6
  8
0
  6
CONTINUOUS
 62
     0
 10
167.65636746505001
 20
150.5416840688963
 30
0.0
 11
164.0
 21
154.19805153394631
 31
0.0
  0
LINE
  5
3E7
  8
0
  6
CONTINUOUS
 62
     0
 10
195.0
 20
152.89653634378121
 30
0.0
 11
184.61936112395821
 21
163.27717521982299
 31
0.0
  0
LINE
  5
3E8
  8
0
  6
CONTINUOUS
 62
     0
 10
195.63917703090061
 20
156.49999999999989
 30
0.0
 11
188.54006376471219
 21
163.59911326618831
 31
0.0
  0
LINE
  5
3E9
  8
0
  6
CONTINUOUS
 62
     0
 10
200.0
 20
156.3818177180199
 30
0.0
 11
192.5510713311281
 21
163.83074638689169
 31
0.0
  0
LINE
  5
3EA
  8
0
  6
CONTINUOUS
 62
     0
 10
200.0
 20
160.62445840513911
 30
0.0
 11
196.65850340082221
 21
163.9659550043169
 31
0.0
  0
LINE
  5
3EB
  8
0
  6
CONTINUOUS
 62
     0
 10
187.41325122504651
 20
151.9980037444962
 30
0.0
 11
177.02809246708611
 21
162.3831625024566
 31
0.0
  0
LINE
  5
3EC
  8
0
  6
CONTINUOUS
 10
365.5
 20
130.0
 30
0.0
 11
365.5
 21
155.49999999999989
 31
0.0
  0
LINE
  5
3ED
  8
0
  6
CONTINUOUS
 10
365.5
 20
155.49999999999989
 30
0.0
 11
370.0
 21
157.0
 31
0.0
  0
LINE
  5
3EE
  8
0
  6
CONTINUOUS
 10
364.0
 20
130.0
 30
0.0
 11
364.0
 21
158.49999999999989
 31
0.0
  0
LINE
  5
3EF
  8
0
  6
CONTINUOUS
 10
364.0
 20
158.49999999999989
 30
0.0
 11
370.0
 21
158.49999999999989
 31
0.0
  0
LINE
  5
3F0
  8
0
  6
CONTINUOUS
 10
365.0
 20
130.0
 30
0.0
 11
365.0
 21
152.0
 31
0.0
  0
LINE
  5
3F1
  8
0
  6
CONTINUOUS
 62
     0
 10
364.0
 20
143.3826842697971
 30
0.0
 11
365.49999999999989
 21
144.8826842697971
 31
0.0
  0
LINE
  5
3F2
  8
0
  6
CONTINUOUS
 62
     0
 10
364.0
 20
146.21111139454331
 30
0.0
 11
365.49999999999989
 21
147.71111139454331
 31
0.0
  0
LINE
  5
3F3
  8
0
  6
CONTINUOUS
 62
     0
 10
364.0
 20
149.03953851928949
 30
0.0
 11
365.49999999999989
 21
150.53953851928949
 31
0.0
  0
LINE
  5
3F4
  8
0
  6
CONTINUOUS
 62
     0
 10
364.0
 20
151.86796564403571
 30
0.0
 11
365.5
 21
153.36796564403571
 31
0.0
  0
LINE
  5
3F5
  8
0
  6
CONTINUOUS
 62
     0
 10
364.0
 20
154.69639276878189
 30
0.0
 11
367.803607231218
 21
158.49999999999989
 31
0.0
  0
LINE
  5
3F6
  8
0
  6
CONTINUOUS
 62
     0
 10
364.0
 20
157.5248198935281
 30
0.0
 11
364.97518010647178
 21
158.49999999999989
 31
0.0
  0
LINE
  5
3F7
  8
0
  6
CONTINUOUS
 62
     0
 10
364.0
 20
140.554257145051
 30
0.0
 11
365.49999999999989
 21
142.054257145051
 31
0.0
  0
LINE
  5
3F8
  8
0
  6
CONTINUOUS
 62
     0
 10
364.0
 20
137.72583002030481
 30
0.0
 11
365.49999999999989
 21
139.22583002030481
 31
0.0
  0
LINE
  5
3F9
  8
0
  6
CONTINUOUS
 62
     0
 10
364.0
 20
134.8974028955586
 30
0.0
 11
365.49999999999989
 21
136.39740289555851
 31
0.0
  0
LINE
  5
3FA
  8
0
  6
CONTINUOUS
 62
     0
 10
364.0
 20
132.06897577081239
 30
0.0
 11
365.49999999999989
 21
133.56897577081239
 31
0.0
  0
LINE
  5
3FB
  8
0
  6
CONTINUOUS
 62
     0
 10
368.69805153394628
 20
156.5660171779821
 30
0.0
 11
370.0
 21
157.86796564403571
 31
0.0
  0
LINE
  5
3FC
  8
0
  6
CONTINUOUS
 10
365.5
 20
131.0
 30
0.0
 11
364.5
 21
130.0
 31
0.0
  0
LINE
  5
3FD
  8
0
  6
CONTINUOUS
 62
     0
 10
360.99999999999989
 20
140.3826842697971
 30
0.0
 11
364.0
 21
143.38268426979721
 31
0.0
  0
LINE
  5
3FE
  8
0
  6
CONTINUOUS
 62
     0
 10
360.99999999999989
 20
144.62532495691639
 30
0.0
 11
364.0
 21
147.62532495691639
 31
0.0
  0
LINE
  5
3FF
  8
0
  6
CONTINUOUS
 62
     0
 10
360.5328721720482
 20
148.40083781608391
 30
0.0
 11
364.0
 21
151.86796564403571
 31
0.0
  0
LINE
  5
400
  8
0
  6
CONTINUOUS
 62
     0
 10
358.83645767583431
 20
150.94706400698939
 30
0.0
 11
364.0
 21
156.110606331155
 31
0.0
  0
LINE
  5
401
  8
0
  6
CONTINUOUS
 62
     0
 10
366.38939366884489
 20
158.49999999999989
 30
0.0
 11
370.0
 21
162.110606331155
 31
0.0
  0
LINE
  5
402
  8
0
  6
CONTINUOUS
 62
     0
 10
356.18391721602228
 20
152.5371642342966
 30
0.0
 11
367.62962192782919
 21
163.98286894610351
 31
0.0
  0
LINE
  5
403
  8
0
  6
CONTINUOUS
 62
     0
 10
352.08308834584221
 20
152.67897605123579
 30
0.0
 11
363.26579316701333
 21
163.86168087240691
 31
0.0
  0
LINE
  5
404
  8
0
  6
CONTINUOUS
 62
     0
 10
347.10259710444132
 20
151.9411254969543
 30
0.0
 11
358.77701030181271
 21
163.61553869432561
 31
0.0
  0
LINE
  5
405
  8
0
  6
CONTINUOUS
 62
     0
 10
342.12210586304042
 20
151.20327494267261
 30
0.0
 11
354.15123128981338
 21
163.2324003694456
 31
0.0
  0
LINE
  5
406
  8
0
  6
CONTINUOUS
 62
     0
 10
337.14161462163952
 20
150.465424388391
 30
0.0
 11
349.37396769626508
 21
162.69777746301659
 31
0.0
  0
LINE
  5
407
  8
0
  6
CONTINUOUS
 62
     0
 10
334.00890834024972
 20
151.57535879412049
 30
0.0
 11
344.42752660907581
 21
161.99397706294661
 31
0.0
  0
LINE
  5
408
  8
0
  6
CONTINUOUS
 62
     0
 10
334.0
 20
155.80909114099001
 30
0.0
 11
339.28991844997859
 21
161.09900959096871
 31
0.0
  0
LINE
  5
409
  8
0
  6
CONTINUOUS
 62
     0
 10
360.99999999999989
 20
136.14004358267781
 30
0.0
 11
364.0
 21
139.14004358267789
 31
0.0
  0
LINE
  5
40A
  8
0
  6
CONTINUOUS
 62
     0
 10
360.99999999999989
 20
131.8974028955586
 30
0.0
 11
364.0
 21
134.8974028955586
 31
0.0
  0
LINE
  5
40B
  8
0
  6
CONTINUOUS
 62
     0
 10
363.34523779156058
 20
130.0
 30
0.0
 11
364.0
 21
130.65476220843931
 31
0.0
  0
LINE
  5
40C
  8
0
  6
CONTINUOUS
 62
     0
 10
364.0
 20
149.35952314143341
 30
0.0
 11
350.52049555148409
 21
162.83902758994921
 31
0.0
  0
LINE
  5
40D
  8
0
  6
CONTINUOUS
 62
     0
 10
364.0
 20
145.11688245431409
 30
0.0
 11
360.40409762983262
 21
148.7127848244815
 31
0.0
  0
LINE
  5
40E
  8
0
  6
CONTINUOUS
 62
     0
 10
356.82622248727358
 20
152.29065996704051
 30
0.0
 11
346.77038567016132
 21
162.34649678415281
 31
0.0
  0
LINE
  5
40F
  8
0
  6
CONTINUOUS
 62
     0
 10
364.0
 20
140.8742417671948
 30
0.0
 11
360.99999999999989
 21
143.87424176719489
 31
0.0
  0
LINE
  5
410
  8
0
  6
CONTINUOUS
 62
     0
 10
352.18079121658911
 20
152.6934505506058
 30
0.0
 11
343.09606552098728
 21
161.77817624620749
 31
0.0
  0
LINE
  5
411
  8
0
  6
CONTINUOUS
 62
     0
 10
364.0
 20
136.63160108007551
 30
0.0
 11
360.99999999999989
 21
139.6316010800756
 31
0.0
  0
LINE
  5
412
  8
0
  6
CONTINUOUS
 62
     0
 10
348.48558803748512
 20
152.1460130425904
 30
0.0
 11
339.4938500286126
 21
161.1377510514628
 31
0.0
  0
LINE
  5
413
  8
0
  6
CONTINUOUS
 62
     0
 10
364.0
 20
132.38896039295631
 30
0.0
 11
360.99999999999989
 21
135.38896039295631
 31
0.0
  0
LINE
  5
414
  8
0
  6
CONTINUOUS
 62
     0
 10
344.79038485838129
 20
151.59857553457499
 30
0.0
 11
335.96044462920912
 21
160.4285157637471
 31
0.0
  0
LINE
  5
415
  8
0
  6
CONTINUOUS
 62
     0
 10
362.08888006946808
 20
130.05743963636891
 30
0.0
 11
361.05743963636883
 21
131.0888800694681
 31
0.0
  0
LINE
  5
416
  8
0
  6
CONTINUOUS
 62
     0
 10
341.0951816792774
 20
151.05113802655961
 30
0.0
 11
334.0
 21
158.14631970583699
 31
0.0
  0
LINE
  5
417
  8
0
  6
CONTINUOUS
 62
     0
 10
337.39997850017352
 20
150.50370051854421
 30
0.0
 11
334.0
 21
153.9036790187177
 31
0.0
  0
LINE
  5
418
  8
0
  6
CONTINUOUS
 62
     0
 10
364.0
 20
153.6021638285527
 30
0.0
 11
354.35053519553202
 21
163.25162863302069
 31
0.0
  0
LINE
  5
419
  8
0
  6
CONTINUOUS
 62
     0
 10
364.0
 20
157.844804515672
 30
0.0
 11
358.2651787369
 21
163.579625778772
 31
0.0
  0
LINE
  5
41A
  8
0
  6
CONTINUOUS
 62
     0
 10
367.58744520279129
 20
158.49999999999989
 30
0.0
 11
362.26973258975858
 21
163.8177126130326
 31
0.0
  0
LINE
  5
41B
  8
0
  6
CONTINUOUS
 10
370.0
 20
160.49999999999989
 30
0.0
 11
366.53657515069642
 21
163.96342484930349
 31
0.0
  0
ENDSEC
  0
EOF
