  0
SECTION
  2
HEADER
  9
$ACADVER
  1
AC1009
  9
$INSBASE
 10
0.0
 20
0.0
 30
0.0
  9
$EXTMIN
 10
71.914311792623494
 20
-151.8934578318493
 30
-0.0015258207003583
  9
$EXTMAX
 10
444.92779230255701
 20
178.00739439572681
 30
0.0000000349246037
  9
$LIMMIN
 10
0.0
 20
0.0
  9
$LIMMAX
 10
420.0
 20
297.0
  9
$ORTHOMODE
 70
     1
  9
$REGENMODE
 70
     1
  9
$FILLMODE
 70
     1
  9
$QTEXTMODE
 70
     0
  9
$MIRRTEXT
 70
     1
  9
$DRAGMODE
 70
     2
  9
$LTSCALE
 40
1.0
  9
$OSMODE
 70
    40
  9
$ATTMODE
 70
     1
  9
$TEXTSIZE
 40
3.5
  9
$TRACEWID
 40
1.0
  9
$TEXTSTYLE
  7
STANDARD
  9
$CLAYER
  8
0
  9
$CELTYPE
  6
CONTINUOUS
  9
$CECOLOR
 62
   256
  9
$DIMSCALE
 40
1.0
  9
$DIMASZ
 40
2.5
  9
$DIMEXO
 40
0.625
  9
$DIMDLI
 40
3.75
  9
$DIMRND
 40
0.0
  9
$DIMDLE
 40
0.0
  9
$DIMEXE
 40
1.25
  9
$DIMTP
 40
0.0
  9
$DIMTM
 40
0.0
  9
$DIMTXT
 40
2.5
  9
$DIMCEN
 40
2.5
  9
$DIMTSZ
 40
0.0
  9
$DIMTOL
 70
     0
  9
$DIMLIM
 70
     0
  9
$DIMTIH
 70
     1
  9
$DIMTOH
 70
     0
  9
$DIMSE1
 70
     0
  9
$DIMSE2
 70
     0
  9
$DIMTAD
 70
     1
  9
$DIMZIN
 70
     8
  9
$DIMBLK
  1

  9
$DIMASO
 70
     1
  9
$DIMSHO
 70
     1
  9
$DIMPOST
  1

  9
$DIMAPOST
  1

  9
$DIMALT
 70
     0
  9
$DIMALTD
 70
     2
  9
$DIMALTF
 40
0.0394
  9
$DIMLFAC
 40
1.0
  9
$DIMTOFL
 70
     1
  9
$DIMTVP
 40
1.0
  9
$DIMTIX
 70
     0
  9
$DIMSOXD
 70
     0
  9
$DIMSAH
 70
     0
  9
$DIMBLK1
  1

  9
$DIMBLK2
  1

  9
$DIMSTYLE
  2
STANDARD
  9
$DIMCLRD
 70
     0
  9
$DIMCLRE
 70
     0
  9
$DIMCLRT
 70
     0
  9
$DIMTFAC
 40
1.0
  9
$DIMGAP
 40
0.625
  9
$LUNITS
 70
     2
  9
$LUPREC
 70
     4
  9
$SKETCHINC
 40
1.0
  9
$FILLETRAD
 40
0.5
  9
$AUNITS
 70
     0
  9
$AUPREC
 70
     0
  9
$MENU
  1
acad
  9
$ELEVATION
 40
0.0
  9
$PELEVATION
 40
0.0
  9
$THICKNESS
 40
0.0
  9
$LIMCHECK
 70
     0
  9
$BLIPMODE
 70
     0
  9
$CHAMFERA
 40
1.0
  9
$CHAMFERB
 40
1.0
  9
$SKPOLY
 70
     0
  9
$TDCREATE
 40
2450504.3399219909
  9
$TDUPDATE
 40
2452236.6270494792
  9
$TDINDWG
 40
0.6089169907000001
  9
$TDUSRTIMER
 40
0.6089169907000001
  9
$USRTIMER
 70
     1
  9
$ANGBASE
 50
0.0
  9
$ANGDIR
 70
     0
  9
$PDMODE
 70
     0
  9
$PDSIZE
 40
0.0
  9
$PLINEWID
 40
0.0
  9
$COORDS
 70
     2
  9
$SPLFRAME
 70
     0
  9
$SPLINETYPE
 70
     6
  9
$SPLINESEGS
 70
     8
  9
$ATTDIA
 70
     0
  9
$ATTREQ
 70
     1
  9
$HANDLING
 70
-16383
  9
$HANDSEED
  5
332
  9
$SURFTAB1
 70
     6
  9
$SURFTAB2
 70
     6
  9
$SURFTYPE
 70
     6
  9
$SURFU
 70
     6
  9
$SURFV
 70
     6
  9
$UCSNAME
  2

  9
$UCSORG
 10
0.0
 20
0.0
 30
0.0
  9
$UCSXDIR
 10
1.0
 20
0.0
 30
0.0
  9
$UCSYDIR
 10
0.0
 20
1.0
 30
0.0
  9
$PUCSNAME
  2

  9
$PUCSORG
 10
0.0
 20
0.0
 30
0.0
  9
$PUCSXDIR
 10
1.0
 20
0.0
 30
0.0
  9
$PUCSYDIR
 10
0.0
 20
1.0
 30
0.0
  9
$USERI1
 70
     0
  9
$USERI2
 70
     0
  9
$USERI3
 70
     0
  9
$USERI4
 70
     0
  9
$USERI5
 70
     0
  9
$USERR1
 40
0.0
  9
$USERR2
 40
0.0
  9
$USERR3
 40
0.0
  9
$USERR4
 40
0.0
  9
$USERR5
 40
0.0
  9
$WORLDVIEW
 70
     1
  9
$SHADEDGE
 70
     3
  9
$SHADEDIF
 70
    70
  9
$TILEMODE
 70
     1
  9
$MAXACTVP
 70
    16
  9
$PLIMCHECK
 70
     0
  9
$PEXTMIN
 10
1.0000000000000000E+020
 20
1.0000000000000000E+020
 30
1.0000000000000000E+020
  9
$PEXTMAX
 10
-1.0000000000000000E+020
 20
-1.0000000000000000E+020
 30
-1.0000000000000000E+020
  9
$PLIMMIN
 10
0.0
 20
0.0
  9
$PLIMMAX
 10
420.0
 20
297.0
  9
$UNITMODE
 70
     0
  9
$VISRETAIN
 70
     0
  9
$PLINEGEN
 70
     0
  9
$PSLTSCALE
 70
     1
  0
ENDSEC
  0
SECTION
  2
TABLES
  0
TABLE
  2
VPORT
 70
     3
  0
VPORT
  2
*ACTIVE
 70
     0
 10
0.0
 20
0.0
 11
1.0
 21
1.0
 12
258.42105204759019
 22
13.05696828193873
 13
0.0
 23
0.0
 14
0.5
 24
0.5
 15
10.0
 25
10.0
 16
0.0
 26
0.0
 36
1.0
 17
0.0
 27
0.0
 37
0.0
 40
664.84477480767566
 41
1.5573979591836731
 42
50.0
 43
0.0
 44
0.0
 50
0.0
 51
0.0
 71
     0
 72
   100
 73
     1
 74
     0
 75
     0
 76
     0
 77
     0
 78
     0
  0
ENDTAB
  0
TABLE
  2
LTYPE
 70
    25
  0
LTYPE
  2
CONTINUOUS
 70
     0
  3
Solid line
 72
    65
 73
     0
 40
0.0
  0
LTYPE
  2
CENTER
 70
     0
  3
____ _ ____ _ ____ _ ____ _ ____ _ ____ _ ____ 
 72
    65
 73
     4
 40
2.0
 49
1.25
 49
-0.25
 49
0.25
 49
-0.25
  0
LTYPE
  2
CENTERX2
 70
     0
  3
________  __  ________  __  ________  __  _____
 72
    65
 73
     4
 40
4.0
 49
2.5
 49
-0.5
 49
0.5
 49
-0.5
  0
ENDTAB
  0
TABLE
  2
LAYER
 70
     1
  0
LAYER
  2
0
 70
     0
 62
     7
  6
CONTINUOUS
  0
ENDTAB
  0
TABLE
  2
STYLE
 70
     1
  0
STYLE
  2
STANDARD
 70
     0
 40
0.0
 41
1.0
 50
0.0
 71
     0
 42
3.5
  3
txt
  4

  0
ENDTAB
  0
TABLE
  2
VIEW
 70
     0
  0
ENDTAB
  0
TABLE
  2
UCS
 70
     0
  0
ENDTAB
  0
TABLE
  2
APPID
 70
     1
  0
APPID
  2
ACAD
 70
     0
  0
ENDTAB
  0
TABLE
  2
DIMSTYLE
 70
     1
  0
DIMSTYLE
  2
STANDARD
 70
     0
  3

  4

  5

  6

  7

 40
1.0
 41
0.18
 42
0.0625
 43
0.38
 44
0.18
 45
0.0
 46
0.0
 47
0.0
 48
0.0
140
0.18
141
0.09
142
0.0
143
25.399999999999999
144
1.0
145
0.0
146
1.0
147
0.09
 71
     0
 72
     0
 73
     1
 74
     1
 75
     0
 76
     0
 77
     0
 78
     0
170
     0
171
     2
172
     0
173
     0
174
     0
175
     0
176
     0
177
     0
178
     0
  0
ENDTAB
  0
ENDSEC
  0
SECTION
  2
BLOCKS
  0
BLOCK
  8
0
  2
$MODEL_SPACE
 70
     0
 10
0.0
 20
0.0
 30
0.0
  3
$MODEL_SPACE
  1

  0
ENDBLK
  5
44
  8
0
  0
BLOCK
 67
     1
  8
0
  2
$PAPER_SPACE
 70
     0
 10
0.0
 20
0.0
 30
0.0
  3
$PAPER_SPACE
  1

  0
ENDBLK
  5
42
 67
     1
  8
0
  0
BLOCK
  8
0
  2
*X3
 70
     1
 10
0.0
 20
0.0
 30
0.0
  3
*X3
  1

  0
LINE
  5
77
  8
0
  6
CONTINUOUS
 62
     0
 10
188.3721497261418
 20
77.5
 30
0.0
 11
186.8721497261418
 21
79.0
 31
0.0
  0
LINE
  5
78
  8
0
  6
CONTINUOUS
 62
     0
 10
179.8721497261418
 20
86.0
 30
0.0
 11
179.01512934567771
 21
86.857020380464135
 31
0.0
  0
LINE
  5
79
  8
0
  6
CONTINUOUS
 62
     0
 10
186.95793616376869
 20
77.5
 30
0.0
 11
185.45793616376869
 21
79.0
 31
0.0
  0
LINE
  5
7A
  8
0
  6
CONTINUOUS
 62
     0
 10
185.54372260139559
 20
77.5
 30
0.0
 11
184.04372260139559
 21
79.0
 31
0.0
  0
LINE
  5
7B
  8
0
  6
CONTINUOUS
 62
     0
 10
184.12950903902251
 20
77.5
 30
0.0
 11
182.62950903902251
 21
79.0
 31
0.0
  0
LINE
  5
7C
  8
0
  6
CONTINUOUS
 62
     0
 10
182.7152954766494
 20
77.5
 30
0.0
 11
181.2152954766494
 21
79.0
 31
0.0
  0
LINE
  5
7D
  8
0
  6
CONTINUOUS
 62
     0
 10
181.3010819142763
 20
77.5
 30
0.0
 11
179.8010819142763
 21
79.0
 31
0.0
  0
LINE
  5
7E
  8
0
  6
CONTINUOUS
 62
     0
 10
179.88686835190319
 20
77.5
 30
0.0
 11
179.00926977159921
 21
78.377598580304024
 31
0.0
  0
LINE
  5
7F
  8
0
  6
CONTINUOUS
 62
     0
 10
189.1431816442574
 20
78.143181644257453
 30
0.0
 11
188.28636328851491
 21
79.0
 31
0.0
  0
LINE
  5
80
  8
0
  6
CONTINUOUS
 62
     0
 10
181.28636328851491
 20
86.0
 30
0.0
 11
179.78636328851491
 21
87.5
 31
0.0
  0
LINE
  5
81
  8
0
  6
CONTINUOUS
 62
     0
 10
189.49999999999989
 20
79.200576850888041
 30
0.0
 11
188.73944955442229
 21
79.961127296465733
 31
0.0
  0
LINE
  5
82
  8
0
  6
CONTINUOUS
 62
     0
 10
182.70057685088801
 20
86.0
 30
0.0
 11
181.20057685088801
 21
87.5
 31
0.0
  0
LINE
  5
83
  8
0
  6
CONTINUOUS
 62
     0
 10
189.49999999999989
 20
80.614790413261133
 30
0.0
 11
188.93055739861461
 21
81.18423301464648
 31
0.0
  0
LINE
  5
84
  8
0
  6
CONTINUOUS
 62
     0
 10
184.11479041326109
 20
86.0
 30
0.0
 11
182.61479041326109
 21
87.5
 31
0.0
  0
LINE
  5
85
  8
0
  6
CONTINUOUS
 62
     0
 10
189.49999999999989
 20
82.029003975634225
 30
0.0
 11
188.99996627242621
 21
82.529037703208047
 31
0.0
  0
LINE
  5
86
  8
0
  6
CONTINUOUS
 62
     0
 10
185.5290039756342
 20
86.0
 30
0.0
 11
184.0290039756342
 21
87.5
 31
0.0
  0
LINE
  5
87
  8
0
  6
CONTINUOUS
 62
     0
 10
189.49999999999989
 20
83.443217538007318
 30
0.0
 11
188.90499364143361
 21
84.038223896573655
 31
0.0
  0
LINE
  5
88
  8
0
  6
CONTINUOUS
 62
     0
 10
186.9432175380073
 20
86.0
 30
0.0
 11
185.4432175380073
 21
87.5
 31
0.0
  0
LINE
  5
89
  8
0
  6
CONTINUOUS
 62
     0
 10
189.49999999999989
 20
84.857431100380424
 30
0.0
 11
188.5561951331542
 21
85.801235967226177
 31
0.0
  0
LINE
  5
8A
  8
0
  6
CONTINUOUS
 62
     0
 10
188.35743110038041
 20
86.0
 30
0.0
 11
186.85743110038041
 21
87.5
 31
0.0
  0
LINE
  5
8B
  8
0
  6
CONTINUOUS
 62
     0
 10
189.49999999999989
 20
86.271644662753516
 30
0.0
 11
188.27164466275349
 21
87.5
 31
0.0
  0
ENDBLK
  5
8C
  8
0
  0
BLOCK
  8
0
  2
*X4
 70
     1
 10
0.0
 20
0.0
 30
0.0
  3
*X4
  1

  0
LINE
  5
8E
  8
0
  6
CONTINUOUS
 62
     0
 10
377.87676708413647
 20
77.5
 30
0.0
 11
376.37676708413647
 21
79.0
 31
0.0
  0
LINE
  5
8F
  8
0
  6
CONTINUOUS
 62
     0
 10
369.37676708413647
 20
86.0
 30
0.0
 11
367.87676708413647
 21
87.5
 31
0.0
  0
LINE
  5
90
  8
0
  6
CONTINUOUS
 62
     0
 10
376.46255352176343
 20
77.5
 30
0.0
 11
374.96255352176348
 21
79.0
 31
0.0
  0
LINE
  5
91
  8
0
  6
CONTINUOUS
 62
     0
 10
367.96255352176343
 20
86.0
 30
0.0
 11
366.46255352176343
 21
87.5
 31
0.0
  0
LINE
  5
92
  8
0
  6
CONTINUOUS
 62
     0
 10
375.04833995939032
 20
77.5
 30
0.0
 11
373.54833995939032
 21
79.0
 31
0.0
  0
LINE
  5
93
  8
0
  6
CONTINUOUS
 62
     0
 10
366.54833995939032
 20
86.0
 30
0.0
 11
365.04833995939032
 21
87.5
 31
0.0
  0
LINE
  5
94
  8
0
  6
CONTINUOUS
 62
     0
 10
373.63412639701721
 20
77.5
 30
0.0
 11
372.13412639701721
 21
79.0
 31
0.0
  0
LINE
  5
95
  8
0
  6
CONTINUOUS
 62
     0
 10
365.13412639701721
 20
86.0
 30
0.0
 11
364.00917514381831
 21
87.12495125319893
 31
0.0
  0
LINE
  5
96
  8
0
  6
CONTINUOUS
 62
     0
 10
372.21991283464411
 20
77.5
 30
0.0
 11
370.71991283464411
 21
79.0
 31
0.0
  0
LINE
  5
97
  8
0
  6
CONTINUOUS
 62
     0
 10
370.805699272271
 20
77.5
 30
0.0
 11
369.305699272271
 21
79.0
 31
0.0
  0
LINE
  5
98
  8
0
  6
CONTINUOUS
 62
     0
 10
369.39148570989801
 20
77.5
 30
0.0
 11
367.89148570989801
 21
79.0
 31
0.0
  0
LINE
  5
99
  8
0
  6
CONTINUOUS
 62
     0
 10
367.9772721475249
 20
77.5
 30
0.0
 11
366.4772721475249
 21
79.0
 31
0.0
  0
LINE
  5
9A
  8
0
  6
CONTINUOUS
 62
     0
 10
366.56305858515179
 20
77.5
 30
0.0
 11
365.06305858515179
 21
79.0
 31
0.0
  0
LINE
  5
9B
  8
0
  6
CONTINUOUS
 62
     0
 10
365.14884502277869
 20
77.5
 30
0.0
 11
364.0102640309874
 21
78.638580991791287
 31
0.0
  0
LINE
  5
9C
  8
0
  6
CONTINUOUS
 62
     0
 10
379.29098064650958
 20
77.5
 30
0.0
 11
377.79098064650958
 21
79.0
 31
0.0
  0
LINE
  5
9D
  8
0
  6
CONTINUOUS
 62
     0
 10
370.79098064650958
 20
86.0
 30
0.0
 11
369.29098064650958
 21
87.5
 31
0.0
  0
LINE
  5
9E
  8
0
  6
CONTINUOUS
 62
     0
 10
380.70519420888269
 20
77.5
 30
0.0
 11
379.20519420888269
 21
79.0
 31
0.0
  0
LINE
  5
9F
  8
0
  6
CONTINUOUS
 62
     0
 10
372.20519420888269
 20
86.0
 30
0.0
 11
370.70519420888269
 21
87.5
 31
0.0
  0
LINE
  5
A0
  8
0
  6
CONTINUOUS
 62
     0
 10
382.11940777125579
 20
77.5
 30
0.0
 11
382.0
 21
77.619407771255851
 31
0.0
  0
LINE
  5
A1
  8
0
  6
CONTINUOUS
 62
     0
 10
373.61940777125579
 20
86.0
 30
0.0
 11
372.11940777125579
 21
87.5
 31
0.0
  0
LINE
  5
A2
  8
0
  6
CONTINUOUS
 62
     0
 10
381.61940777125579
 20
78.0
 30
0.0
 11
380.61940777125579
 21
79.0
 31
0.0
  0
LINE
  5
A3
  8
0
  6
CONTINUOUS
 62
     0
 10
383.0
 20
78.033621333628943
 30
0.0
 11
381.2296936296953
 21
79.803927703933624
 31
0.0
  0
LINE
  5
A4
  8
0
  6
CONTINUOUS
 62
     0
 10
375.0336213336289
 20
86.0
 30
0.0
 11
373.5336213336289
 21
87.5
 31
0.0
  0
LINE
  5
A5
  8
0
  6
CONTINUOUS
 62
     0
 10
383.0
 20
79.447834896002036
 30
0.0
 11
381.54396331022258
 21
80.903871585779356
 31
0.0
  0
LINE
  5
A6
  8
0
  6
CONTINUOUS
 62
     0
 10
376.44783489600189
 20
86.0
 30
0.0
 11
374.94783489600201
 21
87.5
 31
0.0
  0
LINE
  5
A7
  8
0
  6
CONTINUOUS
 62
     0
 10
383.0
 20
80.862048458375142
 30
0.0
 11
381.85823299075003
 21
82.003815467625103
 31
0.0
  0
LINE
  5
A8
  8
0
  6
CONTINUOUS
 62
     0
 10
377.862048458375
 20
86.0
 30
0.0
 11
376.36204845837511
 21
87.5
 31
0.0
  0
LINE
  5
A9
  8
0
  6
CONTINUOUS
 62
     0
 10
383.0
 20
82.276262020748234
 30
0.0
 11
381.6894951917007
 21
83.586766829047519
 31
0.0
  0
LINE
  5
AA
  8
0
  6
CONTINUOUS
 62
     0
 10
379.27626202074822
 20
86.0
 30
0.0
 11
377.77626202074822
 21
87.5
 31
0.0
  0
LINE
  5
AB
  8
0
  6
CONTINUOUS
 62
     0
 10
383.0
 20
83.690475583121327
 30
0.0
 11
381.12380976675138
 21
85.566665816369877
 31
0.0
  0
LINE
  5
AC
  8
0
  6
CONTINUOUS
 62
     0
 10
380.69047558312133
 20
86.0
 30
0.0
 11
379.19047558312133
 21
87.5
 31
0.0
  0
LINE
  5
AD
  8
0
  6
CONTINUOUS
 62
     0
 10
383.0
 20
85.104689145494405
 30
0.0
 11
381.10468914549438
 21
87.0
 31
0.0
  0
LINE
  5
AE
  8
0
  6
CONTINUOUS
 62
     0
 10
381.0
 20
87.104689145494419
 30
0.0
 11
380.60468914549438
 21
87.5
 31
0.0
  0
LINE
  5
AF
  8
0
  6
CONTINUOUS
 62
     0
 10
383.0
 20
86.518902707867511
 30
0.0
 11
382.01890270786748
 21
87.5
 31
0.0
  0
ENDBLK
  5
B0
  8
0
  0
ENDSEC
  0
SECTION
  2
ENTITIES
  0
LINE
  5
B1
  8
0
 10
299.5
 20
-101.5
 30
0.0
 11
307.5
 21
-69.0
 31
0.0
  0
LINE
  5
B2
  8
0
 10
328.5
 20
-101.5
 30
0.0
 11
320.5
 21
-69.0
 31
0.0
  0
ARC
  5
B3
  8
0
 10
314.0
 20
-82.333333333333314
 30
0.0
 40
14.83333333333332
 50
64.010766416167002
 51
115.989233583833
  0
LINE
  5
B4
  8
0
 10
300.49999999999989
 20
-102.4999999999999
 30
0.0
 11
308.49999999999989
 21
-70.0
 31
0.0
  0
LINE
  5
B5
  8
0
 10
327.49999999999989
 20
-102.4999999999999
 30
0.0
 11
319.5
 21
-70.0
 31
0.0
  0
ARC
  5
B6
  8
0
 10
314.0
 20
-79.333333333333329
 30
0.0
 40
10.83333333333333
 50
59.489762593884478
 51
120.51023740611549
  0
LINE
  5
B7
  8
0
 10
292.09455543377231
 20
-117.05865704891001
 30
0.0
 11
267.9487298107781
 21
-140.23686027918549
 31
0.0
  0
LINE
  5
B8
  8
0
 10
305.59455543377231
 20
-140.44134295108989
 30
0.0
 11
273.4487298107781
 21
-149.76313972081431
 31
0.0
  0
LINE
  5
B9
  8
0
 10
290.72853002998789
 20
-116.6926316451256
 30
0.0
 11
266.58270440699363
 21
-139.8708348754011
 31
0.0
  0
LINE
  5
BA
  8
0
 10
305.22853002998789
 20
-141.80736835487431
 30
0.0
 11
273.08270440699363
 21
-151.12916512459881
 31
0.0
  0
ARC
  5
BB
  8
0
 10
281.37970979078608
 20
-138.83333333333329
 30
0.0
 40
14.83333333333332
 50
184.01076641616689
 51
235.989233583833
  0
ARC
  5
BC
  8
0
 10
278.78163357943282
 20
-140.33333333333329
 30
0.0
 40
10.83333333333333
 50
179.48976259388439
 51
240.51023740611549
  0
LINE
  5
BD
  8
0
 10
322.40544456622757
 20
-140.44134295108989
 30
0.0
 11
354.5512701892219
 21
-149.76313972081439
 31
0.0
  0
LINE
  5
BE
  8
0
 10
335.90544456622757
 20
-117.05865704891011
 30
0.0
 11
360.0512701892219
 21
-140.23686027918561
 31
0.0
  0
LINE
  5
BF
  8
0
 10
322.77146997001211
 20
-141.80736835487431
 30
0.0
 11
354.91729559300632
 21
-151.12916512459881
 31
0.0
  0
LINE
  5
C0
  8
0
 10
337.27146997001211
 20
-116.6926316451256
 30
0.0
 11
361.41729559300632
 21
-139.8708348754011
 31
0.0
  0
ARC
  5
C1
  8
0
 10
346.62029020921381
 20
-138.8333333333334
 30
0.0
 40
14.83333333333332
 50
304.01076641616692
 51
355.98923358383303
  0
ARC
  5
C2
  8
0
 10
349.21836642056712
 20
-140.3333333333334
 30
0.0
 40
10.83333333333333
 50
299.48976259388439
 51
0.5102374061155768
  0
LINE
  5
C3
  8
0
 10
328.5
 20
-101.5
 30
0.0
 11
337.27146997001211
 21
-116.6926316451256
 31
0.0
  0
LINE
  5
C4
  8
0
 10
335.90544456622757
 20
-117.05865704891011
 30
0.0
 11
327.49999999999989
 21
-102.4999999999999
 31
0.0
  0
LINE
  5
C5
  8
0
 10
322.40544456622757
 20
-140.44134295108989
 30
0.0
 11
305.59455543377231
 21
-140.44134295108989
 31
0.0
  0
LINE
  5
C6
  8
0
 10
322.77146997001211
 20
-141.80736835487431
 30
0.0
 11
305.22853002998789
 21
-141.80736835487431
 31
0.0
  0
LINE
  5
C7
  8
0
 10
300.49999999999989
 20
-102.4999999999999
 30
0.0
 11
292.09455543377231
 21
-117.05865704891001
 31
0.0
  0
LINE
  5
C8
  8
0
 10
299.5
 20
-101.5
 30
0.0
 11
290.72853002998789
 21
-116.6926316451256
 31
0.0
  0
CIRCLE
  5
C9
  8
0
 10
314.0
 20
-120.0
 30
0.0
 40
12.0
  0
ARC
  5
CA
  8
0
 10
314.0
 20
-120.0
 30
0.0
 40
16.0
 50
235.3599278062913
 51
304.64007219370887
  0
LINE
  5
CB
  8
0
 10
323.09470881417059
 20
-133.16382435257501
 30
0.0
 11
329.91299349652252
 21
-121.6663246921384
 31
0.0
  0
LINE
  5
CC
  8
0
 10
304.90529118582941
 20
-133.16382435257501
 30
0.0
 11
298.08700650347743
 21
-121.6663246921384
 31
0.0
  0
LINE
  5
CD
  8
0
 10
307.23612537076559
 20
-105.4999999999999
 30
0.0
 11
320.76387462923429
 21
-105.4999999999999
 31
0.0
  0
ARC
  5
CE
  8
0
 10
314.0
 20
-120.0
 30
0.0
 40
16.0
 50
354.02207450686132
 51
64.992166765314863
  0
ARC
  5
CF
  8
0
 10
314.0
 20
-120.0
 30
0.0
 40
16.0
 50
115.00783323468509
 51
185.97792549313871
  0
LINE
  5
D0
  8
0
 10
401.0
 20
-102.4999999999999
 30
0.0
 11
418.5
 21
-102.4999999999999
 31
0.0
  0
LINE
  5
D1
  8
0
 10
432.89064625172512
 20
-67.5
 30
0.0
 11
442.06668100980369
 21
-67.5
 31
0.0
  0
LINE
  5
D2
  8
0
 10
444.5
 20
-140.5
 30
0.0
 11
444.5
 21
-149.0
 31
0.0
  0
LINE
  5
D3
  8
0
 10
432.0
 20
-151.0
 30
0.0
 11
442.49999999999989
 21
-151.0
 31
0.0
  0
LINE
  5
D4
  8
0
 10
437.0
 20
-105.4999999999999
 30
0.0
 11
444.02882906635648
 21
-69.887266063793334
 31
0.0
  0
LINE
  5
D5
  8
0
 10
431.01579570770548
 20
-68.803626940792753
 30
0.0
 11
418.5
 21
-102.4999999999999
 31
0.0
  0
LINE
  5
D6
  8
0
 10
437.0
 20
-105.4999999999999
 30
0.0
 11
437.0
 21
-135.0
 31
0.0
  0
LINE
  5
D7
  8
0
 10
401.0
 20
-137.5
 30
0.0
 11
418.5
 21
-137.5
 31
0.0
  0
LINE
  5
D8
  8
0
 10
437.0
 20
-108.0
 30
0.0
 11
435.0
 21
-108.0
 31
0.0
  0
LINE
  5
D9
  8
0
 10
435.0
 20
-108.0
 30
0.0
 11
435.0
 21
-132.0
 31
0.0
  0
LINE
  5
DA
  8
0
 10
435.0
 20
-132.0
 30
0.0
 11
437.0
 21
-132.0
 31
0.0
  0
LINE
  5
DB
  8
0
 10
435.0
 20
-136.0
 30
0.0
 11
436.0
 21
-136.0
 31
0.0
  0
LINE
  5
DC
  8
0
 10
435.0
 20
-136.0
 30
0.0
 11
435.0
 21
-139.0
 31
0.0
  0
LINE
  5
DD
  8
0
 10
433.0
 20
-141.0
 30
0.0
 11
420.5
 21
-141.0
 31
0.0
  0
LINE
  5
DE
  8
0
 10
418.5
 20
-139.0
 30
0.0
 11
418.5
 21
-137.5
 31
0.0
  0
LINE
  5
DF
  8
0
 10
436.0
 20
-136.0
 30
0.0
 11
437.0
 21
-135.0
 31
0.0
  0
ARC
  5
E0
  8
0
 10
433.0
 20
-139.0
 30
0.0
 40
2.0
 50
270.0
 51
0.0
  0
ARC
  5
E1
  8
0
 10
420.5
 20
-139.0
 30
0.0
 40
2.0
 50
180.0
 51
270.0
  0
ARC
  5
E2
  8
0
 10
442.06668100980369
 20
-69.5
 30
0.0
 40
2.0
 50
348.8351198224513
 51
90.0
  0
ARC
  5
E3
  8
0
 10
432.89064625172512
 20
-69.5
 30
0.0
 40
2.0
 50
90.0
 51
159.6235647861636
  0
LINE
  5
E4
  8
0
 10
437.0
 20
-116.5
 30
0.0
 11
444.5
 21
-140.5
 31
0.0
  0
LINE
  5
E5
  8
0
 10
420.0
 20
-141.0
 30
0.0
 11
432.0
 21
-151.0
 31
0.0
  0
ARC
  5
E6
  8
0
 10
442.49999999999989
 20
-149.0
 30
0.0
 40
2.0
 50
270.0
 51
0.0
  0
LINE
  5
E7
  8
0
 10
435.0
 20
-139.5
 30
0.0
 11
444.5
 21
-149.0
 31
0.0
  0
LINE
  5
E8
  8
0
 10
433.0
 20
-141.0
 30
0.0
 11
443.31685881172388
 21
-150.82557982068951
 31
0.0
  0
LINE
  5
E9
  8
0
 10
400.0
 20
-136.49999999999989
 30
0.0
 11
400.0
 21
-130.0
 31
0.0
  0
LINE
  5
EA
  8
0
 10
399.5
 20
-110.0
 30
0.0
 11
399.5
 21
-130.0
 31
0.0
  0
LINE
  5
EB
  8
0
 10
399.5
 20
-130.0
 30
0.0
 11
424.0
 21
-130.0
 31
0.0
  0
LINE
  5
EC
  8
0
 10
424.0
 20
-134.0
 30
0.0
 11
400.0
 21
-134.0
 31
0.0
  0
LINE
  5
ED
  8
0
 10
399.5
 20
-110.0
 30
0.0
 11
424.0
 21
-110.0
 31
0.0
  0
LINE
  5
EE
  8
0
 10
424.0
 20
-106.0
 30
0.0
 11
400.0
 21
-106.0
 31
0.0
  0
LINE
  5
EF
  8
0
 10
400.0
 20
-110.0
 30
0.0
 11
400.0
 21
-103.4999999999999
 31
0.0
  0
ARC
  5
F0
  8
0
 10
422.49999999999989
 20
-108.0
 30
0.0
 40
2.5
 50
306.86989764584388
 51
53.130102354155973
  0
ARC
  5
F1
  8
0
 10
422.49999999999989
 20
-132.0
 30
0.0
 40
2.5
 50
306.86989764584388
 51
53.130102354155973
  0
LINE
  5
F2
  8
0
  6
CENTER
 10
396.5
 20
-120.0
 30
0.0
 11
440.0
 21
-120.0
 31
0.0
  0
LINE
  5
F3
  8
0
  6
CENTER
 10
314.0
 20
-35.0
 30
0.0
 11
314.0
 21
15.5
 31
0.0
  0
LINE
  5
F4
  8
0
 10
304.0
 20
-32.0
 30
0.0
 11
304.0
 21
-31.5
 31
0.0
  0
LINE
  5
F5
  8
0
 10
296.49999999999989
 20
-30.5
 30
0.0
 11
296.49999999999989
 21
-13.0
 31
0.0
  0
LINE
  5
F6
  8
0
 10
304.0
 20
-32.0
 30
0.0
 11
314.0
 21
-32.0
 31
0.0
  0
LINE
  5
F7
  8
0
 10
314.0
 20
-31.5
 30
0.0
 11
297.5
 21
-31.5
 31
0.0
  0
LINE
  5
F8
  8
0
 10
299.5
 20
5.5
 30
0.0
 11
314.0
 21
5.5
 31
0.0
  0
LINE
  5
F9
  8
0
 10
266.5
 20
1.31303769656958
 30
0.0
 11
266.5
 21
10.49445196860392
 31
0.0
  0
LINE
  5
FA
  8
0
 10
268.94324220717789
 20
12.444717680186841
 30
0.0
 11
314.0
 21
2.204545454545495
 31
0.0
  0
LINE
  5
FB
  8
0
 10
267.70478512473142
 20
-0.5220735540502801
 30
0.0
 11
305.0
 21
-16.68333333333333
 31
0.0
  0
ARC
  5
FC
  8
0
 10
268.5
 20
10.49445196860392
 30
0.0
 40
2.0
 50
77.195733934713246
 51
180.0
  0
ARC
  5
FD
  8
0
 10
268.5
 20
1.31303769656958
 30
0.0
 40
2.0
 50
180.0
 51
246.5713071912553
  0
LINE
  5
FE
  8
0
 10
268.4035888435485
 20
0.1751115011289528
 30
0.0
 11
305.0
 21
-15.68333333333336
 31
0.0
  0
LINE
  5
FF
  8
0
 10
269.3324316553834
 20
11.356265532867379
 30
0.0
 11
314.0
 21
1.204545454545439
 31
0.0
  0
LINE
  5
100
  8
0
 10
267.5
 20
1.5514449390938401
 30
0.0
 11
267.5
 21
9.8935662491801963
 31
0.0
  0
ARC
  5
101
  8
0
 10
269.0
 20
9.8935662491801963
 30
0.0
 40
1.5
 50
77.195733934713203
 51
180.0
  0
ARC
  5
102
  8
0
 10
269.0
 20
1.5514449390938401
 30
0.0
 40
1.5
 50
180.0
 51
246.5713071912553
  0
LINE
  5
103
  8
0
 10
305.0
 20
-15.68333333333333
 30
0.0
 11
305.0
 21
3.2499999999999711
 31
0.0
  0
ARC
  5
104
  8
0
 10
312.73099451086591
 20
19.515211616346068
 30
0.0
 40
36.037561553213358
 50
257.61227879315499
 51
272.01799706276631
  0
ARC
  5
105
  8
0
 10
312.73099451086591
 20
18.515211616346068
 30
0.0
 40
36.037561553213358
 50
257.61227879315499
 51
272.01799706276631
  0
LINE
  5
106
  8
0
 10
323.0
 20
-15.68333333333333
 30
0.0
 11
323.0
 21
3.2499999999999711
 31
0.0
  0
LINE
  5
107
  8
0
 10
360.29521487526853
 20
-0.5220735540502801
 30
0.0
 11
323.0
 21
-16.68333333333333
 31
0.0
  0
LINE
  5
108
  8
0
 10
359.59641115645138
 20
0.1751115011289528
 30
0.0
 11
323.0
 21
-15.68333333333336
 31
0.0
  0
LINE
  5
109
  8
0
 10
331.49999999999989
 20
-30.5
 30
0.0
 11
331.49999999999989
 21
-13.0
 31
0.0
  0
LINE
  5
10A
  8
0
 10
314.0
 20
-31.5
 30
0.0
 11
330.5
 21
-31.5
 31
0.0
  0
LINE
  5
10B
  8
0
 10
324.0
 20
-32.0
 30
0.0
 11
314.0
 21
-32.0
 31
0.0
  0
LINE
  5
10C
  8
0
 10
324.0
 20
-32.0
 30
0.0
 11
324.0
 21
-31.5
 31
0.0
  0
ARC
  5
10D
  8
0
 10
315.26900548913397
 20
18.515211616346068
 30
0.0
 40
36.037561553213358
 50
267.98200293723357
 51
282.3877212068449
  0
ARC
  5
10E
  8
0
 10
315.26900548913397
 20
19.515211616346068
 30
0.0
 40
36.037561553213358
 50
267.98200293723357
 51
282.3877212068449
  0
LINE
  5
10F
  8
0
 10
358.66756834461648
 20
11.356265532867379
 30
0.0
 11
314.0
 21
1.204545454545439
 31
0.0
  0
LINE
  5
110
  8
0
 10
359.056757792822
 20
12.444717680186841
 30
0.0
 11
314.0
 21
2.204545454545495
 31
0.0
  0
LINE
  5
111
  8
0
 10
360.49999999999989
 20
1.5514449390938401
 30
0.0
 11
360.49999999999989
 21
9.8935662491801963
 31
0.0
  0
LINE
  5
112
  8
0
 10
361.5
 20
1.31303769656958
 30
0.0
 11
361.5
 21
10.49445196860392
 31
0.0
  0
ARC
  5
113
  8
0
 10
359.0
 20
1.5514449390938401
 30
0.0
 40
1.5
 50
293.42869280874447
 51
0.0
  0
ARC
  5
114
  8
0
 10
359.5
 20
1.31303769656958
 30
0.0
 40
2.0
 50
293.42869280874447
 51
0.0
  0
ARC
  5
115
  8
0
 10
359.0
 20
9.8935662491801963
 30
0.0
 40
1.5
 50
0.0
 51
102.8042660652867
  0
ARC
  5
116
  8
0
 10
359.5
 20
10.49445196860392
 30
0.0
 40
2.0
 50
0.0
 51
102.8042660652867
  0
LINE
  5
117
  8
0
 10
328.5
 20
5.5
 30
0.0
 11
314.0
 21
5.5
 31
0.0
  0
LINE
  5
118
  8
0
 10
416.5
 20
-126.0
 30
0.0
 11
399.5
 21
-126.0
 31
0.0
  0
LINE
  5
119
  8
0
 10
420.5
 20
-114.0
 30
0.0
 11
420.5
 21
-126.0
 31
0.0
  0
LINE
  5
11A
  8
0
 10
399.5
 20
-114.0
 30
0.0
 11
416.5
 21
-114.0
 31
0.0
  0
LINE
  5
11B
  8
0
 10
416.5
 20
-115.5
 30
0.0
 11
399.5
 21
-115.5
 31
0.0
  0
LINE
  5
11C
  8
0
 10
399.5
 20
-125.0
 30
0.0
 11
415.0
 21
-125.0
 31
0.0
  0
LINE
  5
11D
  8
0
 10
416.5
 20
-115.5
 30
0.0
 11
416.5
 21
-124.5
 31
0.0
  0
LINE
  5
11E
  8
0
 10
417.49999999999989
 20
-120.0
 30
0.0
 11
416.5
 21
-124.5
 31
0.0
  0
LINE
  5
11F
  8
0
 10
400.49999999999989
 20
-126.0
 30
0.0
 11
399.5
 21
-125.0
 31
0.0
  0
LINE
  5
120
  8
0
 10
416.5
 20
-124.5
 30
0.0
 11
399.5
 21
-124.5
 31
0.0
  0
LINE
  5
121
  8
0
 10
418.0
 20
-125.5
 30
0.0
 11
416.5
 21
-125.5
 31
0.0
  0
LINE
  5
122
  8
0
 10
420.5
 20
-126.0
 30
0.0
 11
418.0
 21
-126.0
 31
0.0
  0
LINE
  5
123
  8
0
 10
418.0
 20
-126.0
 30
0.0
 11
418.0
 21
-125.5
 31
0.0
  0
LINE
  5
124
  8
0
 10
416.5
 20
-126.0
 30
0.0
 11
416.5
 21
-125.5
 31
0.0
  0
LINE
  5
125
  8
0
 10
420.5
 20
-114.0
 30
0.0
 11
418.0
 21
-114.0
 31
0.0
  0
LINE
  5
126
  8
0
 10
418.0
 20
-114.0
 30
0.0
 11
418.0
 21
-114.5
 31
0.0
  0
LINE
  5
127
  8
0
 10
418.0
 20
-114.5
 30
0.0
 11
416.5
 21
-114.5
 31
0.0
  0
LINE
  5
128
  8
0
 10
416.5
 20
-114.5
 30
0.0
 11
416.5
 21
-114.0
 31
0.0
  0
LINE
  5
129
  8
0
 62
     0
 10
409.4406922210656
 20
-114.0
 30
0.0
 11
413.4406922210656
 21
-110.0
 31
0.0
  0
LINE
  5
12A
  8
0
 62
     0
 10
417.4406922210656
 20
-106.0
 30
0.0
 11
441.68671502760679
 21
-81.753977193458837
 31
0.0
  0
LINE
  5
12B
  8
0
 62
     0
 10
405.19805153394628
 20
-114.0
 30
0.0
 11
409.19805153394628
 21
-110.0
 31
0.0
  0
LINE
  5
12C
  8
0
 62
     0
 10
419.5647877299408
 20
-99.633263804005566
 30
0.0
 11
442.72998732771811
 21
-76.468064206228249
 31
0.0
  0
LINE
  5
12D
  8
0
 62
     0
 10
413.19805153394628
 20
-106.0
 30
0.0
 11
416.69805153394628
 21
-102.4999999999999
 31
0.0
  0
LINE
  5
12E
  8
0
 62
     0
 10
400.95541084682702
 20
-114.0
 30
0.0
 11
404.95541084682702
 21
-110.0
 31
0.0
  0
LINE
  5
12F
  8
0
 62
     0
 10
422.07180268142031
 20
-92.883608165406713
 30
0.0
 11
443.7732596278293
 21
-71.18215121899766
 31
0.0
  0
LINE
  5
130
  8
0
 62
     0
 10
408.95541084682702
 20
-106.0
 30
0.0
 11
412.45541084682702
 21
-102.4999999999999
 31
0.0
  0
LINE
  5
131
  8
0
 62
     0
 10
399.5
 20
-111.2127701597078
 30
0.0
 11
400.71277015970782
 21
-110.0
 31
0.0
  0
LINE
  5
132
  8
0
 62
     0
 10
424.57881763289993
 20
-86.133952526807846
 30
0.0
 11
442.9879499967202
 21
-67.724820162987612
 31
0.0
  0
LINE
  5
133
  8
0
 62
     0
 10
400.4701294725885
 20
-106.0
 30
0.0
 11
403.97012947258838
 21
-102.4999999999999
 31
0.0
  0
LINE
  5
134
  8
0
 62
     0
 10
427.08583258437949
 20
-79.384296888208993
 30
0.0
 11
438.9701294725885
 21
-67.5
 31
0.0
  0
LINE
  5
135
  8
0
 62
     0
 10
429.59284753585911
 20
-72.634641249610127
 30
0.0
 11
434.72748878546918
 21
-67.5
 31
0.0
  0
LINE
  5
136
  8
0
 62
     0
 10
399.5
 20
-128.18333290818489
 30
0.0
 11
401.68333290818481
 21
-126.0
 31
0.0
  0
LINE
  5
137
  8
0
 62
     0
 10
421.68333290818492
 20
-106.0
 30
0.0
 11
440.64344272749548
 21
-87.039890180689426
 31
0.0
  0
LINE
  5
138
  8
0
 62
     0
 10
424.83059300015429
 20
-107.09538059514981
 30
0.0
 11
439.60017042738411
 21
-92.325803167920014
 31
0.0
  0
LINE
  5
139
  8
0
 62
     0
 10
401.92597359530419
 20
-130.0
 30
0.0
 11
405.92597359530419
 21
-126.0
 31
0.0
  0
LINE
  5
13A
  8
0
 62
     0
 10
400.0
 20
-136.1686142824235
 30
0.0
 11
402.16861428242339
 21
-134.0
 31
0.0
  0
LINE
  5
13B
  8
0
 62
     0
 10
420.5
 20
-115.6686142824235
 30
0.0
 11
438.5568981272728
 21
-97.611716155150603
 31
0.0
  0
LINE
  5
13C
  8
0
 62
     0
 10
406.1686142824235
 20
-130.0
 30
0.0
 11
410.1686142824235
 21
-126.0
 31
0.0
  0
LINE
  5
13D
  8
0
 62
     0
 10
402.91125496954271
 20
-137.5
 30
0.0
 11
406.41125496954282
 21
-134.0
 31
0.0
  0
LINE
  5
13E
  8
0
 62
     0
 10
420.5
 20
-119.9112549695428
 30
0.0
 11
437.5136258271616
 21
-102.89762914238111
 31
0.0
  0
LINE
  5
13F
  8
0
 62
     0
 10
410.41125496954282
 20
-130.0
 30
0.0
 11
414.41125496954271
 21
-126.0
 31
0.0
  0
LINE
  5
140
  8
0
 62
     0
 10
407.15389565666197
 20
-137.5
 30
0.0
 11
410.65389565666197
 21
-134.0
 31
0.0
  0
LINE
  5
141
  8
0
 62
     0
 10
436.65389565666197
 20
-108.0
 30
0.0
 11
437.0
 21
-107.653895656662
 31
0.0
  0
LINE
  5
142
  8
0
 62
     0
 10
414.65389565666209
 20
-130.0
 30
0.0
 11
418.65389565666197
 21
-126.0
 31
0.0
  0
LINE
  5
143
  8
0
 62
     0
 10
420.5
 20
-124.153895656662
 30
0.0
 11
435.0
 21
-109.653895656662
 31
0.0
  0
LINE
  5
144
  8
0
 62
     0
 10
411.39653634378129
 20
-137.5
 30
0.0
 11
414.89653634378129
 21
-134.0
 31
0.0
  0
LINE
  5
145
  8
0
 62
     0
 10
418.89653634378129
 20
-130.0
 30
0.0
 11
435.0
 21
-113.89653634378131
 31
0.0
  0
LINE
  5
146
  8
0
 62
     0
 10
415.63917703090061
 20
-137.5
 30
0.0
 11
419.13917703090061
 21
-134.0
 31
0.0
  0
LINE
  5
147
  8
0
 62
     0
 10
423.13917703090061
 20
-130.0
 30
0.0
 11
435.0
 21
-118.1391770309006
 31
0.0
  0
LINE
  5
148
  8
0
 62
     0
 10
418.5
 20
-138.8818177180199
 30
0.0
 11
423.38181771801987
 21
-134.0
 31
0.0
  0
LINE
  5
149
  8
0
 62
     0
 10
424.96500927402138
 20
-132.41680844399841
 30
0.0
 11
435.0
 21
-122.3818177180198
 31
0.0
  0
LINE
  5
14A
  8
0
 62
     0
 10
420.62445840513919
 20
-141.0
 30
0.0
 11
435.0
 21
-126.62445840513919
 31
0.0
  0
LINE
  5
14B
  8
0
 62
     0
 10
424.86709909225851
 20
-141.0
 30
0.0
 11
435.0
 21
-130.8670990922584
 31
0.0
  0
LINE
  5
14C
  8
0
 62
     0
 10
429.10973977937778
 20
-141.0
 30
0.0
 11
437.0
 21
-133.10973977937769
 31
0.0
  0
LINE
  5
14D
  8
0
 62
     0
 10
433.39096635739469
 20
-140.96141410910221
 30
0.0
 11
434.96141410910229
 21
-139.39096635739469
 31
0.0
  0
LINE
  5
14E
  8
0
 62
     0
 10
404.71277015970782
 20
-106.0
 30
0.0
 11
408.21277015970782
 21
-102.4999999999999
 31
0.0
  0
LINE
  5
14F
  8
0
 62
     0
 10
413.68333290818492
 20
-114.0
 30
0.0
 11
417.68333290818492
 21
-110.0
 31
0.0
  0
LINE
  5
150
  8
0
 62
     0
 10
417.42597359530419
 20
-114.5
 30
0.0
 11
421.92597359530419
 21
-110.0
 31
0.0
  0
LINE
  5
151
  8
0
 10
401.0
 20
-102.4999999999999
 30
0.0
 11
400.0
 21
-103.4999999999999
 31
0.0
  0
LINE
  5
152
  8
0
 10
401.0
 20
-137.5
 30
0.0
 11
400.0
 21
-136.49999999999989
 31
0.0
  0
LINE
  5
153
  8
0
 10
330.5
 20
-31.5
 30
0.0
 11
331.49999999999989
 21
-30.5
 31
0.0
  0
LINE
  5
154
  8
0
 10
297.5
 20
-31.5
 30
0.0
 11
296.49999999999989
 21
-30.5
 31
0.0
  0
LINE
  5
155
  8
0
 62
     0
 10
414.52900397563423
 20
-126.0
 30
0.0
 11
413.02900397563423
 21
-124.5
 31
0.0
  0
LINE
  5
156
  8
0
 62
     0
 10
404.02900397563411
 20
-115.5
 30
0.0
 11
402.52900397563423
 21
-114.0
 31
0.0
  0
LINE
  5
157
  8
0
 62
     0
 10
411.70057685088801
 20
-126.0
 30
0.0
 11
410.20057685088801
 21
-124.5
 31
0.0
  0
LINE
  5
158
  8
0
 62
     0
 10
401.20057685088801
 20
-115.5
 30
0.0
 11
399.70057685088801
 21
-114.0
 31
0.0
  0
LINE
  5
159
  8
0
 62
     0
 10
408.8721497261418
 20
-126.0
 30
0.0
 11
407.3721497261418
 21
-124.5
 31
0.0
  0
LINE
  5
15A
  8
0
 62
     0
 10
406.04372260139559
 20
-126.0
 30
0.0
 11
404.54372260139559
 21
-124.5
 31
0.0
  0
LINE
  5
15B
  8
0
 62
     0
 10
403.21529547664937
 20
-126.0
 30
0.0
 11
401.71529547664937
 21
-124.5
 31
0.0
  0
LINE
  5
15C
  8
0
 62
     0
 10
416.85743110038032
 20
-125.5
 30
0.0
 11
415.85743110038032
 21
-124.5
 31
0.0
  0
LINE
  5
15D
  8
0
 62
     0
 10
406.85743110038032
 20
-115.5
 30
0.0
 11
405.35743110038038
 21
-114.0
 31
0.0
  0
LINE
  5
15E
  8
0
 62
     0
 10
420.18585822512659
 20
-126.0
 30
0.0
 11
416.8974287682048
 21
-122.7115705430782
 31
0.0
  0
LINE
  5
15F
  8
0
 62
     0
 10
409.68585822512648
 20
-115.5
 30
0.0
 11
408.18585822512659
 21
-114.0
 31
0.0
  0
LINE
  5
160
  8
0
 62
     0
 10
420.5
 20
-123.48571465012709
 30
0.0
 11
417.41168824543138
 21
-120.3974028955586
 31
0.0
  0
LINE
  5
161
  8
0
 62
     0
 10
412.51428534987281
 20
-115.5
 30
0.0
 11
411.01428534987281
 21
-114.0
 31
0.0
  0
LINE
  5
162
  8
0
 62
     0
 10
420.5
 20
-120.65728752538099
 30
0.0
 11
416.8306535786802
 21
-116.98794110406121
 31
0.0
  0
LINE
  5
163
  8
0
 62
     0
 10
415.34271247461902
 20
-115.5
 30
0.0
 11
413.84271247461902
 21
-114.0
 31
0.0
  0
LINE
  5
164
  8
0
 62
     0
 10
420.5
 20
-117.8288604006348
 30
0.0
 11
417.17113959936518
 21
-114.5
 31
0.0
  0
LINE
  5
165
  8
0
 62
     0
 10
420.5
 20
-115.0004332758886
 30
0.0
 11
419.49956672411139
 21
-114.0
 31
0.0
  0
LINE
  5
166
  8
0
 10
416.5
 20
-115.5
 30
0.0
 11
417.49999999999989
 21
-120.0
 31
0.0
  0
ARC
  5
167
  8
0
 10
314.0
 20
82.5
 30
0.0
 40
32.5
 50
85.500296940366226
 51
94.499703059633788
  0
LINE
  5
168
  8
0
 10
322.5
 20
93.499999999999986
 30
0.0
 11
318.80946428953331
 21
112.87531247995
 31
0.0
  0
LINE
  5
169
  8
0
 10
305.5
 20
93.499999999999986
 30
0.0
 11
309.19053571046658
 21
112.87531247995
 31
0.0
  0
LINE
  5
16A
  8
0
 10
300.2237205583711
 20
84.361215932167724
 30
0.0
 11
285.28947559970612
 21
71.477462013354923
 31
0.0
  0
LINE
  5
16B
  8
0
 10
308.7237205583711
 20
69.638784067832262
 30
0.0
 11
290.09893988923938
 21
63.147225506695037
 31
0.0
  0
LINE
  5
16C
  8
0
 10
319.27627944162879
 20
69.638784067832262
 30
0.0
 11
337.90106011076051
 21
63.147225506695023
 31
0.0
  0
LINE
  5
16D
  8
0
 10
327.77627944162879
 20
84.36121593216771
 30
0.0
 11
342.71052440029388
 21
71.477462013354909
 31
0.0
  0
LINE
  5
16E
  8
0
 10
322.5
 20
93.499999999999986
 30
0.0
 11
327.77627944162879
 21
84.36121593216771
 31
0.0
  0
LINE
  5
16F
  8
0
 10
319.27627944162879
 20
69.638784067832262
 30
0.0
 11
308.7237205583711
 21
69.638784067832262
 31
0.0
  0
LINE
  5
170
  8
0
 10
305.5
 20
93.499999999999986
 30
0.0
 11
300.2237205583711
 21
84.361215932167724
 31
0.0
  0
CIRCLE
  5
171
  8
0
 10
314.0
 20
82.5
 30
0.0
 40
8.0
  0
ARC
  5
172
  8
0
 10
314.0
 20
82.5
 30
0.0
 40
10.0
 50
234.77810540455499
 51
305.22189459544478
  0
ARC
  5
173
  8
0
 10
314.0
 20
82.5
 30
0.0
 40
32.5
 50
325.50029694036618
 51
334.49970305964359
  0
ARC
  5
174
  8
0
 10
314.0
 20
82.5
 30
0.0
 40
32.5
 50
205.50029694035629
 51
214.4997030596337
  0
ARC
  5
175
  8
0
 10
316.35361787347711
 20
112.407532210225
 30
0.0
 40
2.5
 50
10.78429786756273
 51
85.500296940365985
  0
ARC
  5
176
  8
0
 10
311.64638212652278
 20
112.407532210225
 30
0.0
 40
2.5
 50
94.499703059634015
 51
169.2157021324374
  0
ARC
  5
177
  8
0
 10
286.92250840470513
 20
69.584526764119801
 30
0.0
 40
2.5
 50
130.7842978675624
 51
205.5002969402972
  0
ARC
  5
178
  8
0
 10
289.27612627818229
 20
65.507941025655157
 30
0.0
 40
2.5
 50
214.49970305963399
 51
289.21570213243729
  0
ARC
  5
179
  8
0
 10
338.7238737218176
 20
65.507941025655143
 30
0.0
 40
2.5
 50
250.7842978675624
 51
325.50029694036641
  0
ARC
  5
17A
  8
0
 10
341.07749159529482
 20
69.584526764119772
 30
0.0
 40
2.5
 50
334.49970305970282
 51
49.215702132437393
  0
LINE
  5
17B
  8
0
 10
306.49999999999989
 20
92.5
 30
0.0
 11
310.28556651729139
 21
112.3742242157799
 31
0.0
  0
LINE
  5
17C
  8
0
 10
321.49999999999989
 20
92.5
 30
0.0
 11
317.7144334827085
 21
112.3742242157799
 31
0.0
  0
ARC
  5
17D
  8
0
 10
315.74975634986362
 20
112.0
 30
0.0
 40
2.0
 50
10.784297867562611
 51
90.000000000000099
  0
ARC
  5
17E
  8
0
 10
312.25024365013633
 20
112.0
 30
0.0
 40
2.0
 50
90.0
 51
169.21570213243729
  0
ARC
  5
17F
  8
0
 10
314.0
 20
87.064802036848789
 30
0.0
 40
26.991971706380259
 50
86.283191015615671
 51
93.716808984384315
  0
LINE
  5
180
  8
0
 10
301.58974596215558
 20
83.99519052838329
 30
0.0
 11
286.27094616942787
 21
70.779681648803134
 31
0.0
  0
LINE
  5
181
  8
0
 10
309.08974596215558
 20
71.004809471616696
 30
0.0
 11
289.98537965213649
 21
64.346094135416877
 31
0.0
  0
ARC
  5
182
  8
0
 10
289.32712876329077
 20
66.23466655058499
 30
0.0
 40
2.0
 50
209.99999999999989
 51
289.21570213243729
  0
ARC
  5
183
  8
0
 10
310.04676547284203
 20
80.217598981575605
 30
0.0
 40
26.991971706380259
 50
206.2831910156155
 51
213.71680898438419
  0
ARC
  5
184
  8
0
 10
287.57737241342721
 20
69.265333449415024
 30
0.0
 40
2.0
 50
130.78429786756249
 51
210.0
  0
LINE
  5
185
  8
0
 10
318.91025403784442
 20
71.004809471616696
 30
0.0
 11
338.0146203478634
 21
64.346094135416848
 31
0.0
  0
LINE
  5
186
  8
0
 10
326.41025403784442
 20
83.995190528383276
 30
0.0
 11
341.72905383057201
 21
70.77968164880312
 31
0.0
  0
ARC
  5
187
  8
0
 10
340.42262758657267
 20
69.265333449414982
 30
0.0
 40
2.0
 50
330.0
 51
49.215702132437379
  0
ARC
  5
188
  8
0
 10
317.95323452715792
 20
80.217598981575577
 30
0.0
 40
26.991971706380259
 50
326.28319101561561
 51
333.71680898438427
  0
ARC
  5
189
  8
0
 10
338.67287123670911
 20
66.234666550584933
 30
0.0
 40
2.0
 50
250.7842978675626
 51
330.0
  0
LINE
  5
18A
  8
0
 10
306.49999999999989
 20
92.5
 30
0.0
 11
301.58974596215558
 21
83.99519052838329
 31
0.0
  0
LINE
  5
18B
  8
0
 10
309.08974596215558
 20
71.004809471616696
 30
0.0
 11
318.91025403784442
 21
71.004809471616696
 31
0.0
  0
LINE
  5
18C
  8
0
 10
326.41025403784442
 20
83.995190528383276
 30
0.0
 11
321.49999999999989
 21
92.5
 31
0.0
  0
LINE
  5
18D
  8
0
 10
319.76744531926062
 20
74.330754350043208
 30
0.0
 11
323.67655468073929
 21
79.977245649956799
 31
0.0
  0
LINE
  5
18E
  8
0
 10
308.23255468073933
 20
74.330754350043208
 30
0.0
 11
304.3234453192606
 21
79.977245649956799
 31
0.0
  0
LINE
  5
18F
  8
0
 10
310.87750100080081
 20
92.0
 30
0.0
 11
317.12249899919908
 21
92.0
 31
0.0
  0
ARC
  5
190
  8
0
 10
314.0
 20
82.5
 30
0.0
 40
10.0
 50
108.1948723387667
 51
194.61220165791289
  0
ARC
  5
191
  8
0
 10
314.0
 20
82.5
 30
0.0
 40
10.0
 50
345.38779834208702
 51
71.805127661233243
  0
LINE
  5
192
  8
0
 10
384.5653903539631
 20
115.0
 30
0.0
 11
390.11113441479222
 21
115.0
 31
0.0
  0
LINE
  5
193
  8
0
 10
384.12447571942943
 20
63.0
 30
0.0
 11
390.5
 21
63.0
 31
0.0
  0
LINE
  5
194
  8
0
  6
CENTER
 10
361.0
 20
82.5
 30
0.0
 11
390.0
 21
82.5
 31
0.0
  0
LINE
  5
195
  8
0
 10
364.0
 20
73.5
 30
0.0
 11
364.0
 21
91.5
 31
0.0
  0
LINE
  5
196
  8
0
 10
366.0
 20
93.499999999999986
 30
0.0
 11
376.0
 21
93.499999999999986
 31
0.0
  0
LINE
  5
197
  8
0
 10
366.0
 20
71.5
 30
0.0
 11
376.0
 21
71.5
 31
0.0
  0
LINE
  5
198
  8
0
 10
392.0
 20
70.0
 30
0.0
 11
392.0
 21
64.5
 31
0.0
  0
LINE
  5
199
  8
0
 10
387.0
 20
93.499999999999986
 30
0.0
 11
387.0
 21
72.5
 31
0.0
  0
LINE
  5
19A
  8
0
 10
383.1490900817945
 20
113.99405823447739
 30
0.0
 11
376.0
 21
93.499999999999986
 31
0.0
  0
LINE
  5
19B
  8
0
 10
387.0
 20
93.499999999999986
 30
0.0
 11
391.572146455351
 21
113.16022975800951
 31
0.0
  0
LINE
  5
19C
  8
0
 10
387.0
 20
90.5
 30
0.0
 11
385.0
 21
90.5
 31
0.0
  0
LINE
  5
19D
  8
0
 10
385.0
 20
90.5
 30
0.0
 11
385.0
 21
74.5
 31
0.0
  0
LINE
  5
19E
  8
0
 10
385.0
 20
74.5
 30
0.0
 11
387.0
 21
74.5
 31
0.0
  0
LINE
  5
19F
  8
0
 10
377.49999999999989
 20
69.638784067832262
 30
0.0
 11
384.0
 21
69.638784067832262
 31
0.0
  0
LINE
  5
1A0
  8
0
 10
376.0
 20
71.5
 30
0.0
 11
376.0
 21
71.138784067832262
 31
0.0
  0
LINE
  5
1A1
  8
0
 10
385.5
 20
72.5
 30
0.0
 11
385.5
 21
71.13878406783229
 31
0.0
  0
LINE
  5
1A2
  8
0
 10
385.3569773239746
 20
70.499555984736617
 30
0.0
 11
392.0
 21
63.714695507221947
 31
0.0
  0
LINE
  5
1A3
  8
0
 10
384.65352694907131
 20
69.788634992049481
 30
0.0
 11
391.30024523324198
 21
63.0
 31
0.0
  0
LINE
  5
1A4
  8
0
 10
387.0
 20
72.5
 30
0.0
 11
385.5
 21
72.5
 31
0.0
  0
ARC
  5
1A5
  8
0
 10
377.49999999999989
 20
71.138784067832262
 30
0.0
 40
1.5
 50
180.0
 51
270.0
  0
ARC
  5
1A6
  8
0
 10
384.0
 20
71.138784067832262
 30
0.0
 40
1.5
 50
270.0
 51
0.0000000000005725
  0
LINE
  5
1A7
  8
0
 10
387.0
 20
84.500000000000014
 30
0.0
 11
392.0
 21
70.0
 31
0.0
  0
LINE
  5
1A8
  8
0
 10
376.63872563527491
 20
69.910693489467874
 30
0.0
 11
383.06001634369238
 21
63.443152689644499
 31
0.0
  0
ARC
  5
1A9
  8
0
 10
390.5
 20
64.5
 30
0.0
 40
1.5
 50
270.0
 51
0.0
  0
ARC
  5
1AA
  8
0
 10
384.12447571942943
 20
64.5
 30
0.0
 40
1.5
 50
224.79440155889441
 51
270.0
  0
ARC
  5
1AB
  8
0
 10
390.11113441479222
 20
113.5
 30
0.0
 40
1.5
 50
346.90810693565311
 51
90.0
  0
ARC
  5
1AC
  8
0
 10
384.5653903539631
 20
113.5
 30
0.0
 40
1.5
 50
90.0
 51
160.7693276243387
  0
LINE
  5
1AD
  8
0
 10
381.0
 20
79.0
 30
0.0
 11
381.0
 21
86.0
 31
0.0
  0
ARC
  5
1AE
  8
0
 10
366.0
 20
73.5
 30
0.0
 40
2.0
 50
180.0
 51
270.0
  0
ARC
  5
1AF
  8
0
 10
366.0
 20
91.5
 30
0.0
 40
2.0
 50
90.0
 51
180.0
  0
LINE
  5
1B0
  8
0
 62
     0
 10
370.82337649086281
 20
87.5
 30
0.0
 11
390.08382530579911
 21
106.7604488149363
 31
0.0
  0
LINE
  5
1B1
  8
0
 62
     0
 10
366.58073580374349
 20
87.5
 30
0.0
 11
372.58073580374349
 21
93.499999999999986
 31
0.0
  0
LINE
  5
1B2
  8
0
 62
     0
 10
377.83174867656589
 20
98.751012872822415
 30
0.0
 11
391.3694739988656
 21
112.28873819512199
 31
0.0
  0
LINE
  5
1B3
  8
0
 62
     0
 10
364.0
 20
89.161904883375755
 30
0.0
 11
368.33809511662417
 21
93.499999999999986
 31
0.0
  0
LINE
  5
1B4
  8
0
 62
     0
 10
380.10459190180842
 20
105.2664967851841
 30
0.0
 11
389.83809511662417
 21
115.0
 31
0.0
  0
LINE
  5
1B5
  8
0
 62
     0
 10
382.37743512705089
 20
111.7819806975459
 30
0.0
 11
385.59545442950491
 21
115.0
 31
0.0
  0
LINE
  5
1B6
  8
0
 62
     0
 10
364.0
 20
76.433982822017995
 30
0.0
 11
365.06601717798202
 21
77.5
 31
0.0
  0
LINE
  5
1B7
  8
0
 62
     0
 10
364.28301149551118
 20
72.474353630409837
 30
0.0
 11
369.30865786510128
 21
77.5
 31
0.0
  0
LINE
  5
1B8
  8
0
 62
     0
 10
379.30865786510128
 20
87.5
 30
0.0
 11
387.51252791966618
 21
95.703870054564845
 31
0.0
  0
LINE
  5
1B9
  8
0
 62
     0
 10
367.55129855222071
 20
71.5
 30
0.0
 11
373.55129855222071
 21
77.5
 31
0.0
  0
LINE
  5
1BA
  8
0
 62
     0
 10
383.0
 20
86.948701447779314
 30
0.0
 11
385.0
 21
88.948701447779314
 31
0.0
  0
LINE
  5
1BB
  8
0
 62
     0
 10
371.79393923933992
 20
71.5
 30
0.0
 11
377.79393923933992
 21
77.5
 31
0.0
  0
LINE
  5
1BC
  8
0
 62
     0
 10
383.0
 20
82.706060760660023
 30
0.0
 11
385.0
 21
84.706060760660037
 31
0.0
  0
LINE
  5
1BD
  8
0
 62
     0
 10
376.0
 20
71.463420073540732
 30
0.0
 11
382.03657992645918
 21
77.5
 31
0.0
  0
LINE
  5
1BE
  8
0
 62
     0
 10
383.0
 20
78.463420073540732
 30
0.0
 11
385.0
 21
80.463420073540732
 31
0.0
  0
LINE
  5
1BF
  8
0
 62
     0
 10
378.41800468141082
 20
69.638784067832262
 30
0.0
 11
385.0
 21
76.220779386421441
 31
0.0
  0
LINE
  5
1C0
  8
0
 62
     0
 10
382.66064536853008
 20
69.638784067832262
 30
0.0
 11
385.5
 21
72.47813869930215
 31
0.0
  0
LINE
  5
1C1
  8
0
 62
     0
 10
385.52186130069782
 20
72.5
 30
0.0
 11
387.0
 21
73.978138699302164
 31
0.0
  0
LINE
  5
1C2
  8
0
  6
CENTER
 10
314.0
 20
144.5
 30
0.0
 11
314.0
 21
178.0
 31
0.0
  0
LINE
  5
1C3
  8
0
 10
309.0
 20
158.04805089157469
 30
0.0
 11
309.0
 21
163.0
 31
0.0
  0
LINE
  5
1C4
  8
0
 10
319.0
 20
158.04805089157469
 30
0.0
 11
319.0
 21
163.0
 31
0.0
  0
LINE
  5
1C5
  8
0
 10
325.0
 20
149.5
 30
0.0
 11
325.0
 21
159.49999999999989
 31
0.0
  0
LINE
  5
1C6
  8
0
 10
303.0
 20
149.5
 30
0.0
 11
303.0
 21
159.49999999999989
 31
0.0
  0
LINE
  5
1C7
  8
0
 10
323.0
 20
147.5
 30
0.0
 11
305.0
 21
147.5
 31
0.0
  0
ARC
  5
1C8
  8
0
 10
323.0
 20
149.5
 30
0.0
 40
2.0
 50
270.0
 51
0.0
  0
ARC
  5
1C9
  8
0
 10
305.0
 20
149.5
 30
0.0
 40
2.0
 50
180.0
 51
270.0
  0
LINE
  5
1CA
  8
0
 10
303.0
 20
170.5
 30
0.0
 11
324.99999999999989
 21
170.5
 31
0.0
  0
ARC
  5
1CB
  8
0
 10
286.0
 20
168.0653903539631
 30
0.0
 40
1.5
 50
180.0
 51
250.7693276243387
  0
ARC
  5
1CC
  8
0
 10
286.0
 20
173.61113441479219
 30
0.0
 40
1.5
 50
76.908106935653208
 51
180.0
  0
LINE
  5
1CD
  8
0
 10
284.5
 20
168.0653903539631
 30
0.0
 11
284.5
 21
173.61113441479219
 31
0.0
  0
LINE
  5
1CE
  8
0
 10
309.0
 20
158.04805089157469
 30
0.0
 11
309.0
 21
167.85339133189819
 31
0.0
  0
LINE
  5
1CF
  8
0
 10
319.0
 20
158.04805089157469
 30
0.0
 11
319.0
 21
167.85339133189819
 31
0.0
  0
LINE
  5
1D0
  8
0
 10
285.50594176552249
 20
166.64909008179441
 30
0.0
 11
309.0
 21
157.04805089157469
 31
0.0
  0
LINE
  5
1D1
  8
0
 10
286.33977024199038
 20
175.072146455351
 30
0.0
 11
314.0
 21
167.4812174418133
 31
0.0
  0
ARC
  5
1D2
  8
0
 10
314.0
 20
181.79805089157469
 30
0.0
 40
25.25
 50
258.57881372500071
 51
270.0
  0
LINE
  5
1D3
  8
0
 10
286.7646497002998
 20
173.95554475552589
 30
0.0
 11
314.0
 21
166.4812174418133
 31
0.0
  0
LINE
  5
1D4
  8
0
 10
286.12171032124547
 20
167.3974512215942
 30
0.0
 11
309.0
 21
158.04805089157469
 31
0.0
  0
ARC
  5
1D5
  8
0
 10
314.0
 20
182.79805089157469
 30
0.0
 40
25.25
 50
258.57881372500071
 51
270.0
  0
LINE
  5
1D6
  8
0
 10
285.5
 20
168.32313849003199
 30
0.0
 11
285.5
 21
172.9912001407065
 31
0.0
  0
ARC
  5
1D7
  8
0
 10
286.5
 20
172.9912001407065
 30
0.0
 40
1.0
 50
74.653861022333743
 51
180.0
  0
ARC
  5
1D8
  8
0
 10
286.5
 20
168.32313849003199
 30
0.0
 40
1.0
 50
180.0
 51
247.7722184074992
  0
ARC
  5
1D9
  8
0
 10
314.0
 20
181.79805089157469
 30
0.0
 40
25.25
 50
270.0
 51
281.42118627499917
  0
ARC
  5
1DA
  8
0
 10
314.0
 20
182.79805089157469
 30
0.0
 40
25.25
 50
270.0
 51
281.42118627499917
  0
LINE
  5
1DB
  8
0
 10
342.49405823447739
 20
166.64909008179441
 30
0.0
 11
319.0
 21
157.04805089157469
 31
0.0
  0
LINE
  5
1DC
  8
0
 10
341.8782896787543
 20
167.3974512215942
 30
0.0
 11
319.0
 21
158.04805089157469
 31
0.0
  0
LINE
  5
1DD
  8
0
 10
341.23535029970009
 20
173.95554475552589
 30
0.0
 11
314.0
 21
166.4812174418133
 31
0.0
  0
LINE
  5
1DE
  8
0
 10
341.66022975800951
 20
175.072146455351
 30
0.0
 11
314.0
 21
167.4812174418133
 31
0.0
  0
ARC
  5
1DF
  8
0
 10
341.5
 20
172.9912001407065
 30
0.0
 40
1.0
 50
0.0
 51
105.3461389776662
  0
LINE
  5
1E0
  8
0
 10
342.5
 20
168.32313849003199
 30
0.0
 11
342.5
 21
172.9912001407065
 31
0.0
  0
ARC
  5
1E1
  8
0
 10
341.5
 20
168.32313849003199
 30
0.0
 40
1.0
 50
292.22778159250072
 51
0.0
  0
ARC
  5
1E2
  8
0
 10
342.0
 20
168.0653903539631
 30
0.0
 40
1.5
 50
289.23067237566119
 51
0.0
  0
LINE
  5
1E3
  8
0
 10
343.5
 20
168.0653903539631
 30
0.0
 11
343.5
 21
173.61113441479219
 31
0.0
  0
ARC
  5
1E4
  8
0
 10
342.0
 20
173.61113441479219
 30
0.0
 40
1.5
 50
0.0
 51
103.09189306434671
  0
LINE
  5
1E5
  8
0
 10
415.0
 20
-115.0
 30
0.0
 11
399.5
 21
-115.0
 31
0.0
  0
LINE
  5
1E6
  8
0
 62
     0
 10
197.02186130069779
 20
-137.0
 30
0.0
 11
208.49999999999989
 21
-125.52186130069779
 31
0.0
  0
LINE
  5
1E7
  8
0
 62
     0
 10
199.9172206962715
 20
-129.86199991730689
 30
0.0
 11
208.49999999999989
 21
-121.2792206135785
 31
0.0
  0
ARC
  5
1E8
  8
0
 10
197.5
 20
-130.49999999999989
 30
0.0
 40
2.5
 50
323.13010235415601
 51
36.869897645844013
  0
LINE
  5
1E9
  8
0
 10
180.49999999999989
 20
-134.0
 30
0.0
 11
180.49999999999989
 21
-129.0
 31
0.0
  0
LINE
  5
1EA
  8
0
 10
208.49999999999989
 20
-110.0
 30
0.0
 11
208.49999999999989
 21
-130.0
 31
0.0
  0
LINE
  5
1EB
  8
0
 10
210.0
 20
-119.0
 30
0.0
 11
216.0
 21
-136.0
 31
0.0
  0
LINE
  5
1EC
  8
0
 10
210.0
 20
-105.0
 30
0.0
 11
210.0
 21
-132.0
 31
0.0
  0
LINE
  5
1ED
  8
0
 10
131.03941916244321
 20
-119.15673326026329
 30
0.0
 11
147.95800344948529
 21
-135.85288568297
 31
0.0
  0
LINE
  5
1EE
  8
0
 10
91.960580837556776
 20
-119.15673326026329
 30
0.0
 11
75.041996550514682
 21
-135.85288568297
 31
0.0
  0
LINE
  5
1EF
  8
0
 10
103.6800395660175
 20
-131.00446358578861
 30
0.0
 11
98.008977464960026
 21
-120.4922509106575
 31
0.0
  0
LINE
  5
1F0
  8
0
 10
124.9910225350399
 20
-120.4922509106575
 30
0.0
 11
119.3199604339824
 21
-131.00446358578861
 31
0.0
  0
CIRCLE
  5
1F1
  8
0
 10
111.4999999999999
 20
-120.0
 30
0.0
 40
10.0
  0
LINE
  5
1F2
  8
0
 10
132.40544456622769
 20
-118.7907078564789
 30
0.0
 11
149.32402885326971
 21
-135.48686027918561
 31
0.0
  0
LINE
  5
1F3
  8
0
 10
90.594555433772257
 20
-118.7907078564789
 30
0.0
 11
73.675971146730262
 21
-135.48686027918549
 31
0.0
  0
LINE
  5
1F4
  8
0
 10
102.4605808375568
 20
-137.34326673973661
 30
0.0
 11
79.541996550514682
 21
-143.64711431702989
 31
0.0
  0
LINE
  5
1F5
  8
0
 10
102.0945554337722
 20
-138.709292143521
 30
0.0
 11
79.175971146730262
 21
-145.01313972081439
 31
0.0
  0
ARC
  5
1F6
  8
0
 10
80.810224753388866
 20
-137.71875
 30
0.0
 40
6.0625
 50
162.07502205084359
 51
257.9249779491563
  0
ARC
  5
1F7
  8
0
 10
82.109262859065666
 20
-136.96874999999989
 30
0.0
 40
8.5625
 50
170.03378695619989
 51
249.9662130437998
  0
LINE
  5
1F8
  8
0
 10
120.5394191624432
 20
-137.34326673973661
 30
0.0
 11
143.45800344948529
 21
-143.64711431703
 31
0.0
  0
LINE
  5
1F9
  8
0
 10
120.9054445662277
 20
-138.709292143521
 30
0.0
 11
143.82402885326971
 21
-145.01313972081439
 31
0.0
  0
LINE
  5
1FA
  8
0
 10
102.4605808375568
 20
-137.34326673973661
 30
0.0
 11
120.5394191624432
 21
-137.34326673973661
 31
0.0
  0
ARC
  5
1FB
  8
0
 10
111.4999999999999
 20
-120.0
 30
0.0
 40
13.5
 50
234.60174627240301
 51
305.3982537275968
  0
LINE
  5
1FC
  8
0
 10
120.9054445662277
 20
-138.709292143521
 30
0.0
 11
102.0945554337722
 21
-138.709292143521
 31
0.0
  0
ARC
  5
1FD
  8
0
 10
140.89073714093431
 20
-136.96875
 30
0.0
 40
8.5625
 50
290.0337869562
 51
9.9662130437999057
  0
ARC
  5
1FE
  8
0
 10
142.18977524661099
 20
-137.71875
 30
0.0
 40
6.0625
 50
282.07502205084359
 51
17.924977949156329
  0
LINE
  5
1FF
  8
0
 62
     0
 10
190.53657992645921
 20
-135.0
 30
0.0
 11
193.53657992645921
 21
-132.0
 31
0.0
  0
LINE
  5
200
  8
0
 10
180.49999999999989
 20
-132.0
 30
0.0
 11
199.5
 21
-132.0
 31
0.0
  0
LINE
  5
201
  8
0
 10
181.49999999999989
 20
-135.0
 30
0.0
 11
195.5
 21
-135.0
 31
0.0
  0
LINE
  5
202
  8
0
 62
     0
 10
182.05129855222069
 20
-135.0
 30
0.0
 11
185.05129855222069
 21
-132.0
 31
0.0
  0
LINE
  5
203
  8
0
 62
     0
 10
180.49999999999989
 20
-132.30865786510131
 30
0.0
 11
180.8086578651014
 21
-132.0
 31
0.0
  0
LINE
  5
204
  8
0
 10
181.49999999999989
 20
-135.0
 30
0.0
 11
180.49999999999989
 21
-134.0
 31
0.0
  0
LINE
  5
205
  8
0
 62
     0
 10
186.29393923934001
 20
-135.0
 30
0.0
 11
189.29393923934001
 21
-132.0
 31
0.0
  0
LINE
  5
206
  8
0
 10
208.0
 20
-135.0
 30
0.0
 11
215.94954682889781
 21
-143.44639350570381
 31
0.0
  0
LINE
  5
207
  8
0
 10
206.0
 20
-137.0
 30
0.0
 11
214.0
 21
-145.0
 31
0.0
  0
LINE
  5
208
  8
0
 10
205.5
 20
-145.0
 30
0.0
 11
214.0
 21
-145.0
 31
0.0
  0
LINE
  5
209
  8
0
 62
     0
 10
201.264501987817
 20
-137.0
 30
0.0
 11
208.49999999999989
 21
-129.76450198781711
 31
0.0
  0
LINE
  5
20A
  8
0
 10
196.5
 20
-137.0
 30
0.0
 11
205.5
 21
-145.0
 31
0.0
  0
LINE
  5
20B
  8
0
 10
206.0
 20
-137.0
 30
0.0
 11
196.5
 21
-137.0
 31
0.0
  0
LINE
  5
20C
  8
0
 62
     0
 10
194.7792206135785
 20
-135.0
 30
0.0
 11
197.7792206135785
 21
-132.0
 31
0.0
  0
ARC
  5
20D
  8
0
 10
196.5
 20
-136.0
 30
0.0
 40
1.0
 50
180.0
 51
270.0
  0
LINE
  5
20E
  8
0
 10
195.5
 20
-136.0
 30
0.0
 11
195.5
 21
-135.0
 31
0.0
  0
LINE
  5
20F
  8
0
 62
     0
 10
205.5071426749364
 20
-137.0
 30
0.0
 11
208.0
 21
-134.50714267493629
 31
0.0
  0
ARC
  5
210
  8
0
 10
206.0
 20
-135.0
 30
0.0
 40
2.0
 50
270.0
 51
0.0
  0
LINE
  5
211
  8
0
 10
208.49999999999989
 20
-130.0
 30
0.0
 11
210.0
 21
-130.0
 31
0.0
  0
LINE
  5
212
  8
0
 10
210.0
 20
-132.0
 30
0.0
 11
209.0
 21
-133.0
 31
0.0
  0
LINE
  5
213
  8
0
 10
208.0
 20
-133.0
 30
0.0
 11
208.0
 21
-135.0
 31
0.0
  0
LINE
  5
214
  8
0
 10
209.0
 20
-133.0
 30
0.0
 11
208.0
 21
-133.0
 31
0.0
  0
LINE
  5
215
  8
0
 10
216.0
 20
-136.0
 30
0.0
 11
216.0
 21
-143.0
 31
0.0
  0
ARC
  5
216
  8
0
 10
214.0
 20
-143.0
 30
0.0
 40
2.0
 50
270.0
 51
0.0
  0
LINE
  5
217
  8
0
 10
75.872667302323293
 20
-1.449988626302712
 30
0.0
 11
111.4999999999999
 21
-8.2068965517241281
 31
0.0
  0
LINE
  5
218
  8
0
 10
102.0
 20
-23.391304347826061
 30
0.0
 11
74.702547777171048
 21
-11.522846859639589
 31
0.0
  0
LINE
  5
219
  8
0
 10
102.0
 20
-22.391304347826061
 30
0.0
 11
75.401910832878343
 21
-10.826917753425359
 31
0.0
  0
LINE
  5
21A
  8
0
 10
76.279500476742442
 20
-2.5271466421408202
 30
0.0
 11
111.4999999999999
 21
-9.2068965517241281
 31
0.0
  0
LINE
  5
21B
  8
0
 10
73.5
 20
-9.6887067471331232
 30
0.0
 11
73.5
 21
-3.414961674916611
 31
0.0
  0
LINE
  5
21C
  8
0
 10
74.5
 20
-9.4513126690455067
 30
0.0
 11
74.5
 21
-4.0008764286012592
 31
0.0
  0
ARC
  5
21D
  8
0
 10
75.5
 20
-9.6887067471331232
 30
0.0
 40
2.0
 50
180.0
 51
246.50143432404869
  0
ARC
  5
21E
  8
0
 10
76.0
 20
-9.4513126690455067
 30
0.0
 40
1.5
 50
180.0
 51
246.50143432404869
  0
ARC
  5
21F
  8
0
 10
76.0
 20
-4.0008764286012592
 30
0.0
 40
1.5
 50
79.26110289909461
 51
180.0
  0
ARC
  5
220
  8
0
 10
75.5
 20
-3.414961674916611
 30
0.0
 40
2.0
 50
79.261102899094553
 51
180.0
  0
LINE
  5
221
  8
0
 10
131.03941916244321
 20
-119.15673326026329
 30
0.0
 11
122.0
 21
-103.4999999999999
 31
0.0
  0
ARC
  5
222
  8
0
 10
111.4999999999999
 20
-120.0
 30
0.0
 40
13.5
 50
357.91035902624981
 51
67.808393433727176
  0
LINE
  5
223
  8
0
 10
123.0
 20
-102.4999999999999
 30
0.0
 11
132.40544456622769
 21
-118.7907078564789
 31
0.0
  0
LINE
  5
224
  8
0
 10
122.0
 20
-103.4999999999999
 30
0.0
 11
116.0
 21
-80.5
 31
0.0
  0
LINE
  5
225
  8
0
 10
101.0
 20
-103.4999999999999
 30
0.0
 11
107.0
 21
-80.5
 31
0.0
  0
LINE
  5
226
  8
0
 10
123.0
 20
-102.4999999999999
 30
0.0
 11
117.0
 21
-79.5
 31
0.0
  0
LINE
  5
227
  8
0
 10
100.0
 20
-102.4999999999999
 30
0.0
 11
106.0
 21
-79.5
 31
0.0
  0
LINE
  5
228
  8
0
 10
106.40098048640721
 20
-107.4999999999999
 30
0.0
 11
116.59901951359269
 21
-107.4999999999999
 31
0.0
  0
LINE
  5
229
  8
0
 10
101.0
 20
-103.4999999999999
 30
0.0
 11
91.960580837556776
 21
-119.15673326026329
 31
0.0
  0
ARC
  5
22A
  8
0
 10
111.4999999999999
 20
-120.0
 30
0.0
 40
13.5
 50
112.1916065662728
 51
182.08964097375019
  0
LINE
  5
22B
  8
0
 10
100.0
 20
-102.4999999999999
 30
0.0
 11
90.594555433772257
 21
-118.7907078564789
 31
0.0
  0
ARC
  5
22C
  8
0
 10
111.4999999999999
 20
-86.062500000000014
 30
0.0
 40
8.5625
 50
50.033786956199997
 51
129.96621304379991
  0
ARC
  5
22D
  8
0
 10
111.4999999999999
 20
-84.5625
 30
0.0
 40
6.0625
 50
42.075022050843657
 51
137.9249779491563
  0
LINE
  5
22E
  8
0
 10
121.0
 20
-22.391304347826061
 30
0.0
 11
147.5980891671216
 21
-10.826917753425359
 31
0.0
  0
LINE
  5
22F
  8
0
 10
146.7204995232575
 20
-2.5271466421408202
 30
0.0
 11
111.4999999999999
 21
-9.2068965517241281
 31
0.0
  0
LINE
  5
230
  8
0
 10
147.12733269767671
 20
-1.449988626302712
 30
0.0
 11
111.4999999999999
 21
-8.2068965517241281
 31
0.0
  0
LINE
  5
231
  8
0
 10
121.0
 20
-23.391304347826061
 30
0.0
 11
148.29745222282889
 21
-11.522846859639589
 31
0.0
  0
LINE
  5
232
  8
0
 10
125.5
 20
-36.0
 30
0.0
 11
111.4999999999999
 21
-36.0
 31
0.0
  0
LINE
  5
233
  8
0
 10
96.5
 20
-35.0
 30
0.0
 11
96.5
 21
-21.0
 31
0.0
  0
ARC
  5
234
  8
0
 10
114.7811288741493
 20
52.404419956592051
 30
0.0
 40
76.865786134853053
 50
260.42848586805451
 51
267.5535022169563
  0
ARC
  5
235
  8
0
 10
108.2188711258506
 20
52.404419956592051
 30
0.0
 40
76.865786134853053
 50
272.44649778304358
 51
279.57151413194538
  0
LINE
  5
236
  8
0
  6
CENTER
 10
111.4999999999999
 20
-39.5
 30
0.0
 11
111.4999999999999
 21
1.5
 31
0.0
  0
LINE
  5
237
  8
0
 10
102.4999999999999
 20
-36.5
 30
0.0
 11
111.4999999999999
 21
-36.5
 31
0.0
  0
LINE
  5
238
  8
0
 10
97.5
 20
-36.0
 30
0.0
 11
111.4999999999999
 21
-36.0
 31
0.0
  0
LINE
  5
239
  8
0
 10
96.5
 20
-35.0
 30
0.0
 11
97.5
 21
-36.0
 31
0.0
  0
LINE
  5
23A
  8
0
 10
102.4999999999999
 20
-36.5
 30
0.0
 11
102.4999999999999
 21
-36.0
 31
0.0
  0
LINE
  5
23B
  8
0
 10
120.5
 20
-36.5
 30
0.0
 11
111.4999999999999
 21
-36.5
 31
0.0
  0
LINE
  5
23C
  8
0
 10
120.5
 20
-36.5
 30
0.0
 11
120.5
 21
-36.0
 31
0.0
  0
LINE
  5
23D
  8
0
 10
111.4999999999999
 20
-6.5000000000000284
 30
0.0
 11
102.4999999999999
 21
-6.5
 31
0.0
  0
ARC
  5
23E
  8
0
 10
114.7811288741493
 20
53.404419956592051
 30
0.0
 40
76.865786134853053
 50
260.42848586805451
 51
267.5535022169563
  0
LINE
  5
23F
  8
0
 10
102.0
 20
-22.39130434782609
 30
0.0
 11
102.0
 21
-7.405172413793081
 31
0.0
  0
ARC
  5
240
  8
0
 10
108.2188711258506
 20
53.404419956592051
 30
0.0
 40
76.865786134853053
 50
272.44649778304358
 51
279.57151413194538
  0
LINE
  5
241
  8
0
 10
121.0
 20
-22.39130434782609
 30
0.0
 11
121.0
 21
-7.405172413793081
 31
0.0
  0
LINE
  5
242
  8
0
 10
111.4999999999999
 20
-6.5000000000000284
 30
0.0
 11
120.5
 21
-6.5
 31
0.0
  0
LINE
  5
243
  8
0
 10
126.5
 20
-35.0
 30
0.0
 11
126.5
 21
-21.0
 31
0.0
  0
LINE
  5
244
  8
0
 10
126.5
 20
-35.0
 30
0.0
 11
125.5
 21
-36.0
 31
0.0
  0
LINE
  5
245
  8
0
 10
148.5
 20
-9.4513126690455067
 30
0.0
 11
148.5
 21
-4.0008764286012592
 31
0.0
  0
LINE
  5
246
  8
0
 10
149.5
 20
-9.6887067471331232
 30
0.0
 11
149.5
 21
-3.414961674916611
 31
0.0
  0
ARC
  5
247
  8
0
 10
147.0
 20
-9.4513126690455067
 30
0.0
 40
1.5
 50
293.49856567595123
 51
0.0
  0
ARC
  5
248
  8
0
 10
147.5
 20
-9.6887067471331232
 30
0.0
 40
2.0
 50
293.49856567595123
 51
0.0
  0
ARC
  5
249
  8
0
 10
147.5
 20
-3.414961674916611
 30
0.0
 40
2.0
 50
0.0
 51
100.7388971009054
  0
ARC
  5
24A
  8
0
 10
147.0
 20
-4.0008764286012592
 30
0.0
 40
1.5
 50
0.0
 51
100.7388971009054
  0
LINE
  5
24B
  8
0
 62
     0
 10
192.29393923934001
 20
-129.0
 30
0.0
 11
196.29393923934001
 21
-125.0
 31
0.0
  0
LINE
  5
24C
  8
0
 62
     0
 10
192.08073580374349
 20
-108.0
 30
0.0
 11
195.08073580374349
 21
-104.9999999999999
 31
0.0
  0
LINE
  5
24D
  8
0
 10
180.0
 20
-129.0
 30
0.0
 11
199.5
 21
-129.0
 31
0.0
  0
LINE
  5
24E
  8
0
 10
180.0
 20
-111.0
 30
0.0
 11
199.5
 21
-111.0
 31
0.0
  0
LINE
  5
24F
  8
0
 10
180.49999999999989
 20
-108.0
 30
0.0
 11
199.5
 21
-108.0
 31
0.0
  0
LINE
  5
250
  8
0
  6
CENTER
 10
177.0
 20
-120.0
 30
0.0
 11
213.0
 21
-120.0
 31
0.0
  0
LINE
  5
251
  8
0
 10
181.49999999999989
 20
-105.0
 30
0.0
 11
195.5
 21
-105.0
 31
0.0
  0
LINE
  5
252
  8
0
 62
     0
 10
180.8380951166242
 20
-115.0
 30
0.0
 11
184.8380951166242
 21
-111.0
 31
0.0
  0
LINE
  5
253
  8
0
 62
     0
 10
185.08073580374349
 20
-115.0
 30
0.0
 11
189.08073580374349
 21
-111.0
 31
0.0
  0
LINE
  5
254
  8
0
 62
     0
 10
189.3233764908627
 20
-115.0
 30
0.0
 11
193.3233764908627
 21
-111.0
 31
0.0
  0
LINE
  5
255
  8
0
 10
180.0
 20
-129.0
 30
0.0
 11
180.0
 21
-111.0
 31
0.0
  0
LINE
  5
256
  8
0
 62
     0
 10
183.80865786510131
 20
-129.0
 30
0.0
 11
187.80865786510131
 21
-125.0
 31
0.0
  0
LINE
  5
257
  8
0
 62
     0
 10
180.0
 20
-128.5660171779821
 30
0.0
 11
183.56601717798199
 21
-125.0
 31
0.0
  0
LINE
  5
258
  8
0
 10
180.0
 20
-115.5
 30
0.0
 11
180.0
 21
-115.0
 31
0.0
  0
LINE
  5
259
  8
0
 62
     0
 10
188.05129855222069
 20
-129.0
 30
0.0
 11
192.05129855222069
 21
-125.0
 31
0.0
  0
LINE
  5
25A
  8
0
 62
     0
 10
183.595454429505
 20
-108.0
 30
0.0
 11
186.595454429505
 21
-104.9999999999999
 31
0.0
  0
LINE
  5
25B
  8
0
 62
     0
 10
180.0
 20
-111.5954544295049
 30
0.0
 11
180.595454429505
 21
-111.0
 31
0.0
  0
LINE
  5
25C
  8
0
 62
     0
 10
180.49999999999989
 20
-106.85281374238571
 30
0.0
 11
182.35281374238559
 21
-104.9999999999999
 31
0.0
  0
LINE
  5
25D
  8
0
 10
180.49999999999989
 20
-111.0
 30
0.0
 11
180.49999999999989
 21
-106.0
 31
0.0
  0
LINE
  5
25E
  8
0
 10
181.49999999999989
 20
-105.0
 30
0.0
 11
180.49999999999989
 21
-106.0
 31
0.0
  0
LINE
  5
25F
  8
0
 62
     0
 10
187.8380951166242
 20
-108.0
 30
0.0
 11
190.83809511662429
 21
-104.9999999999999
 31
0.0
  0
LINE
  5
260
  8
0
 62
     0
 10
197.9604497995594
 20
-97.877645317064861
 30
0.0
 11
215.34750833954669
 21
-80.490586777077581
 31
0.0
  0
LINE
  5
261
  8
0
 62
     0
 10
195.72127832580199
 20
-104.3594574779415
 30
0.0
 11
214.1635155896528
 21
-85.917220214090605
 31
0.0
  0
LINE
  5
262
  8
0
 62
     0
 10
196.32337649086281
 20
-108.0
 30
0.0
 11
212.97952283975911
 21
-91.343853651103643
 31
0.0
  0
LINE
  5
263
  8
0
 10
210.0
 20
-105.0
 30
0.0
 11
215.47061800354169
 21
-79.926334150433448
 31
0.0
  0
LINE
  5
264
  8
0
 10
204.53468672011499
 20
-78.84695949440389
 30
0.0
 11
195.5
 21
-105.0
 31
0.0
  0
LINE
  5
265
  8
0
 62
     0
 10
199.86790528895801
 20
-108.69811188902401
 30
0.0
 11
211.79553008986539
 21
-96.770487088116681
 31
0.0
  0
LINE
  5
266
  8
0
 62
     0
 10
199.0
 20
-118.0512985522206
 30
0.0
 11
210.0
 21
-107.0512985522207
 31
0.0
  0
LINE
  5
267
  8
0
 62
     0
 10
197.30865786510131
 20
-115.5
 30
0.0
 11
210.6115373399717
 21
-102.19712052512971
 31
0.0
  0
LINE
  5
268
  8
0
 62
     0
 10
193.56601717798199
 20
-115.0
 30
0.0
 11
197.56601717798199
 21
-111.0
 31
0.0
  0
LINE
  5
269
  8
0
 62
     0
 10
196.53657992645921
 20
-129.0
 30
0.0
 11
208.49999999999989
 21
-117.0365799264592
 31
0.0
  0
LINE
  5
26A
  8
0
 62
     0
 10
199.0
 20
-122.29393923933991
 30
0.0
 11
208.49999999999989
 21
-112.79393923933991
 31
0.0
  0
ARC
  5
26B
  8
0
 10
197.5
 20
-109.4999999999999
 30
0.0
 40
2.5
 50
323.13010235415601
 51
36.869897645844013
  0
LINE
  5
26C
  8
0
 10
208.49999999999989
 20
-110.0
 30
0.0
 11
210.0
 21
-110.0
 31
0.0
  0
LINE
  5
26D
  8
0
 62
     0
 10
200.19962127331669
 20
-91.395833156188161
 30
0.0
 11
214.02876160648239
 21
-77.566692823022493
 31
0.0
  0
LINE
  5
26E
  8
0
 10
206.42506713105101
 20
-77.499999999999986
 30
0.0
 11
213.5165864807218
 21
-77.5
 31
0.0
  0
LINE
  5
26F
  8
0
 62
     0
 10
202.43879274707419
 20
-84.914020995311475
 30
0.0
 11
209.85281374238571
 21
-77.5
 31
0.0
  0
ARC
  5
270
  8
0
 10
206.42506713105101
 20
-79.499999999999986
 30
0.0
 40
2.0
 50
90.0
 51
160.94229548987161
  0
LINE
  5
271
  8
0
 62
     0
 10
204.87944326612649
 20
-78.230729789139772
 30
0.0
 11
205.1557969201908
 21
-77.954376135075535
 31
0.0
  0
ARC
  5
272
  8
0
 10
213.5165864807218
 20
-79.5
 30
0.0
 40
2.0
 50
347.69198418257201
 51
90.0
  0
ARC
  5
273
  8
0
 10
111.4999999999999
 20
82.5
 30
0.0
 40
22.5
 50
85.29971372670866
 51
94.700286273291397
  0
CIRCLE
  5
274
  8
0
 10
111.4999999999999
 20
82.5
 30
0.0
 40
5.5
  0
ARC
  5
275
  8
0
 10
111.4999999999999
 20
82.5
 30
0.0
 40
7.0
 50
111.7867892982617
 51
188.21321070173721
  0
LINE
  5
276
  8
0
 10
114.2247490168637
 20
104.1973249397724
 30
0.0
 11
117.5
 21
92.5
 31
0.0
  0
LINE
  5
277
  8
0
 10
108.7752509831362
 20
104.1973249397723
 30
0.0
 11
105.4999999999999
 21
92.5
 31
0.0
  0
LINE
  5
278
  8
0
 10
91.347190899559564
 20
74.011039397654486
 30
0.0
 11
99.839745962155632
 21
82.696152422706632
 31
0.0
  0
LINE
  5
279
  8
0
 10
94.071939916423318
 20
69.291635662573128
 30
0.0
 11
105.8397459621556
 21
72.303847577293354
 31
0.0
  0
LINE
  5
27A
  8
0
 10
128.9280600835767
 20
69.291635662573185
 30
0.0
 11
117.1602540378443
 21
72.303847577293425
 31
0.0
  0
LINE
  5
27B
  8
0
 10
131.65280910044041
 20
74.011039397654486
 30
0.0
 11
123.1602540378443
 21
82.696152422706689
 31
0.0
  0
LINE
  5
27C
  8
0
 10
117.5
 20
92.5
 30
0.0
 11
123.1602540378443
 21
82.696152422706689
 31
0.0
  0
LINE
  5
27D
  8
0
 10
105.8397459621556
 20
72.303847577293354
 30
0.0
 11
117.1602540378443
 21
72.303847577293425
 31
0.0
  0
LINE
  5
27E
  8
0
 10
105.4999999999999
 20
92.5
 30
0.0
 11
99.839745962155632
 21
82.696152422706632
 31
0.0
  0
ARC
  5
27F
  8
0
 10
111.4999999999999
 20
82.5
 30
0.0
 40
22.5
 50
205.2997137267003
 51
214.7002862732914
  0
ARC
  5
280
  8
0
 10
111.4999999999999
 20
82.5
 30
0.0
 40
22.5
 50
325.29971372670872
 51
334.7002862732997
  0
LINE
  5
281
  8
0
 10
108.9019237886466
 20
89.0
 30
0.0
 11
114.0980762113533
 21
89.0
 31
0.0
  0
LINE
  5
282
  8
0
 10
107.1698729810778
 20
76.999999999999943
 30
0.0
 11
104.5717967697245
 21
81.5
 31
0.0
  0
LINE
  5
283
  8
0
 10
118.4282032302754
 20
81.500000000000114
 30
0.0
 11
115.8301270189221
 21
77.000000000000057
 31
0.0
  0
ARC
  5
284
  8
0
 10
111.4999999999999
 20
82.5
 30
0.0
 40
7.0
 50
351.78678929826322
 51
68.213210701738305
  0
ARC
  5
285
  8
0
 10
111.4999999999999
 20
82.5
 30
0.0
 40
7.0
 50
231.78678929826231
 51
308.2132107017373
  0
ARC
  5
286
  8
0
 10
113.2617849971495
 20
103.92769501425239
 30
0.0
 40
1.0
 50
15.64224645721079
 51
85.299713726709257
  0
ARC
  5
287
  8
0
 10
109.7382150028504
 20
103.92769501425239
 30
0.0
 40
1.0
 50
94.700286273291539
 51
164.3577535427921
  0
ARC
  5
288
  8
0
 10
130.9378207254625
 20
73.311903056411609
 30
0.0
 40
1.0
 50
334.70028627338962
 51
44.357753542790753
  0
ARC
  5
289
  8
0
 10
129.176035728313
 20
70.260401929336012
 30
0.0
 40
1.0
 50
255.6422464572079
 51
325.29971372670792
  0
ARC
  5
28A
  8
0
 10
93.823964271687032
 20
70.260401929335956
 30
0.0
 40
1.0
 50
214.7002862732916
 51
284.35775354279127
  0
ARC
  5
28B
  8
0
 10
92.062179274537485
 20
73.311903056411552
 30
0.0
 40
1.0
 50
135.64224645720691
 51
205.29971372661029
  0
ARC
  5
28C
  8
0
 10
111.4999999999999
 20
82.5
 30
0.0
 40
22.0
 50
84.279755165030664
 51
95.720244834969293
  0
LINE
  5
28D
  8
0
 10
113.692769381066
 20
104.39044911465859
 30
0.0
 11
117.1195509878891
 21
92.147977013792286
 31
0.0
  0
LINE
  5
28E
  8
0
 10
109.3072306189339
 20
104.39044911465859
 30
0.0
 11
105.8804490121108
 21
92.147977013792286
 31
0.0
  0
LINE
  5
28F
  8
0
 10
91.445930275922024
 20
73.453769431314583
 30
0.0
 11
100.334831316983
 21
82.542685406477801
 31
0.0
  0
LINE
  5
290
  8
0
 10
93.638699656988138
 20
69.655781454026794
 30
0.0
 11
105.9543823048721
 21
72.809337579729913
 31
0.0
  0
LINE
  5
291
  8
0
 10
129.36130034301181
 20
69.655781454026851
 30
0.0
 11
117.0456176951278
 21
72.80933757972997
 31
0.0
  0
LINE
  5
292
  8
0
 10
131.55406972407789
 20
73.45376943131464
 30
0.0
 11
122.665168683017
 21
82.542685406477844
 31
0.0
  0
ARC
  5
293
  8
0
 10
111.4999999999999
 20
82.5
 30
0.0
 40
22.0
 50
324.27975516503079
 51
335.72024483497103
  0
ARC
  5
294
  8
0
 10
111.4999999999999
 20
82.5
 30
0.0
 40
22.0
 50
204.279755165029
 51
215.72024483496921
  0
LINE
  5
295
  8
0
 10
105.8804490121108
 20
92.147977013792286
 30
0.0
 11
100.334831316983
 21
82.542685406477801
 31
0.0
  0
LINE
  5
296
  8
0
 10
117.0456176951278
 20
72.80933757972997
 30
0.0
 11
105.9543823048721
 21
72.809337579729913
 31
0.0
  0
LINE
  5
297
  8
0
 10
117.1195509878891
 20
92.147977013792286
 30
0.0
 11
122.665168683017
 21
82.542685406477844
 31
0.0
  0
LINE
  5
298
  8
0
 10
118.5
 20
148.0
 30
0.0
 11
104.4999999999999
 21
148.0
 31
0.0
  0
LINE
  5
299
  8
0
 10
119.5
 20
149.0
 30
0.0
 11
119.5
 21
159.3671713669946
 31
0.0
  0
LINE
  5
29A
  8
0
 10
103.4999999999999
 20
159.3671713669946
 30
0.0
 11
103.4999999999999
 21
149.0
 31
0.0
  0
LINE
  5
29B
  8
0
 10
132.0
 20
164.69584632847071
 30
0.0
 11
132.0
 21
167.7267830319019
 31
0.0
  0
LINE
  5
29C
  8
0
 10
91.0
 20
164.69584632847071
 30
0.0
 11
91.000000000000014
 21
167.72678303190199
 31
0.0
  0
LINE
  5
29D
  8
0
 10
117.1602540378443
 20
159.05827419557971
 30
0.0
 11
117.1602540378443
 21
164.91506350946111
 31
0.0
  0
LINE
  5
29E
  8
0
 10
105.8397459621556
 20
159.05827419557971
 30
0.0
 11
105.8397459621556
 21
164.91506350946111
 31
0.0
  0
LINE
  5
29F
  8
0
 10
117.1602540378443
 20
158.49999999999989
 30
0.0
 11
131.3475253691457
 21
163.75817574782951
 31
0.0
  0
ARC
  5
2A0
  8
0
 10
111.4999999999999
 20
190.2884757729334
 30
0.0
 40
32.288475772933452
 50
259.90373145338532
 51
280.09626854661479
  0
LINE
  5
2A1
  8
0
 10
91.652474630854257
 20
163.7581757478294
 30
0.0
 11
105.8397459621556
 21
158.49999999999989
 31
0.0
  0
LINE
  5
2A2
  8
0
 10
130.7630438198089
 20
168.6983033706851
 30
0.0
 11
117.1602540378444
 21
165.38054976532791
 31
0.0
  0
LINE
  5
2A3
  8
0
 10
105.8397459621556
 20
165.3805497653278
 30
0.0
 11
92.236956180191015
 21
168.6983033706851
 31
0.0
  0
LINE
  5
2A4
  8
0
 10
117.0
 20
165.5
 30
0.0
 11
106.0
 21
165.5
 31
0.0
  0
LINE
  5
2A5
  8
0
 10
106.0
 20
165.5
 30
0.0
 11
106.0
 21
165.34146341463409
 31
0.0
  0
LINE
  5
2A6
  8
0
 10
117.0
 20
165.5
 30
0.0
 11
117.0
 21
165.34146341463409
 31
0.0
  0
ARC
  5
2A7
  8
0
 10
111.4999999999999
 20
191.08876918438801
 30
0.0
 40
26.323962875514709
 50
257.58313098047159
 51
282.41686901952829
  0
ARC
  5
2A8
  8
0
 10
131.0
 20
167.7267830319019
 30
0.0
 40
1.0
 50
0.0
 51
103.7069610040797
  0
ARC
  5
2A9
  8
0
 10
131.0
 20
164.69584632847071
 30
0.0
 40
1.0
 50
290.33603013033598
 51
0.0
  0
ARC
  5
2AA
  8
0
 10
92.000000000000014
 20
167.72678303190199
 30
0.0
 40
1.0
 50
76.293038995920156
 51
179.9999999999998
  0
ARC
  5
2AB
  8
0
 10
92.0
 20
164.69584632847071
 30
0.0
 40
1.0
 50
179.9999999999998
 51
249.6639698696639
  0
ARC
  5
2AC
  8
0
 10
118.5
 20
149.0
 30
0.0
 40
1.0
 50
270.0
 51
0.0
  0
ARC
  5
2AD
  8
0
 10
104.4999999999999
 20
149.0
 30
0.0
 40
1.0
 50
180.0
 51
270.0
  0
LINE
  5
2AE
  8
0
 10
113.9999999999999
 20
169.0
 30
0.0
 11
109.0
 21
169.0
 31
0.0
  0
LINE
  5
2AF
  8
0
 10
114.0
 20
169.0
 30
0.0
 11
117.5
 21
165.46341463414629
 31
0.0
  0
LINE
  5
2B0
  8
0
 10
109.0
 20
169.0
 30
0.0
 11
105.4999999999999
 21
165.46341463414629
 31
0.0
  0
LINE
  5
2B1
  8
0
 10
130.8787321874818
 20
168.34468304687039
 30
0.0
 11
117.1602540378444
 21
164.91506350946111
 31
0.0
  0
LINE
  5
2B2
  8
0
 10
92.121267812518155
 20
168.34468304687039
 30
0.0
 11
105.83974596215531
 21
164.91506350946111
 31
0.0
  0
LINE
  5
2B3
  8
0
 10
131.49999999999989
 20
167.85961179679779
 30
0.0
 11
131.49999999999989
 21
164.62294090503269
 31
0.0
  0
LINE
  5
2B4
  8
0
 10
91.5
 20
167.85961179679779
 30
0.0
 11
91.500000000000014
 21
164.62294090503269
 31
0.0
  0
LINE
  5
2B5
  8
0
 10
131.1708715315433
 20
164.15304419328851
 30
0.0
 11
117.1602540378443
 21
159.05827419557971
 31
0.0
  0
LINE
  5
2B6
  8
0
 10
105.8397459621556
 20
159.05827419557971
 30
0.0
 11
91.829128468456645
 21
164.15304419328851
 31
0.0
  0
ARC
  5
2B7
  8
0
 10
111.5
 20
190.84674996851319
 30
0.0
 40
32.288475772933452
 50
259.90373145338532
 51
280.09626854661479
  0
ARC
  5
2B8
  8
0
 10
131.0
 20
167.85961179679779
 30
0.0
 40
0.5
 50
0.0
 51
104.0362434679264
  0
ARC
  5
2B9
  8
0
 10
131.0
 20
164.62294090503269
 30
0.0
 40
0.5
 50
289.98310652189991
 51
0.0
  0
ARC
  5
2BA
  8
0
 10
92.0
 20
167.85961179679779
 30
0.0
 40
0.5
 50
75.963756532073518
 51
180.0
  0
ARC
  5
2BB
  8
0
 10
92.000000000000014
 20
164.62294090503269
 30
0.0
 40
0.5
 50
180.0
 51
250.0168934781
  0
ARC
  5
2BC
  8
0
 10
111.4999999999999
 20
190.62328292852121
 30
0.0
 40
26.323962875514709
 50
257.58313098047159
 51
282.41686901952829
  0
LINE
  5
2BD
  8
0
 10
179.0
 20
75.5
 30
0.0
 11
179.0
 21
89.500000000000014
 31
0.0
  0
LINE
  5
2BE
  8
0
 10
190.3671713669946
 20
90.5
 30
0.0
 11
180.0
 21
90.5
 31
0.0
  0
ARC
  5
2BF
  8
0
 10
180.0
 20
89.500000000000014
 30
0.0
 40
1.0
 50
90.0
 51
180.0
  0
LINE
  5
2C0
  8
0
 10
180.0
 20
74.5
 30
0.0
 11
190.3671713669946
 21
74.5
 31
0.0
  0
ARC
  5
2C1
  8
0
 10
180.0
 20
75.5
 30
0.0
 40
1.0
 50
180.0
 51
270.0
  0
LINE
  5
2C2
  8
0
 10
201.0
 20
73.5
 30
0.0
 11
201.0
 21
69.791635662573171
 31
0.0
  0
ARC
  5
2C3
  8
0
 10
200.02847966121681
 20
104.0
 30
0.0
 40
1.0
 50
13.706961004079361
 51
89.999999999999844
  0
LINE
  5
2C4
  8
0
 10
196.9975429577855
 20
105.0
 30
0.0
 11
200.02847966121681
 21
105.0
 31
0.0
  0
ARC
  5
2C5
  8
0
 10
196.9975429577855
 20
104.0
 30
0.0
 40
1.0
 50
89.999999999999801
 51
159.6639698696639
  0
LINE
  5
2C6
  8
0
 10
196.0598723771443
 20
104.3475253691457
 30
0.0
 11
190.3671713669946
 21
90.5
 31
0.0
  0
LINE
  5
2C7
  8
0
 10
190.3671713669946
 20
74.5
 30
0.0
 11
190.3671713669946
 21
74.0
 31
0.0
  0
LINE
  5
2C8
  8
0
 10
200.49999999999989
 20
69.291635662573171
 30
0.0
 11
196.2015077077881
 21
69.291635662573171
 31
0.0
  0
ARC
  5
2C9
  8
0
 10
196.2015077077881
 20
69.791635662573171
 30
0.0
 40
0.5
 50
236.88650063068931
 51
270.0
  0
LINE
  5
2CA
  8
0
 10
195.5
 20
88.0
 30
0.0
 11
196.5
 21
88.0
 31
0.0
  0
LINE
  5
2CB
  8
0
 10
195.5
 20
77.0
 30
0.0
 11
196.5
 21
77.0
 31
0.0
  0
LINE
  5
2CC
  8
0
 10
195.5
 20
77.0
 30
0.0
 11
195.5
 21
88.0
 31
0.0
  0
LINE
  5
2CD
  8
0
 10
196.5
 20
76.0
 30
0.0
 11
196.5
 21
88.499999999999986
 31
0.0
  0
LINE
  5
2CE
  8
0
 10
196.5
 20
88.499999999999986
 30
0.0
 11
201.0
 21
104.2369561801909
 31
0.0
  0
LINE
  5
2CF
  8
0
 10
190.8671713669946
 20
73.5
 30
0.0
 11
195.5
 21
73.5
 31
0.0
  0
LINE
  5
2D0
  8
0
 10
201.0
 20
73.5
 30
0.0
 11
196.5
 21
82.5
 31
0.0
  0
LINE
  5
2D1
  8
0
 10
196.5
 20
76.0
 30
0.0
 11
196.0
 21
75.5
 31
0.0
  0
LINE
  5
2D2
  8
0
 10
196.0
 20
75.5
 30
0.0
 11
196.0
 21
74.0
 31
0.0
  0
ARC
  5
2D3
  8
0
 10
190.8671713669946
 20
74.0
 30
0.0
 40
0.5
 50
180.0
 51
270.0
  0
ARC
  5
2D4
  8
0
 10
195.5
 20
74.0
 30
0.0
 40
0.5
 50
270.0
 51
0.0
  0
ARC
  5
2D5
  8
0
 10
200.49999999999989
 20
69.791635662573171
 30
0.0
 40
0.5
 50
270.0
 51
0.0
  0
LINE
  5
2D6
  8
0
 10
201.0
 20
69.791635662573171
 30
0.0
 11
196.0
 21
74.0
 31
0.0
  0
LINE
  5
2D7
  8
0
 10
195.5
 20
73.5
 30
0.0
 11
200.49999999999989
 21
69.291635662573171
 31
0.0
  0
LINE
  5
2D8
  8
0
 10
190.55759933088601
 20
73.607361292713577
 30
0.0
 11
195.92835804805989
 21
69.372840649004019
 31
0.0
  0
LINE
  5
2D9
  8
0
 10
179.0
 20
87.5
 30
0.0
 11
188.49999999999989
 21
87.5
 31
0.0
  0
LINE
  5
2DA
  8
0
 10
189.49999999999989
 20
86.5
 30
0.0
 11
189.49999999999989
 21
78.5
 31
0.0
  0
LINE
  5
2DB
  8
0
 10
179.0
 20
77.5
 30
0.0
 11
188.49999999999989
 21
77.5
 31
0.0
  0
LINE
  5
2DC
  8
0
 10
189.49999999999989
 20
86.5
 30
0.0
 11
188.49999999999989
 21
87.5
 31
0.0
  0
LINE
  5
2DD
  8
0
 10
189.49999999999989
 20
78.5
 30
0.0
 11
188.49999999999989
 21
77.5
 31
0.0
  0
LINE
  5
2DE
  8
0
 10
179.0
 20
86.0
 30
0.0
 11
188.49999999999989
 21
86.0
 31
0.0
  0
LINE
  5
2DF
  8
0
 10
188.49999999999989
 20
79.0
 30
0.0
 11
179.0
 21
79.0
 31
0.0
  0
ARC
  5
2E0
  8
0
 10
176.5
 20
82.5
 30
0.0
 40
12.5
 50
343.73979529168798
 51
16.260204708311939
  0
LINE
  5
2E1
  8
0
 10
188.0
 20
86.5
 30
0.0
 11
179.0
 21
86.5
 31
0.0
  0
LINE
  5
2E2
  8
0
 10
188.0
 20
78.5
 30
0.0
 11
179.0
 21
78.5
 31
0.0
  0
LINE
  5
2E3
  8
0
 62
     0
 10
186.4949493661166
 20
87.5
 30
0.0
 11
189.4949493661166
 21
90.5
 31
0.0
  0
LINE
  5
2E4
  8
0
 62
     0
 10
190.97605009287361
 20
91.981100726757006
 30
0.0
 11
200.10620146618621
 21
101.11125210006961
 31
0.0
  0
LINE
  5
2E5
  8
0
 62
     0
 10
183.66652224137039
 20
87.5
 30
0.0
 11
186.66652224137039
 21
90.5
 31
0.0
  0
LINE
  5
2E6
  8
0
 62
     0
 10
192.95051198700571
 20
96.783989745635253
 30
0.0
 11
200.80123105688659
 21
104.63470881551611
 31
0.0
  0
LINE
  5
2E7
  8
0
 62
     0
 10
180.8380951166242
 20
87.5
 30
0.0
 11
183.8380951166242
 21
90.5
 31
0.0
  0
LINE
  5
2E8
  8
0
 62
     0
 10
180.83809511662429
 20
87.5
 30
0.0
 11
183.83809511662429
 21
90.5
 31
0.0
  0
LINE
  5
2E9
  8
0
 62
     0
 10
179.0
 20
77.176623509137158
 30
0.0
 11
179.32337649086281
 21
77.5
 31
0.0
  0
LINE
  5
2EA
  8
0
 62
     0
 10
179.3728805310482
 20
74.721076915439227
 30
0.0
 11
182.151803615609
 21
77.5
 31
0.0
  0
LINE
  5
2EB
  8
0
 62
     0
 10
189.49999999999989
 20
84.848196384390974
 30
0.0
 11
197.84083318366231
 21
93.189029568053314
 31
0.0
  0
LINE
  5
2EC
  8
0
 62
     0
 10
181.98023074035521
 20
74.500000000000014
 30
0.0
 11
184.98023074035521
 21
77.5
 31
0.0
  0
LINE
  5
2ED
  8
0
 62
     0
 10
189.49999999999989
 20
82.019769259644775
 30
0.0
 11
196.70814904240029
 21
89.227918302045154
 31
0.0
  0
LINE
  5
2EE
  8
0
 62
     0
 10
184.8086578651014
 20
74.500000000000014
 30
0.0
 11
187.8086578651014
 21
77.5
 31
0.0
  0
LINE
  5
2EF
  8
0
 62
     0
 10
189.49999999999989
 20
79.191342134898591
 30
0.0
 11
195.5
 21
85.191342134898605
 31
0.0
  0
LINE
  5
2F0
  8
0
 62
     0
 10
187.63708498984761
 20
74.500000000000014
 30
0.0
 11
195.5
 21
82.362915010152406
 31
0.0
  0
LINE
  5
2F1
  8
0
 62
     0
 10
190.3671713669946
 20
74.401659252400876
 30
0.0
 11
195.5
 21
79.534487885406222
 31
0.0
  0
LINE
  5
2F2
  8
0
 62
     0
 10
192.29393923933989
 20
73.5
 30
0.0
 11
195.79393923933989
 21
77.0
 31
0.0
  0
LINE
  5
2F3
  8
0
 62
     0
 10
195.1223663640861
 20
73.5
 30
0.0
 11
196.0
 21
74.377633635913838
 31
0.0
  0
LINE
  5
2F4
  8
0
 62
     0
 10
188.91168824543129
 20
87.088311754568565
 30
0.0
 11
198.97351732492419
 21
97.15014083406146
 31
0.0
  0
LINE
  5
2F5
  8
0
 62
     0
 10
194.9249738811377
 20
101.5868787645134
 30
0.0
 11
198.3380951166242
 21
105.0
 31
0.0
  0
LINE
  5
2F6
  8
0
 10
181.0
 20
90.5
 30
0.0
 11
179.0
 21
88.499999999999986
 31
0.0
  0
LINE
  5
2F7
  8
0
  6
CENTERX2
 10
199.5
 20
82.5
 30
0.0
 11
176.0
 21
82.5
 31
0.0
  0
LINE
  5
2F8
  8
0
  6
CENTERX2
 10
111.4999999999999
 20
145.0
 30
0.0
 11
111.4999999999999
 21
172.0
 31
0.0
  0
LINE
  5
2F9
  8
0
  6
CONTINUOUS
 10
318.0
 20
175.0
 30
0.0
 11
310.0
 21
175.0
 31
0.0
  0
LINE
  5
2FA
  8
0
  6
CONTINUOUS
 10
306.61864156725699
 20
170.5
 30
0.0
 11
310.0
 21
175.0
 31
0.0
  0
LINE
  5
2FB
  8
0
  6
CONTINUOUS
 10
321.3813584327429
 20
170.5
 30
0.0
 11
318.0
 21
175.0
 31
0.0
  0
LINE
  5
2FC
  8
0
  6
CONTINUOUS
 10
99.500000000000014
 20
-5.9310344827586201
 30
0.0
 11
107.0
 21
-1.500000000000002
 31
0.0
  0
LINE
  5
2FD
  8
0
  6
CONTINUOUS
 10
116.0
 20
-1.500000000000002
 30
0.0
 11
123.5
 21
-5.9310344827586254
 31
0.0
  0
LINE
  5
2FE
  8
0
  6
CONTINUOUS
 10
116.0
 20
-1.500000000000002
 30
0.0
 11
107.0
 21
-1.500000000000002
 31
0.0
  0
LINE
  5
2FF
  8
0
  6
CONTINUOUS
 10
319.0
 20
12.5
 30
0.0
 11
309.0
 21
12.5
 31
0.0
  0
LINE
  5
300
  8
0
  6
CONTINUOUS
 10
299.5
 20
5.5000000000000009
 30
0.0
 11
309.0
 21
12.5
 31
0.0
  0
LINE
  5
301
  8
0
  6
CONTINUOUS
 10
328.49999999999977
 20
5.5
 30
0.0
 11
319.0
 21
12.5
 31
0.0
  0
LINE
  5
302
  8
0
  6
CONTINUOUS
 10
188.49999999999989
 20
86.0
 30
0.0
 11
188.49999999999989
 21
79.0
 31
0.0
  0
INSERT
  5
303
  8
0
  6
CONTINUOUS
  2
*X3
 10
0.0
 20
0.0
 30
0.0
1001
ACAD
1000
HATCH
1002
{
1070
    16
1000
_U
1040
1.0
1040
2.3561944901923439
1070
     0
1002
}
  0
LINE
  5
304
  8
0
  6
CONTINUOUS
 10
364.0
 20
87.5
 30
0.0
 11
381.0
 21
87.5
 31
0.0
  0
LINE
  5
305
  8
0
  6
CONTINUOUS
 10
383.0
 20
87.5
 30
0.0
 11
383.0
 21
77.5
 31
0.0
  0
LINE
  5
306
  8
0
  6
CONTINUOUS
 10
383.0
 20
77.5
 30
0.0
 11
382.0
 21
77.5
 31
0.0
  0
LINE
  5
307
  8
0
  6
CONTINUOUS
 10
380.0
 20
86.5
 30
0.0
 11
364.0
 21
86.5
 31
0.0
  0
LINE
  5
308
  8
0
  6
CONTINUOUS
 10
364.0
 20
86.0
 30
0.0
 11
381.0
 21
86.0
 31
0.0
  0
LINE
  5
309
  8
0
  6
CONTINUOUS
 10
381.0
 20
86.0
 30
0.0
 11
382.0
 21
82.5
 31
0.0
  0
LINE
  5
30A
  8
0
  6
CONTINUOUS
 10
364.0
 20
79.0
 30
0.0
 11
381.0
 21
79.0
 31
0.0
  0
LINE
  5
30B
  8
0
  6
CONTINUOUS
 10
380.0
 20
78.5
 30
0.0
 11
364.0
 21
78.5
 31
0.0
  0
LINE
  5
30C
  8
0
  6
CONTINUOUS
 10
381.0
 20
79.0
 30
0.0
 11
382.0
 21
82.5
 31
0.0
  0
LINE
  5
30D
  8
0
  6
CONTINUOUS
 10
381.0
 20
87.0
 30
0.0
 11
382.0
 21
87.0
 31
0.0
  0
LINE
  5
30E
  8
0
  6
CONTINUOUS
 10
382.0
 20
87.0
 30
0.0
 11
382.0
 21
87.5
 31
0.0
  0
LINE
  5
30F
  8
0
  6
CONTINUOUS
 10
381.0
 20
87.5
 30
0.0
 11
381.0
 21
87.0
 31
0.0
  0
LINE
  5
310
  8
0
  6
CONTINUOUS
 10
382.0
 20
87.5
 30
0.0
 11
383.0
 21
87.5
 31
0.0
  0
LINE
  5
311
  8
0
  6
CONTINUOUS
 10
381.0
 20
77.5
 30
0.0
 11
381.0
 21
78.0
 31
0.0
  0
LINE
  5
312
  8
0
  6
CONTINUOUS
 10
381.0
 20
78.0
 30
0.0
 11
382.0
 21
78.0
 31
0.0
  0
LINE
  5
313
  8
0
  6
CONTINUOUS
 10
382.0
 20
78.0
 30
0.0
 11
382.0
 21
77.5
 31
0.0
  0
LINE
  5
314
  8
0
  6
CONTINUOUS
 10
381.0
 20
77.5
 30
0.0
 11
364.0
 21
77.5
 31
0.0
  0
LINE
  5
315
  8
0
 62
     0
 10
375.06601717798202
 20
87.5
 30
0.0
 11
388.79817661273268
 21
101.2321594347505
 31
0.0
  0
INSERT
  5
316
  8
0
  6
CONTINUOUS
  2
*X4
 10
0.0
 20
0.0
 30
0.0
1001
ACAD
1000
HATCH
1002
{
1070
    16
1000
_U
1040
1.0
1040
2.3561944901923439
1070
     0
1002
}
  0
LINE
  5
317
  8
0
  6
CONTINUOUS
 10
199.0
 20
-115.0
 30
0.0
 11
199.0
 21
-125.0
 31
0.0
  0
LINE
  5
318
  8
0
  6
CONTINUOUS
 10
197.0
 20
-123.5
 30
0.0
 11
198.0
 21
-120.0
 31
0.0
  0
LINE
  5
319
  8
0
 10
197.0
 20
-123.5
 30
0.0
 11
197.0
 21
-116.5
 31
0.0
  0
INSERT
  5
31A
  8
0
  6
CONTINUOUS
  2
*X4
 10
-184.0
 20
-202.49999999999989
 30
0.0
1001
ACAD
1000
HATCH
1002
{
1070
    16
1000
_U
1040
1.0
1040
2.3561944901923439
1070
     0
1002
}
  0
LINE
  5
31B
  8
0
  6
CONTINUOUS
 10
180.0
 20
-123.5
 30
0.0
 11
197.0
 21
-123.5
 31
0.0
  0
LINE
  5
31C
  8
0
  6
CONTINUOUS
 10
196.0
 20
-124.0
 30
0.0
 11
180.0
 21
-124.0
 31
0.0
  0
LINE
  5
31D
  8
0
  6
CONTINUOUS
 10
197.0
 20
-125.0
 30
0.0
 11
180.0
 21
-125.0
 31
0.0
  0
LINE
  5
31E
  8
0
  6
CONTINUOUS
 10
199.0
 20
-125.0
 30
0.0
 11
198.0
 21
-125.0
 31
0.0
  0
LINE
  5
31F
  8
0
  6
CONTINUOUS
 10
198.0
 20
-124.5
 30
0.0
 11
198.0
 21
-125.0
 31
0.0
  0
LINE
  5
320
  8
0
  6
CONTINUOUS
 10
197.0
 20
-125.0
 30
0.0
 11
197.0
 21
-124.5
 31
0.0
  0
LINE
  5
321
  8
0
  6
CONTINUOUS
 10
197.0
 20
-124.5
 30
0.0
 11
198.0
 21
-124.5
 31
0.0
  0
LINE
  5
322
  8
0
  6
CONTINUOUS
 10
180.0
 20
-116.5
 30
0.0
 11
197.0
 21
-116.5
 31
0.0
  0
LINE
  5
323
  8
0
  6
CONTINUOUS
 10
196.0
 20
-116.0
 30
0.0
 11
180.0
 21
-116.0
 31
0.0
  0
LINE
  5
324
  8
0
  6
CONTINUOUS
 10
180.0
 20
-115.0
 30
0.0
 11
197.0
 21
-115.0
 31
0.0
  0
LINE
  5
325
  8
0
  6
CONTINUOUS
 10
197.0
 20
-115.5
 30
0.0
 11
198.0
 21
-115.5
 31
0.0
  0
LINE
  5
326
  8
0
  6
CONTINUOUS
 10
198.0
 20
-115.5
 30
0.0
 11
198.0
 21
-115.0
 31
0.0
  0
LINE
  5
327
  8
0
  6
CONTINUOUS
 10
198.0
 20
-115.0
 30
0.0
 11
199.0
 21
-115.0
 31
0.0
  0
LINE
  5
328
  8
0
  6
CONTINUOUS
 10
197.0
 20
-116.5
 30
0.0
 11
198.0
 21
-120.0
 31
0.0
  0
LINE
  5
329
  8
0
  6
CONTINUOUS
 10
197.0
 20
-115.0
 30
0.0
 11
197.0
 21
-115.5
 31
0.0
  0
ENDSEC
  0
EOF
