  0
SECTION
  2
HEADER
  9
$ACADVER
  1
AC1009
  9
$INSBASE
 10
0.0
 20
0.0
 30
0.0
  9
$EXTMIN
 10
96.890150911003943
 20
26.677224750832892
 30
0.0
  9
$EXTMAX
 10
221.8901509110039
 20
234.81641896793511
 30
0.0
  9
$LIMMIN
 10
0.0
 20
0.0
  9
$LIMMAX
 10
420.0
 20
297.0
  9
$ORTHOMODE
 70
     1
  9
$REGENMODE
 70
     1
  9
$FILLMODE
 70
     1
  9
$QTEXTMODE
 70
     0
  9
$MIRRTEXT
 70
     1
  9
$DRAGMODE
 70
     2
  9
$LTSCALE
 40
1.0
  9
$OSMODE
 70
    40
  9
$ATTMODE
 70
     1
  9
$TEXTSIZE
 40
2.5
  9
$TRACEWID
 40
1.0
  9
$TEXTSTYLE
  7
STANDARD
  9
$CLAYER
  8
0
  9
$CELTYPE
  6
BYLAYER
  9
$CECOLOR
 62
   256
  9
$DIMSCALE
 40
1.0
  9
$DIMASZ
 40
2.5
  9
$DIMEXO
 40
0.625
  9
$DIMDLI
 40
3.75
  9
$DIMRND
 40
0.0
  9
$DIMDLE
 40
0.0
  9
$DIMEXE
 40
1.25
  9
$DIMTP
 40
0.0
  9
$DIMTM
 40
0.0
  9
$DIMTXT
 40
2.5
  9
$DIMCEN
 40
2.5
  9
$DIMTSZ
 40
0.0
  9
$DIMTOL
 70
     0
  9
$DIMLIM
 70
     0
  9
$DIMTIH
 70
     1
  9
$DIMTOH
 70
     1
  9
$DIMSE1
 70
     0
  9
$DIMSE2
 70
     0
  9
$DIMTAD
 70
     1
  9
$DIMZIN
 70
     8
  9
$DIMBLK
  1

  9
$DIMASO
 70
     1
  9
$DIMSHO
 70
     1
  9
$DIMPOST
  1

  9
$DIMAPOST
  1

  9
$DIMALT
 70
     0
  9
$DIMALTD
 70
     3
  9
$DIMALTF
 40
0.03937007874016
  9
$DIMLFAC
 40
1.0
  9
$DIMTOFL
 70
     1
  9
$DIMTVP
 40
0.0
  9
$DIMTIX
 70
     0
  9
$DIMSOXD
 70
     0
  9
$DIMSAH
 70
     0
  9
$DIMBLK1
  1

  9
$DIMBLK2
  1

  9
$DIMSTYLE
  2
ISO-25
  9
$DIMCLRD
 70
     0
  9
$DIMCLRE
 70
     0
  9
$DIMCLRT
 70
     0
  9
$DIMTFAC
 40
1.0
  9
$DIMGAP
 40
0.625
  9
$LUNITS
 70
     2
  9
$LUPREC
 70
     4
  9
$SKETCHINC
 40
1.0
  9
$FILLETRAD
 40
3.5
  9
$AUNITS
 70
     0
  9
$AUPREC
 70
     0
  9
$MENU
  1
.
  9
$ELEVATION
 40
0.0
  9
$PELEVATION
 40
0.0
  9
$THICKNESS
 40
0.0
  9
$LIMCHECK
 70
     0
  9
$BLIPMODE
 70
     0
  9
$CHAMFERA
 40
10.0
  9
$CHAMFERB
 40
10.0
  9
$SKPOLY
 70
     0
  9
$TDCREATE
 40
2452788.6417113189
  9
$TDUPDATE
 40
2452871.5384141202
  9
$TDINDWG
 40
0.0730965509
  9
$TDUSRTIMER
 40
0.0730943519
  9
$USRTIMER
 70
     1
  9
$ANGBASE
 50
0.0
  9
$ANGDIR
 70
     0
  9
$PDMODE
 70
     3
  9
$PDSIZE
 40
2.0
  9
$PLINEWID
 40
0.0
  9
$COORDS
 70
     0
  9
$SPLFRAME
 70
     0
  9
$SPLINETYPE
 70
     6
  9
$SPLINESEGS
 70
     8
  9
$ATTDIA
 70
     0
  9
$ATTREQ
 70
     1
  9
$HANDLING
 70
-16383
  9
$HANDSEED
  5
1657
  9
$SURFTAB1
 70
     6
  9
$SURFTAB2
 70
     6
  9
$SURFTYPE
 70
     6
  9
$SURFU
 70
     6
  9
$SURFV
 70
     6
  9
$UCSNAME
  2

  9
$UCSORG
 10
0.0
 20
0.0
 30
0.0
  9
$UCSXDIR
 10
1.0
 20
0.0
 30
0.0
  9
$UCSYDIR
 10
0.0
 20
1.0
 30
0.0
  9
$PUCSNAME
  2

  9
$PUCSORG
 10
0.0
 20
0.0
 30
0.0
  9
$PUCSXDIR
 10
1.0
 20
0.0
 30
0.0
  9
$PUCSYDIR
 10
0.0
 20
1.0
 30
0.0
  9
$USERI1
 70
     0
  9
$USERI2
 70
     0
  9
$USERI3
 70
     0
  9
$USERI4
 70
     0
  9
$USERI5
 70
     0
  9
$USERR1
 40
0.0
  9
$USERR2
 40
0.0
  9
$USERR3
 40
0.0
  9
$USERR4
 40
0.0
  9
$USERR5
 40
0.0
  9
$WORLDVIEW
 70
     1
  9
$SHADEDGE
 70
     3
  9
$SHADEDIF
 70
    70
  9
$TILEMODE
 70
     1
  9
$MAXACTVP
 70
    48
  9
$PLIMCHECK
 70
     0
  9
$PEXTMIN
 10
28.674485683441159
 20
19.97498331069945
 30
0.0
  9
$PEXTMAX
 10
258.0703711509704
 20
179.77484979629509
 30
0.0
  9
$PLIMMIN
 10
-5.027069091796875
 20
-5.0270833969116211
  9
$PLIMMAX
 10
291.98358154296858
 20
204.98858737945551
  9
$UNITMODE
 70
     0
  9
$VISRETAIN
 70
     1
  9
$PLINEGEN
 70
     0
  9
$PSLTSCALE
 70
     1
  0
ENDSEC
  0
SECTION
  2
TABLES
  0
TABLE
  2
VPORT
 70
     2
  0
VPORT
  2
*ACTIVE
 70
     0
 10
0.0
 20
0.0
 11
1.0
 21
1.0
 12
159.4033822666425
 22
130.74643774359299
 13
0.0
 23
0.0
 14
10.0
 24
10.0
 15
10.0
 25
10.0
 16
0.0
 26
0.0
 36
1.0
 17
0.0
 27
0.0
 37
0.0
 40
209.73033851749011
 41
1.526249999999999
 42
50.0
 43
0.0
 44
0.0
 50
0.0
 51
0.0
 71
     0
 72
   100
 73
     1
 74
     2
 75
     0
 76
     0
 77
     0
 78
     0
  0
ENDTAB
  0
TABLE
  2
LTYPE
 70
     2
  0
LTYPE
  2
CONTINUOUS
 70
     0
  3
Solid line
 72
    65
 73
     0
 40
0.0
  0
LTYPE
  2
CENTER
 70
     0
  3
Center (.5x) ___ _ ___ _ ___ _ ___ _ ___ _ ___
 72
    65
 73
     4
 40
28.574999999999989
 49
19.050000000000001
 49
-3.174999999999998
 49
3.174999999999998
 49
-3.174999999999998
  0
ENDTAB
  0
TABLE
  2
LAYER
 70
     1
  0
LAYER
  2
0
 70
     0
 62
     7
  6
CONTINUOUS
  0
ENDTAB
  0
TABLE
  2
STYLE
 70
     1
  0
STYLE
  2
STANDARD
 70
     0
 40
0.0
 41
1.0
 50
0.0
 71
     0
 42
2.5
  3
txt
  4

  0
ENDTAB
  0
TABLE
  2
VIEW
 70
     0
  0
ENDTAB
  0
TABLE
  2
UCS
 70
     0
  0
ENDTAB
  0
TABLE
  2
APPID
 70
     1
  0
APPID
  2
ACAD
 70
     0
  0
ENDTAB
  0
TABLE
  2
DIMSTYLE
 70
     1
  0
DIMSTYLE
  2
ISO-25
 70
     0
  3

  4

  5

  6

  7

 40
1.0
 41
2.5
 42
0.625
 43
3.75
 44
1.25
 45
0.0
 46
0.0
 47
0.0
 48
0.0
140
2.5
141
2.5
142
0.0
143
0.03937007874016
144
1.0
145
0.0
146
1.0
147
0.625
 71
     0
 72
     0
 73
     1
 74
     1
 75
     0
 76
     0
 77
     1
 78
     8
170
     0
171
     3
172
     1
173
     0
174
     0
175
     0
176
     0
177
     0
178
     0
  0
ENDTAB
  0
ENDSEC
  0
SECTION
  2
BLOCKS
  0
BLOCK
  8
0
  2
$MODEL_SPACE
 70
     0
 10
0.0
 20
0.0
 30
0.0
  3
$MODEL_SPACE
  1

  0
ENDBLK
  5
1355
  8
0
  0
BLOCK
 67
     1
  8
0
  2
$PAPER_SPACE
 70
     0
 10
0.0
 20
0.0
 30
0.0
  3
$PAPER_SPACE
  1

  0
ENDBLK
  5
1351
 67
     1
  8
0
  0
BLOCK
  8
0
  2
*X2
 70
     1
 10
0.0
 20
0.0
 30
0.0
  3
*X2
  1

  0
LINE
  5
1363
  8
0
 62
     0
 10
214.8901509110039
 20
177.55411264752979
 30
0.0
 11
213.8901509110039
 21
178.55411264752991
 31
0.0
  0
LINE
  5
1364
  8
0
 62
     0
 10
214.89015091100379
 20
175.4327923039701
 30
0.0
 11
213.8901509110039
 21
176.4327923039703
 31
0.0
  0
LINE
  5
1365
  8
0
 62
     0
 10
214.8901509110039
 20
173.31147196041039
 30
0.0
 11
213.8901509110039
 21
174.3114719604105
 31
0.0
  0
LINE
  5
1366
  8
0
 62
     0
 10
214.8901509110039
 20
171.19015161685081
 30
0.0
 11
213.8901509110039
 21
172.19015161685101
 31
0.0
  0
LINE
  5
1367
  8
0
 62
     0
 10
214.89015091100379
 20
169.06883127329129
 30
0.0
 11
212.3872745436868
 21
171.57170764060851
 31
0.0
  0
LINE
  5
1368
  8
0
 62
     0
 10
214.43439919928511
 20
167.4032626414506
 30
0.0
 11
210.26595420012711
 21
171.57170764060851
 31
0.0
  0
LINE
  5
1369
  8
0
 62
     0
 10
213.03675499081621
 20
166.67958650635981
 30
0.0
 11
208.14463385656751
 21
171.57170764060851
 31
0.0
  0
LINE
  5
136A
  8
0
 62
     0
 10
210.81979575521839
 20
166.77522539839779
 30
0.0
 11
206.02331351300771
 21
171.57170764060851
 31
0.0
  0
LINE
  5
136B
  8
0
 62
     0
 10
208.58682697252411
 20
166.88687383753251
 30
0.0
 11
203.9019931694481
 21
171.57170764060851
 31
0.0
  0
LINE
  5
136C
  8
0
 62
     0
 10
206.35385818982971
 20
166.9985222766671
 30
0.0
 11
201.78067282588839
 21
171.57170764060851
 31
0.0
  0
LINE
  5
136D
  8
0
 62
     0
 10
204.12088940713531
 20
167.11017071580179
 30
0.0
 11
199.6593524823289
 21
171.57170764060851
 31
0.0
  0
LINE
  5
136E
  8
0
 62
     0
 10
201.88792062444091
 20
167.2218191549367
 30
0.0
 11
197.5380321387691
 21
171.57170764060851
 31
0.0
  0
LINE
  5
136F
  8
0
 62
     0
 10
199.65495184174671
 20
167.33346759407141
 30
0.0
 11
195.41671179520949
 21
171.57170764060851
 31
0.0
  0
LINE
  5
1370
  8
0
 62
     0
 10
197.42198305905239
 20
167.44511603320601
 30
0.0
 11
193.29539145165
 21
171.57170764060851
 31
0.0
  0
LINE
  5
1371
  8
0
 62
     0
 10
195.2399650767978
 20
167.50581367190091
 30
0.0
 11
191.1740711080902
 21
171.57170764060851
 31
0.0
  0
LINE
  5
1372
  8
0
 62
     0
 10
193.20188979296751
 20
167.4225686121714
 30
0.0
 11
189.05275076453071
 21
171.57170764060851
 31
0.0
  0
LINE
  5
1373
  8
0
 62
     0
 10
191.24300341644971
 20
167.2601346451298
 30
0.0
 11
186.931430420971
 21
171.57170764060851
 31
0.0
  0
LINE
  5
1374
  8
0
 62
     0
 10
189.2785280221689
 20
167.10328969585069
 30
0.0
 11
184.8101100774112
 21
171.57170764060851
 31
0.0
  0
LINE
  5
1375
  8
0
 62
     0
 10
187.30690405253981
 20
166.95359332192041
 30
0.0
 11
182.68878973385171
 21
171.57170764060851
 31
0.0
  0
LINE
  5
1376
  8
0
 62
     0
 10
185.3280593445493
 20
166.81111768635111
 30
0.0
 11
180.5674693902921
 21
171.57170764060851
 31
0.0
  0
LINE
  5
1377
  8
0
 62
     0
 10
183.341920176927
 20
166.67593651041381
 30
0.0
 11
178.44614904673239
 21
171.57170764060851
 31
0.0
  0
LINE
  5
1378
  8
0
 62
     0
 10
181.3484112236344
 20
166.54812512014681
 30
0.0
 11
176.3248287031727
 21
171.57170764060851
 31
0.0
  0
LINE
  5
1379
  8
0
 62
     0
 10
179.34745550553339
 20
166.4277604946883
 30
0.0
 11
174.2035083596131
 21
171.57170764060851
 31
0.0
  0
LINE
  5
137A
  8
0
 62
     0
 10
177.3389743401421
 20
166.31492131652001
 30
0.0
 11
172.08218801605341
 21
171.57170764060851
 31
0.0
  0
LINE
  5
137B
  8
0
 62
     0
 10
175.3228872893871
 20
166.20968802371499
 30
0.0
 11
169.96086767249381
 21
171.57170764060851
 31
0.0
  0
LINE
  5
137C
  8
0
 62
     0
 10
173.29911210525259
 20
166.11214286429009
 30
0.0
 11
167.8395473289342
 21
171.57170764060851
 31
0.0
  0
LINE
  5
137D
  8
0
 62
     0
 10
171.26756467322011
 20
166.0223699527628
 30
0.0
 11
165.71822698537451
 21
171.57170764060851
 31
0.0
  0
LINE
  5
137E
  8
0
 62
     0
 10
169.22815895339181
 20
165.94045532903161
 30
0.0
 11
163.596906641815
 21
171.57170764060851
 31
0.0
  0
LINE
  5
137F
  8
0
 62
     0
 10
167.1808069191764
 20
165.86648701968721
 30
0.0
 11
161.47558629825531
 21
171.57170764060851
 31
0.0
  0
LINE
  5
1380
  8
0
 62
     0
 10
165.12541849341591
 20
165.80055510188831
 30
0.0
 11
159.35426595469571
 21
171.57170764060851
 31
0.0
  0
LINE
  5
1381
  8
0
 62
     0
 10
163.06190148181699
 20
165.74275176992731
 30
0.0
 11
157.2329456111359
 21
171.57170764060851
 31
0.0
  0
LINE
  5
1382
  8
0
 62
     0
 10
160.99016150355391
 20
165.69317140463099
 30
0.0
 11
155.1116252675763
 21
171.57170764060851
 31
0.0
  0
LINE
  5
1383
  8
0
 62
     0
 10
158.91010191888441
 20
165.6519106457408
 30
0.0
 11
152.9903049240167
 21
171.57170764060851
 31
0.0
  0
LINE
  5
1384
  8
0
 62
     0
 10
156.82162375363001
 20
165.61906846743551
 30
0.0
 11
150.86898458045701
 21
171.57170764060851
 31
0.0
  0
LINE
  5
1385
  8
0
 62
     0
 10
154.72462562034411
 20
165.5947462571616
 30
0.0
 11
148.74766423689741
 21
171.57170764060851
 31
0.0
  0
LINE
  5
1386
  8
0
 62
     0
 10
152.61900363599511
 20
165.57904789795111
 30
0.0
 11
146.6263438933378
 21
171.57170764060851
 31
0.0
  0
LINE
  5
1387
  8
0
 62
     0
 10
150.50465133596751
 20
165.5720798544192
 30
0.0
 11
144.5050235497782
 21
171.57170764060851
 31
0.0
  0
LINE
  5
1388
  8
0
 62
     0
 10
148.3814595841844
 20
165.57395126264259
 30
0.0
 11
142.38370320621851
 21
171.57170764060851
 31
0.0
  0
LINE
  5
1389
  8
0
 62
     0
 10
146.24931647912911
 20
165.58477402413811
 30
0.0
 11
140.26238286265891
 21
171.57170764060851
 31
0.0
  0
LINE
  5
138A
  8
0
 62
     0
 10
144.10810725553759
 20
165.60466290417011
 30
0.0
 11
138.14106251909911
 21
171.57170764060859
 31
0.0
  0
LINE
  5
138B
  8
0
 62
     0
 10
141.95771418151341
 20
165.6337356346346
 30
0.0
 11
136.01974217553959
 21
171.57170764060859
 31
0.0
  0
LINE
  5
138C
  8
0
 62
     0
 10
139.79801645080349
 20
165.6721130217849
 30
0.0
 11
133.8984218319799
 21
171.57170764060851
 31
0.0
  0
LINE
  5
138D
  8
0
 62
     0
 10
137.62889006995101
 20
165.71991905907771
 30
0.0
 11
131.7771014884203
 21
171.57170764060851
 31
0.0
  0
LINE
  5
138E
  8
0
 62
     0
 10
135.45020774002481
 20
165.7772810454444
 30
0.0
 11
129.6557811448605
 21
171.57170764060851
 31
0.0
  0
LINE
  5
138F
  8
0
 62
     0
 10
133.26183873260231
 20
165.8443297093072
 30
0.0
 11
127.53446080130099
 21
171.57170764060859
 31
0.0
  0
LINE
  5
1390
  8
0
 62
     0
 10
131.0636487596617
 20
165.9211993386879
 30
0.0
 11
125.41314045774131
 21
171.57170764060851
 31
0.0
  0
LINE
  5
1391
  8
0
 62
     0
 10
128.85549983701159
 20
166.00802791777849
 30
0.0
 11
123.2918201141817
 21
171.57170764060859
 31
0.0
  0
LINE
  5
1392
  8
0
 62
     0
 10
126.63725014085971
 20
166.1049572703709
 30
0.0
 11
121.1704997706219
 21
171.57170764060859
 31
0.0
  0
LINE
  5
1393
  8
0
 62
     0
 10
124.4087538570972
 20
166.21213321057371
 30
0.0
 11
119.0491794270623
 21
171.57170764060859
 31
0.0
  0
LINE
  5
1394
  8
0
 62
     0
 10
122.1698610228383
 20
166.32970570127279
 30
0.0
 11
116.9278590835028
 21
171.57170764060859
 31
0.0
  0
LINE
  5
1395
  8
0
 62
     0
 10
119.9204173597208
 20
166.45782902083079
 30
0.0
 11
114.80653873994299
 21
171.57170764060859
 31
0.0
  0
LINE
  5
1396
  8
0
 62
     0
 10
117.66026409844
 20
166.5966619385519
 30
0.0
 11
112.6852183963835
 21
171.57170764060859
 31
0.0
  0
LINE
  5
1397
  8
0
 62
     0
 10
115.3892377939427
 20
166.7463678994896
 30
0.0
 11
110.5638980528237
 21
171.57170764060859
 31
0.0
  0
LINE
  5
1398
  8
0
 62
     0
 10
113.10717013066611
 20
166.9071152192065
 30
0.0
 11
108.4425777092641
 21
171.57170764060859
 31
0.0
  0
LINE
  5
1399
  8
0
 62
     0
 10
110.81388771715621
 20
167.07907728915691
 30
0.0
 11
106.3212573657045
 21
171.57170764060859
 31
0.0
  0
LINE
  5
139A
  8
0
 62
     0
 10
108.5092118693488
 20
167.2624327934046
 30
0.0
 11
104.19993702214479
 21
171.57170764060859
 31
0.0
  0
LINE
  5
139B
  8
0
 62
     0
 10
106.1929583817371
 20
167.45736593745659
 30
0.0
 11
102.07861667858511
 21
171.57170764060859
 31
0.0
  0
LINE
  5
139C
  8
0
 62
     0
 10
103.9572963350257
 20
167.57170764060851
 30
0.0
 11
99.957296335025632
 21
171.57170764060859
 31
0.0
  0
LINE
  5
139D
  8
0
 62
     0
 10
101.8352215402232
 20
167.57246209185121
 30
0.0
 11
99.890905362246727
 21
169.5167782698278
 31
0.0
  0
LINE
  5
139E
  8
0
 62
     0
 10
213.41273370134999
 20
166.74368614303799
 30
0.0
 11
214.82067084802441
 21
168.15162328971221
 31
0.0
  0
LINE
  5
139F
  8
0
 62
     0
 10
211.29899276277251
 20
166.75126554802
 30
0.0
 11
214.89015091100379
 21
170.34242369625139
 31
0.0
  0
LINE
  5
13A0
  8
0
 62
     0
 10
209.27868767366809
 20
166.85228080247521
 30
0.0
 11
214.89015091100379
 21
172.4637440398111
 31
0.0
  0
LINE
  5
13A1
  8
0
 62
     0
 10
213.8901509110039
 20
173.58506438337071
 30
0.0
 11
214.89015091100379
 21
174.58506438337071
 31
0.0
  0
LINE
  5
13A2
  8
0
 62
     0
 10
207.2583825845638
 20
166.95329605693061
 30
0.0
 11
211.87679416824159
 21
171.57170764060851
 31
0.0
  0
LINE
  5
13A3
  8
0
 62
     0
 10
213.8901509110039
 20
175.7063847269302
 30
0.0
 11
214.89015091100379
 21
176.70638472693031
 31
0.0
  0
LINE
  5
13A4
  8
0
 62
     0
 10
205.23807749545921
 20
167.05431131138559
 30
0.0
 11
209.75547382468201
 21
171.57170764060839
 31
0.0
  0
LINE
  5
13A5
  8
0
 62
     0
 10
213.8901509110039
 20
177.82770507048991
 30
0.0
 11
214.6341534811225
 21
178.57170764060851
 31
0.0
  0
LINE
  5
13A6
  8
0
 62
     0
 10
203.2177724063549
 20
167.15532656584099
 30
0.0
 11
207.6341534811223
 21
171.57170764060851
 31
0.0
  0
LINE
  5
13A7
  8
0
 62
     0
 10
201.1974673172505
 20
167.2563418202962
 30
0.0
 11
205.51283313756281
 21
171.57170764060851
 31
0.0
  0
LINE
  5
13A8
  8
0
 62
     0
 10
199.17716222814599
 20
167.35735707475141
 30
0.0
 11
203.39151279400301
 21
171.57170764060839
 31
0.0
  0
LINE
  5
13A9
  8
0
 62
     0
 10
197.15685713904159
 20
167.45837232920661
 30
0.0
 11
201.2701924504434
 21
171.57170764060851
 31
0.0
  0
LINE
  5
13AA
  8
0
 62
     0
 10
195.08147865130411
 20
167.50431418502879
 30
0.0
 11
199.1488721068838
 21
171.57170764060851
 31
0.0
  0
LINE
  5
13AB
  8
0
 62
     0
 10
192.84999590805711
 20
167.39415178534139
 30
0.0
 11
197.0275517633242
 21
171.57170764060851
 31
0.0
  0
LINE
  5
13AC
  8
0
 62
     0
 10
190.53744198621621
 20
167.20291820706009
 30
0.0
 11
194.90623141976451
 21
171.57170764060851
 31
0.0
  0
LINE
  5
13AD
  8
0
 62
     0
 10
188.23640655264899
 20
167.0232031170525
 30
0.0
 11
192.78491107620479
 21
171.57170764060851
 31
0.0
  0
LINE
  5
13AE
  8
0
 62
     0
 10
185.9467071820807
 20
166.85482409004391
 30
0.0
 11
190.6635907326453
 21
171.57170764060851
 31
0.0
  0
LINE
  5
13AF
  8
0
 62
     0
 10
183.6681668965953
 20
166.6976041481181
 30
0.0
 11
188.5422703890857
 21
171.57170764060851
 31
0.0
  0
LINE
  5
13B0
  8
0
 62
     0
 10
181.40061394074141
 20
166.5513715358239
 30
0.0
 11
186.42095004552601
 21
171.57170764060851
 31
0.0
  0
LINE
  5
13B1
  8
0
 62
     0
 10
179.14388156849699
 20
166.41595950713901
 30
0.0
 11
184.29962970196641
 21
171.57170764060851
 31
0.0
  0
LINE
  5
13B2
  8
0
 62
     0
 10
176.89780784133779
 20
166.29120612353941
 30
0.0
 11
182.17830935840661
 21
171.57170764060851
 31
0.0
  0
LINE
  5
13B3
  8
0
 62
     0
 10
174.66223543671001
 20
166.17695406247131
 30
0.0
 11
180.05698901484709
 21
171.57170764060851
 31
0.0
  0
LINE
  5
13B4
  8
0
 62
     0
 10
172.43701146625651
 20
166.07305043557761
 30
0.0
 11
177.9356686712874
 21
171.57170764060851
 31
0.0
  0
LINE
  5
13B5
  8
0
 62
     0
 10
170.22198730319681
 20
165.97934661607741
 30
0.0
 11
175.8143483277278
 21
171.57170764060851
 31
0.0
  0
LINE
  5
13B6
  8
0
 62
     0
 10
168.0170184183018
 20
165.89569807474211
 30
0.0
 11
173.69302798416811
 21
171.57170764060851
 31
0.0
  0
LINE
  5
13B7
  8
0
 62
     0
 10
165.82196422394611
 20
165.82196422394611
 30
0.0
 11
171.57170764060851
 21
171.57170764060851
 31
0.0
  0
LINE
  5
13B8
  8
0
 62
     0
 10
163.6366879257549
 20
165.7580082693145
 30
0.0
 11
169.45038729704891
 21
171.57170764060851
 31
0.0
  0
LINE
  5
13B9
  8
0
 62
     0
 10
161.46105638139841
 20
165.7036970685177
 30
0.0
 11
167.3290669534893
 21
171.57170764060851
 31
0.0
  0
LINE
  5
13BA
  8
0
 62
     0
 10
159.29493996611751
 20
165.6589009967964
 30
0.0
 11
165.2077466099295
 21
171.57170764060851
 31
0.0
  0
LINE
  5
13BB
  8
0
 62
     0
 10
157.13821244458859
 20
165.62349381882731
 30
0.0
 11
163.0864262663699
 21
171.57170764060851
 31
0.0
  0
LINE
  5
13BC
  8
0
 62
     0
 10
154.99075084877131
 20
165.5973525665695
 30
0.0
 11
160.96510592281021
 21
171.57170764060851
 31
0.0
  0
LINE
  5
13BD
  8
0
 62
     0
 10
152.85243536139339
 20
165.58035742275121
 30
0.0
 11
158.84378557925061
 21
171.57170764060851
 31
0.0
  0
LINE
  5
13BE
  8
0
 62
     0
 10
150.7231492047647
 20
165.57239160968209
 30
0.0
 11
156.722465235691
 21
171.57170764060851
 31
0.0
  0
LINE
  5
13BF
  8
0
 62
     0
 10
148.6027785346196
 20
165.57334128309679
 30
0.0
 11
154.6011448921314
 21
171.57170764060851
 31
0.0
  0
LINE
  5
13C0
  8
0
 62
     0
 10
146.4912123387146
 20
165.58309543075131
 30
0.0
 11
152.4798245485718
 21
171.57170764060851
 31
0.0
  0
LINE
  5
13C1
  8
0
 62
     0
 10
144.38834233992301
 20
165.6015457755195
 30
0.0
 11
150.35850420501211
 21
171.57170764060851
 31
0.0
  0
LINE
  5
13C2
  8
0
 62
     0
 10
142.29406290358341
 20
165.62858668273961
 30
0.0
 11
148.23718386145251
 21
171.57170764060851
 31
0.0
  0
LINE
  5
13C3
  8
0
 62
     0
 10
140.20827094887781
 20
165.66411507159361
 30
0.0
 11
146.11586351789279
 21
171.57170764060851
 31
0.0
  0
LINE
  5
13C4
  8
0
 62
     0
 10
138.1308658640246
 20
165.70803033029981
 30
0.0
 11
143.99454317433319
 21
171.57170764060851
 31
0.0
  0
LINE
  5
13C5
  8
0
 62
     0
 10
136.06174942508841
 20
165.7602342349233
 30
0.0
 11
141.87322283077339
 21
171.57170764060851
 31
0.0
  0
LINE
  5
13C6
  8
0
 62
     0
 10
134.00082571822131
 20
165.8206308716158
 30
0.0
 11
139.75190248721381
 21
171.57170764060851
 31
0.0
  0
LINE
  5
13C7
  8
0
 62
     0
 10
131.94800106515521
 20
165.8891265621094
 30
0.0
 11
137.6305821436541
 21
171.57170764060851
 31
0.0
  0
LINE
  5
13C8
  8
0
 62
     0
 10
129.90318395178551
 20
165.96562979229941
 30
0.0
 11
135.50926180009449
 21
171.57170764060851
 31
0.0
  0
LINE
  5
13C9
  8
0
 62
     0
 10
127.8662849596878
 20
166.05005114376141
 30
0.0
 11
133.3879414565348
 21
171.57170764060851
 31
0.0
  0
LINE
  5
13CA
  8
0
 62
     0
 10
125.8372167004204
 20
166.14230322805369
 30
0.0
 11
131.2666211129752
 21
171.57170764060851
 31
0.0
  0
LINE
  5
13CB
  8
0
 62
     0
 10
123.8158937524791
 20
166.24230062367201
 30
0.0
 11
129.14530076941551
 21
171.57170764060851
 31
0.0
  0
LINE
  5
13CC
  8
0
 62
     0
 10
121.80223260077
 20
166.34995981552251
 30
0.0
 11
127.023980425856
 21
171.57170764060851
 31
0.0
  0
LINE
  5
13CD
  8
0
 62
     0
 10
119.7961515784814
 20
166.46519913679339
 30
0.0
 11
124.90266008229641
 21
171.57170764060851
 31
0.0
  0
LINE
  5
13CE
  8
0
 62
     0
 10
117.797570811238
 20
166.58793871310991
 30
0.0
 11
122.7813397387367
 21
171.57170764060851
 31
0.0
  0
LINE
  5
13CF
  8
0
 62
     0
 10
115.8064121634295
 20
166.71810040886081
 30
0.0
 11
120.660019395177
 21
171.57170764060851
 31
0.0
  0
LINE
  5
13D0
  8
0
 62
     0
 10
113.8225991866087
 20
166.85560777559971
 30
0.0
 11
118.5386990516175
 21
171.57170764060851
 31
0.0
  0
LINE
  5
13D1
  8
0
 62
     0
 10
111.8460570698665
 20
167.000386002417
 30
0.0
 11
116.4173787080578
 21
171.57170764060851
 31
0.0
  0
LINE
  5
13D2
  8
0
 62
     0
 10
109.8767125920872
 20
167.1523618681974
 30
0.0
 11
114.29605836449809
 21
171.57170764060851
 31
0.0
  0
LINE
  5
13D3
  8
0
 62
     0
 10
107.91449407600111
 20
167.31146369567119
 30
0.0
 11
112.17473802093851
 21
171.57170764060851
 31
0.0
  0
LINE
  5
13D4
  8
0
 62
     0
 10
105.95933134395089
 20
167.4776213071805
 30
0.0
 11
110.0534176773789
 21
171.57170764060851
 31
0.0
  0
LINE
  5
13D5
  8
0
 62
     0
 10
103.9320973338192
 20
167.57170764060851
 30
0.0
 11
107.9320973338192
 21
171.57170764060851
 31
0.0
  0
LINE
  5
13D6
  8
0
 62
     0
 10
101.812293027363
 20
167.57322367771181
 30
0.0
 11
105.8107769902595
 21
171.57170764060851
 31
0.0
  0
LINE
  5
13D7
  8
0
 62
     0
 10
100.3791548313569
 20
168.2614058252654
 30
0.0
 11
103.6894566466999
 21
171.57170764060851
 31
0.0
  0
LINE
  5
13D8
  8
0
 62
     0
 10
99.890150911003929
 20
169.8937222484721
 30
0.0
 11
101.56813630314031
 21
171.57170764060851
 31
0.0
  0
ENDBLK
  5
13D9
  8
0
  0
BLOCK
  8
0
  2
*X3
 70
     1
 10
0.0
 20
0.0
 30
0.0
  3
*X3
  1

  0
LINE
  5
13DC
  8
0
 62
     0
 10
214.8901509110039
 20
135.12770577633691
 30
0.0
 11
213.8901509110039
 21
136.12770577633691
 31
0.0
  0
LINE
  5
13DD
  8
0
 62
     0
 10
214.89015091100379
 20
133.00638543277731
 30
0.0
 11
213.8901509110039
 21
134.00638543277731
 31
0.0
  0
LINE
  5
13DE
  8
0
 62
     0
 10
214.8901509110039
 20
130.8850650892177
 30
0.0
 11
213.8901509110039
 21
131.88506508921779
 31
0.0
  0
LINE
  5
13DF
  8
0
 62
     0
 10
214.8901509110039
 20
128.7637447456581
 30
0.0
 11
213.8901509110039
 21
129.7637447456581
 31
0.0
  0
LINE
  5
13E0
  8
0
 62
     0
 10
214.88955484655759
 20
126.6430204665448
 30
0.0
 11
212.4432280620702
 21
129.089347251032
 31
0.0
  0
LINE
  5
13E1
  8
0
 62
     0
 10
214.21641454621999
 20
125.1948404233226
 30
0.0
 11
210.32190771851069
 21
129.089347251032
 31
0.0
  0
LINE
  5
13E2
  8
0
 62
     0
 10
212.58534718884289
 20
124.70458743714011
 30
0.0
 11
208.20058737495111
 21
129.08934725103211
 31
0.0
  0
LINE
  5
13E3
  8
0
 62
     0
 10
210.35237840614849
 20
124.8162358762747
 30
0.0
 11
206.0792670313914
 21
129.089347251032
 31
0.0
  0
LINE
  5
13E4
  8
0
 62
     0
 10
208.11940962345409
 20
124.9278843154095
 30
0.0
 11
203.95794668783171
 21
129.089347251032
 31
0.0
  0
LINE
  5
13E5
  8
0
 62
     0
 10
205.88644084075989
 20
125.0395327545442
 30
0.0
 11
201.83662634427199
 21
129.089347251032
 31
0.0
  0
LINE
  5
13E6
  8
0
 62
     0
 10
203.6534720580656
 20
125.15118119367899
 30
0.0
 11
199.7153060007125
 21
129.089347251032
 31
0.0
  0
LINE
  5
13E7
  8
0
 62
     0
 10
201.42050327537109
 20
125.26282963281371
 30
0.0
 11
197.59398565715281
 21
129.089347251032
 31
0.0
  0
LINE
  5
13E8
  8
0
 62
     0
 10
199.18753449267689
 20
125.3744780719484
 30
0.0
 11
195.4726653135931
 21
129.089347251032
 31
0.0
  0
LINE
  5
13E9
  8
0
 62
     0
 10
196.9545657099824
 20
125.486126511083
 30
0.0
 11
193.35134497003341
 21
129.08934725103211
 31
0.0
  0
LINE
  5
13EA
  8
0
 62
     0
 10
194.80210076634651
 20
125.5172711111595
 30
0.0
 11
191.23002462647381
 21
129.089347251032
 31
0.0
  0
LINE
  5
13EB
  8
0
 62
     0
 10
192.7912499333454
 20
125.4068016006009
 30
0.0
 11
189.10870428291409
 21
129.089347251032
 31
0.0
  0
LINE
  5
13EC
  8
0
 62
     0
 10
190.83237664767569
 20
125.24435454271089
 30
0.0
 11
186.9873839393546
 21
129.08934725103211
 31
0.0
  0
LINE
  5
13ED
  8
0
 62
     0
 10
188.86641077052781
 20
125.0890000762992
 30
0.0
 11
184.86606359579491
 21
129.089347251032
 31
0.0
  0
LINE
  5
13EE
  8
0
 62
     0
 10
186.89328133918681
 20
124.94080916408051
 30
0.0
 11
182.74474325223531
 21
129.089347251032
 31
0.0
  0
LINE
  5
13EF
  8
0
 62
     0
 10
184.9129158682189
 20
124.7998542914888
 30
0.0
 11
180.62342290867559
 21
129.08934725103211
 31
0.0
  0
LINE
  5
13F0
  8
0
 62
     0
 10
182.92524030434251
 20
124.66620951180541
 30
0.0
 11
178.50210256511599
 21
129.089347251032
 31
0.0
  0
LINE
  5
13F1
  8
0
 62
     0
 10
180.9301789795459
 20
124.5399504930426
 30
0.0
 11
176.3807822215563
 21
129.089347251032
 31
0.0
  0
LINE
  5
13F2
  8
0
 62
     0
 10
178.9276545623604
 20
124.42115456666831
 30
0.0
 11
174.25946187799681
 21
129.089347251032
 31
0.0
  0
LINE
  5
13F3
  8
0
 62
     0
 10
176.91758800720709
 20
124.3099007782621
 30
0.0
 11
172.13814153443701
 21
129.089347251032
 31
0.0
  0
LINE
  5
13F4
  8
0
 62
     0
 10
174.8998985017148
 20
124.2062699401947
 30
0.0
 11
170.01682119087741
 21
129.089347251032
 31
0.0
  0
LINE
  5
13F5
  8
0
 62
     0
 10
172.87450341191709
 20
124.1103446864328
 30
0.0
 11
167.89550084731781
 21
129.089347251032
 31
0.0
  0
LINE
  5
13F6
  8
0
 62
     0
 10
170.8413182252167
 20
124.0222095295735
 30
0.0
 11
165.77418050375809
 21
129.089347251032
 31
0.0
  0
LINE
  5
13F7
  8
0
 62
     0
 10
168.8002564910073
 20
123.94195092022331
 30
0.0
 11
163.6528601601986
 21
129.089347251032
 31
0.0
  0
LINE
  5
13F8
  8
0
 62
     0
 10
166.75122975883571
 20
123.8696573088353
 30
0.0
 11
161.53153981663891
 21
129.089347251032
 31
0.0
  0
LINE
  5
13F9
  8
0
 62
     0
 10
164.6941475139738
 20
123.8054192101374
 30
0.0
 11
159.41021947307931
 21
129.089347251032
 31
0.0
  0
LINE
  5
13FA
  8
0
 62
     0
 10
162.62891711027251
 20
123.7493292702792
 30
0.0
 11
157.28889912951951
 21
129.089347251032
 31
0.0
  0
LINE
  5
13FB
  8
0
 62
     0
 10
160.5554437001484
 20
123.7014823368435
 30
0.0
 11
155.16757878595999
 21
129.089347251032
 31
0.0
  0
LINE
  5
13FC
  8
0
 62
     0
 10
158.47363016156041
 20
123.6619755318717
 30
0.0
 11
153.0462584424003
 21
129.089347251032
 31
0.0
  0
LINE
  5
13FD
  8
0
 62
     0
 10
156.3833770218084
 20
123.63090832806419
 30
0.0
 11
150.9249380988407
 21
129.089347251032
 31
0.0
  0
LINE
  5
13FE
  8
0
 62
     0
 10
154.28458237798799
 20
123.608382628325
 30
0.0
 11
148.80361775528101
 21
129.089347251032
 31
0.0
  0
LINE
  5
13FF
  8
0
 62
     0
 10
152.17714181391909
 20
123.5945028488342
 30
0.0
 11
146.68229741172141
 21
129.089347251032
 31
0.0
  0
LINE
  5
1400
  8
0
 62
     0
 10
150.0609483133529
 20
123.5893760058409
 30
0.0
 11
144.5609770681618
 21
129.089347251032
 31
0.0
  0
LINE
  5
1401
  8
0
 62
     0
 10
147.9358921692529
 20
123.593111806381
 30
0.0
 11
142.43965672460209
 21
129.089347251032
 31
0.0
  0
LINE
  5
1402
  8
0
 62
     0
 10
145.8018608889316
 20
123.6058227431428
 30
0.0
 11
140.31833638104251
 21
129.089347251032
 31
0.0
  0
LINE
  5
1403
  8
0
 62
     0
 10
143.65873909480419
 20
123.6276241937106
 30
0.0
 11
138.19701603748291
 21
129.089347251032
 31
0.0
  0
LINE
  5
1404
  8
0
 62
     0
 10
141.5064084205145
 20
123.6586345244407
 30
0.0
 11
136.07569569392311
 21
129.089347251032
 31
0.0
  0
LINE
  5
1405
  8
0
 62
     0
 10
139.344747402161
 20
123.6989751992345
 30
0.0
 11
133.95437535036351
 21
129.089347251032
 31
0.0
  0
LINE
  5
1406
  8
0
 62
     0
 10
137.17363136434111
 20
123.74877089349469
 30
0.0
 11
131.8330550068039
 21
129.089347251032
 31
0.0
  0
LINE
  5
1407
  8
0
 62
     0
 10
134.99293230070421
 20
123.808149613572
 30
0.0
 11
129.7117346632443
 21
129.089347251032
 31
0.0
  0
LINE
  5
1408
  8
0
 62
     0
 10
132.80251874868961
 20
123.877242822027
 30
0.0
 11
127.5904143196846
 21
129.089347251032
 31
0.0
  0
LINE
  5
1409
  8
0
 62
     0
 10
130.6022556580977
 20
123.9561855690594
 30
0.0
 11
125.469093976125
 21
129.08934725103211
 31
0.0
  0
LINE
  5
140A
  8
0
 62
     0
 10
128.392004253116
 20
124.0451166304814
 30
0.0
 11
123.34777363256531
 21
129.089347251032
 31
0.0
  0
LINE
  5
140B
  8
0
 62
     0
 10
126.1716218874012
 20
124.1441786526365
 30
0.0
 11
121.2264532890056
 21
129.089347251032
 31
0.0
  0
LINE
  5
140C
  8
0
 62
     0
 10
123.9409618917802
 20
124.25351830469781
 30
0.0
 11
119.105132945446
 21
129.08934725103211
 31
0.0
  0
LINE
  5
140D
  8
0
 62
     0
 10
121.6998734141069
 20
124.37328643881141
 30
0.0
 11
116.9838126018863
 21
129.089347251032
 31
0.0
  0
LINE
  5
140E
  8
0
 62
     0
 10
119.44820125077371
 20
124.5036382585849
 30
0.0
 11
114.8624922583268
 21
129.08934725103211
 31
0.0
  0
LINE
  5
140F
  8
0
 62
     0
 10
117.1857856693385
 20
124.6447334964605
 30
0.0
 11
112.74117191476699
 21
129.08934725103211
 31
0.0
  0
LINE
  5
1410
  8
0
 62
     0
 10
114.91246222168741
 20
124.79673660055199
 30
0.0
 11
110.61985157120751
 21
129.08934725103211
 31
0.0
  0
LINE
  5
1411
  8
0
 62
     0
 10
112.62806154710739
 20
124.9598169315724
 30
0.0
 11
108.4985312276478
 21
129.08934725103211
 31
0.0
  0
LINE
  5
1412
  8
0
 62
     0
 10
110.33240916459251
 20
125.1341489705277
 30
0.0
 11
106.3772108840882
 21
129.08934725103211
 31
0.0
  0
LINE
  5
1413
  8
0
 62
     0
 10
108.02532525365579
 20
125.3199125379047
 30
0.0
 11
104.2558905405285
 21
129.08934725103211
 31
0.0
  0
LINE
  5
1414
  8
0
 62
     0
 10
105.70662442285671
 20
125.517293025144
 30
0.0
 11
102.1345701969688
 21
129.08934725103211
 31
0.0
  0
LINE
  5
1415
  8
0
 62
     0
 10
103.51324985340931
 20
125.589347251032
 30
0.0
 11
100.01324985340921
 21
129.08934725103211
 31
0.0
  0
LINE
  5
1416
  8
0
 62
     0
 10
101.30415593011951
 20
125.67712083076211
 30
0.0
 11
99.977924490734011
 21
127.0033522701476
 31
0.0
  0
LINE
  5
1417
  8
0
 62
     0
 10
211.72189417383581
 20
124.7477600878905
 30
0.0
 11
214.89015091100379
 21
127.91601682505851
 31
0.0
  0
LINE
  5
1418
  8
0
 62
     0
 10
209.7015890847313
 20
124.8487753423456
 30
0.0
 11
214.89015091100379
 21
130.03733716861819
 31
0.0
  0
LINE
  5
1419
  8
0
 62
     0
 10
213.8901509110039
 20
131.15865751217771
 30
0.0
 11
214.89015091100379
 21
132.15865751217791
 31
0.0
  0
LINE
  5
141A
  8
0
 62
     0
 10
207.6812839956269
 20
124.9497905968008
 30
0.0
 11
211.8208406498581
 21
129.08934725103211
 31
0.0
  0
LINE
  5
141B
  8
0
 62
     0
 10
213.8901509110039
 20
133.27997785573729
 30
0.0
 11
214.89015091100379
 21
134.27997785573751
 31
0.0
  0
LINE
  5
141C
  8
0
 62
     0
 10
205.6609789065225
 20
125.050805851256
 30
0.0
 11
209.69952030629841
 21
129.089347251032
 31
0.0
  0
LINE
  5
141D
  8
0
 62
     0
 10
213.8901509110039
 20
135.401298199297
 30
0.0
 11
214.89015091100379
 21
136.401298199297
 31
0.0
  0
LINE
  5
141E
  8
0
 62
     0
 10
203.6406738174181
 20
125.15182110571131
 30
0.0
 11
207.57819996273881
 21
129.089347251032
 31
0.0
  0
LINE
  5
141F
  8
0
 62
     0
 10
201.62036872831371
 20
125.2528363601665
 30
0.0
 11
205.4568796191792
 21
129.08934725103211
 31
0.0
  0
LINE
  5
1420
  8
0
 62
     0
 10
199.6000636392092
 20
125.3538516146217
 30
0.0
 11
203.3355592756194
 21
129.089347251032
 31
0.0
  0
LINE
  5
1421
  8
0
 62
     0
 10
197.5797585501048
 20
125.4548668690768
 30
0.0
 11
201.2142389320598
 21
129.089347251032
 31
0.0
  0
LINE
  5
1422
  8
0
 62
     0
 10
195.52760720738581
 20
125.5240358699176
 30
0.0
 11
199.09291858850031
 21
129.089347251032
 31
0.0
  0
LINE
  5
1423
  8
0
 62
     0
 10
193.3319230619737
 20
125.449672068065
 30
0.0
 11
196.97159824494051
 21
129.089347251032
 31
0.0
  0
LINE
  5
1424
  8
0
 62
     0
 10
191.02055914422101
 20
125.2596284938721
 30
0.0
 11
194.85027790138091
 21
129.089347251032
 31
0.0
  0
LINE
  5
1425
  8
0
 62
     0
 10
188.7171278795808
 20
125.07751757279151
 30
0.0
 11
192.72895755782139
 21
129.089347251032
 31
0.0
  0
LINE
  5
1426
  8
0
 62
     0
 10
186.4250704056825
 20
124.906780442453
 30
0.0
 11
190.6076372142617
 21
129.08934725103211
 31
0.0
  0
LINE
  5
1427
  8
0
 62
     0
 10
184.1442086233609
 20
124.74723900369079
 30
0.0
 11
188.48631687070201
 21
129.089347251032
 31
0.0
  0
LINE
  5
1428
  8
0
 62
     0
 10
181.8743697019826
 20
124.5987204258722
 30
0.0
 11
186.36499652714241
 21
129.089347251032
 31
0.0
  0
LINE
  5
1429
  8
0
 62
     0
 10
179.61538586399431
 20
124.46105693144339
 30
0.0
 11
184.24367618358281
 21
129.089347251032
 31
0.0
  0
LINE
  5
142A
  8
0
 62
     0
 10
177.3670941807265
 20
124.3340855917355
 30
0.0
 11
182.122355840023
 21
129.089347251032
 31
0.0
  0
LINE
  5
142B
  8
0
 62
     0
 10
175.12933637874411
 20
124.21764813331259
 30
0.0
 11
180.0010354964634
 21
129.08934725103211
 31
0.0
  0
LINE
  5
142C
  8
0
 62
     0
 10
172.90195865608081
 20
124.111590754209
 30
0.0
 11
177.8797151529038
 21
129.089347251032
 31
0.0
  0
LINE
  5
142D
  8
0
 62
     0
 10
170.68481150775179
 20
124.0157639494397
 30
0.0
 11
175.75839480934411
 21
129.08934725103211
 31
0.0
  0
LINE
  5
142E
  8
0
 62
     0
 10
168.4777495599738
 20
123.9300223452213
 30
0.0
 11
173.63707446578459
 21
129.089347251032
 31
0.0
  0
LINE
  5
142F
  8
0
 62
     0
 10
166.2806314125659
 20
123.854224541373
 30
0.0
 11
171.51575412222491
 21
129.089347251032
 31
0.0
  0
LINE
  5
1430
  8
0
 62
     0
 10
164.09331948904691
 20
123.7882329614135
 30
0.0
 11
169.39443377866519
 21
129.08934725103211
 31
0.0
  0
LINE
  5
1431
  8
0
 62
     0
 10
161.91567989396731
 20
123.7319137098939
 30
0.0
 11
167.2731134351055
 21
129.089347251032
 31
0.0
  0
LINE
  5
1432
  8
0
 62
     0
 10
159.7475822770605
 20
123.6851364365467
 30
0.0
 11
165.15179309154601
 21
129.08934725103211
 31
0.0
  0
LINE
  5
1433
  8
0
 62
     0
 10
157.5888997038108
 20
123.6477742068565
 30
0.0
 11
163.03047274798621
 21
129.089347251032
 31
0.0
  0
LINE
  5
1434
  8
0
 62
     0
 10
155.43950853207679
 20
123.6197033786821
 30
0.0
 11
160.90915240442661
 21
129.089347251032
 31
0.0
  0
LINE
  5
1435
  8
0
 62
     0
 10
153.2992882944248
 20
123.6008034845898
 30
0.0
 11
158.787832060867
 21
129.08934725103211
 31
0.0
  0
LINE
  5
1436
  8
0
 62
     0
 10
151.168121585851
 20
123.59095711957551
 30
0.0
 11
156.6665117173074
 21
129.089347251032
 31
0.0
  0
LINE
  5
1437
  8
0
 62
     0
 10
149.04589395659511
 20
123.59004983387941
 30
0.0
 11
154.5451913737478
 21
129.089347251032
 31
0.0
  0
LINE
  5
1438
  8
0
 62
     0
 10
146.93249380976511
 20
123.59797003060891
 30
0.0
 11
152.42387103018811
 21
129.089347251032
 31
0.0
  0
LINE
  5
1439
  8
0
 62
     0
 10
144.8278123035098
 20
123.6146088679134
 30
0.0
 11
150.30255068662831
 21
129.089347251032
 31
0.0
  0
LINE
  5
143A
  8
0
 62
     0
 10
142.73174325749781
 20
123.6398601654611
 30
0.0
 11
148.18123034306879
 21
129.089347251032
 31
0.0
  0
LINE
  5
143B
  8
0
 62
     0
 10
140.6441830634688
 20
123.6736203149916
 30
0.0
 11
146.0599099995091
 21
129.089347251032
 31
0.0
  0
LINE
  5
143C
  8
0
 62
     0
 10
138.56503059964501
 20
123.7157881947273
 30
0.0
 11
143.93858965594939
 21
129.089347251032
 31
0.0
  0
LINE
  5
143D
  8
0
 62
     0
 10
136.4941871488011
 20
123.7662650874431
 30
0.0
 11
141.81726931238981
 21
129.089347251032
 31
0.0
  0
LINE
  5
143E
  8
0
 62
     0
 10
134.43155631980011
 20
123.82495460200199
 30
0.0
 11
139.69594896883021
 21
129.089347251032
 31
0.0
  0
LINE
  5
143F
  8
0
 62
     0
 10
132.37704397242121
 20
123.89176259818259
 30
0.0
 11
137.57462862527061
 21
129.089347251032
 31
0.0
  0
LINE
  5
1440
  8
0
 62
     0
 10
130.3305581453082
 20
123.9665971146292
 30
0.0
 11
135.4533082817108
 21
129.089347251032
 31
0.0
  0
LINE
  5
1441
  8
0
 62
     0
 10
128.29200898688441
 20
124.04936829976511
 30
0.0
 11
133.3319879381512
 21
129.089347251032
 31
0.0
  0
LINE
  5
1442
  8
0
 62
     0
 10
126.2613086890848
 20
124.1399883455252
 30
0.0
 11
131.21066759459171
 21
129.089347251032
 31
0.0
  0
LINE
  5
1443
  8
0
 62
     0
 10
124.2383714237661
 20
124.2383714237661
 30
0.0
 11
129.089347251032
 21
129.089347251032
 31
0.0
  0
LINE
  5
1444
  8
0
 62
     0
 10
122.22311328166251
 20
124.34443362522219
 30
0.0
 11
126.96802690747241
 21
129.089347251032
 31
0.0
  0
LINE
  5
1445
  8
0
 62
     0
 10
120.2154522137657
 20
124.45809290088511
 30
0.0
 11
124.8467065639127
 21
129.089347251032
 31
0.0
  0
LINE
  5
1446
  8
0
 62
     0
 10
118.2153079750108
 20
124.5792690056896
 30
0.0
 11
122.725386220353
 21
129.089347251032
 31
0.0
  0
LINE
  5
1447
  8
0
 62
     0
 10
116.2226020701563
 20
124.70788344439499
 30
0.0
 11
120.6040658767933
 21
129.089347251032
 31
0.0
  0
LINE
  5
1448
  8
0
 62
     0
 10
114.2372577017607
 20
124.843859419559
 30
0.0
 11
118.4827455332337
 21
129.089347251032
 31
0.0
  0
LINE
  5
1449
  8
0
 62
     0
 10
112.2591997201487
 20
124.9871217815067
 30
0.0
 11
116.36142518967419
 21
129.089347251032
 31
0.0
  0
LINE
  5
144A
  8
0
 62
     0
 10
110.2883545752814
 20
125.13759698019889
 30
0.0
 11
114.24010484611451
 21
129.089347251032
 31
0.0
  0
LINE
  5
144B
  8
0
 62
     0
 10
108.32465027043941
 20
125.2952130189165
 30
0.0
 11
112.1187845025549
 21
129.089347251032
 31
0.0
  0
LINE
  5
144C
  8
0
 62
     0
 10
106.3680163176363
 20
125.4598994096731
 30
0.0
 11
109.9974641589952
 21
129.089347251032
 31
0.0
  0
LINE
  5
144D
  8
0
 62
     0
 10
104.3761438154356
 20
125.589347251032
 30
0.0
 11
107.8761438154355
 21
129.089347251032
 31
0.0
  0
LINE
  5
144E
  8
0
 62
     0
 10
102.25482347187589
 20
125.589347251032
 30
0.0
 11
105.7548234718758
 21
129.089347251032
 31
0.0
  0
LINE
  5
144F
  8
0
 62
     0
 10
100.602857564852
 20
126.05870168756761
 30
0.0
 11
103.63350312831631
 21
129.089347251032
 31
0.0
  0
LINE
  5
1450
  8
0
 62
     0
 10
99.893665581119919
 20
127.4708300473952
 30
0.0
 11
101.5121827847565
 21
129.089347251032
 31
0.0
  0
ENDBLK
  5
1451
  8
0
  0
BLOCK
  8
0
  2
*X4
 70
     1
 10
0.0
 20
0.0
 30
0.0
  3
*X4
  1

  0
LINE
  5
1454
  8
0
 62
     0
 10
214.89015091100379
 20
90.579978561584554
 30
0.0
 11
214.57478062781391
 21
90.895348844774404
 31
0.0
  0
LINE
  5
1455
  8
0
 62
     0
 10
214.89015091100379
 20
88.458658218024894
 30
0.0
 11
213.8901509110039
 21
89.458658218024965
 31
0.0
  0
LINE
  5
1456
  8
0
 62
     0
 10
214.89015091100379
 20
86.337337874465277
 30
0.0
 11
213.8901509110039
 21
87.337337874465334
 31
0.0
  0
LINE
  5
1457
  8
0
 62
     0
 10
214.89015091100379
 20
84.216017530905589
 30
0.0
 11
213.8901509110039
 21
85.216017530905617
 31
0.0
  0
LINE
  5
1458
  8
0
 62
     0
 10
214.89015091100379
 20
82.094697187345929
 30
0.0
 11
213.8901509110039
 21
83.094697187345986
 31
0.0
  0
LINE
  5
1459
  8
0
 62
     0
 10
214.7053513839939
 20
80.15817637079644
 30
0.0
 11
211.96817891001581
 21
82.895348844774432
 31
0.0
  0
LINE
  5
145A
  8
0
 62
     0
 10
213.61023304001071
 20
79.131974371219783
 30
0.0
 11
209.84685856645609
 21
82.895348844774432
 31
0.0
  0
LINE
  5
145B
  8
0
 62
     0
 10
211.5589796603646
 20
79.061907407306421
 30
0.0
 11
207.7255382228964
 21
82.895348844774432
 31
0.0
  0
LINE
  5
145C
  8
0
 62
     0
 10
209.32601087767031
 20
79.173555846441147
 30
0.0
 11
205.6042178793368
 21
82.895348844774432
 31
0.0
  0
LINE
  5
145D
  8
0
 62
     0
 10
207.0930420949758
 20
79.285204285575844
 30
0.0
 11
203.48289753577711
 21
82.895348844774432
 31
0.0
  0
LINE
  5
145E
  8
0
 62
     0
 10
204.8600733122814
 20
79.396852724710556
 30
0.0
 11
201.3615771922176
 21
82.895348844774432
 31
0.0
  0
LINE
  5
145F
  8
0
 62
     0
 10
202.627104529587
 20
79.508501163845267
 30
0.0
 11
199.24025684865791
 21
82.895348844774432
 31
0.0
  0
LINE
  5
1460
  8
0
 62
     0
 10
200.3941357468928
 20
79.620149602979978
 30
0.0
 11
197.1189365050983
 21
82.895348844774432
 31
0.0
  0
LINE
  5
1461
  8
0
 62
     0
 10
198.1611669641984
 20
79.731798042114718
 30
0.0
 11
194.9976161615387
 21
82.895348844774432
 31
0.0
  0
LINE
  5
1462
  8
0
 62
     0
 10
195.94567804593439
 20
79.825966616819102
 30
0.0
 11
192.87629581797901
 21
82.895348844774432
 31
0.0
  0
LINE
  5
1463
  8
0
 62
     0
 10
193.8619447860483
 20
79.78837953314553
 30
0.0
 11
190.75497547441941
 21
82.895348844774432
 31
0.0
  0
LINE
  5
1464
  8
0
 62
     0
 10
191.8917446993992
 20
79.637259276235071
 30
0.0
 11
188.63365513085981
 21
82.895348844774432
 31
0.0
  0
LINE
  5
1465
  8
0
 62
     0
 10
189.92962007393089
 20
79.47806355814366
 30
0.0
 11
186.51233478730009
 21
82.895348844774432
 31
0.0
  0
LINE
  5
1466
  8
0
 62
     0
 10
187.96037042579039
 20
79.325992862724462
 30
0.0
 11
184.3910144437404
 21
82.895348844774432
 31
0.0
  0
LINE
  5
1467
  8
0
 62
     0
 10
185.98392409785191
 20
79.181118847103335
 30
0.0
 11
182.2696941001808
 21
82.895348844774432
 31
0.0
  0
LINE
  5
1468
  8
0
 62
     0
 10
184.00020788974021
 20
79.043514711655305
 30
0.0
 11
180.14837375662111
 21
82.895348844774432
 31
0.0
  0
LINE
  5
1469
  8
0
 62
     0
 10
182.00914701190669
 20
78.913255245929207
 30
0.0
 11
178.02705341306151
 21
82.895348844774432
 31
0.0
  0
LINE
  5
146A
  8
0
 62
     0
 10
180.0106650379094
 20
78.790416876366791
 30
0.0
 11
175.90573306950191
 21
82.895348844774432
 31
0.0
  0
LINE
  5
146B
  8
0
 62
     0
 10
178.00468385481241
 20
78.675077715904209
 30
0.0
 11
173.7844127259423
 21
82.895348844774432
 31
0.0
  0
LINE
  5
146C
  8
0
 62
     0
 10
175.9911236116119
 20
78.567317615545193
 30
0.0
 11
171.66309238238259
 21
82.895348844774432
 31
0.0
  0
LINE
  5
146D
  8
0
 62
     0
 10
173.969902665592
 20
78.467218218005343
 30
0.0
 11
169.5417720388229
 21
82.895348844774432
 31
0.0
  0
LINE
  5
146E
  8
0
 62
     0
 10
171.94093752650949
 20
78.374863013528255
 30
0.0
 11
167.42045169526321
 21
82.895348844774432
 31
0.0
  0
LINE
  5
146F
  8
0
 62
     0
 10
169.9041427984952
 20
78.290337397982782
 30
0.0
 11
165.29913135170361
 21
82.895348844774432
 31
0.0
  0
LINE
  5
1470
  8
0
 62
     0
 10
167.85943111956121
 20
78.213728733357215
 30
0.0
 11
163.17781100814409
 21
82.895348844774432
 31
0.0
  0
LINE
  5
1471
  8
0
 62
     0
 10
165.80671309858741
 20
78.14512641077134
 30
0.0
 11
161.0564906645844
 21
82.895348844774432
 31
0.0
  0
LINE
  5
1472
  8
0
 62
     0
 10
163.74589724966251
 20
78.084621916136641
 30
0.0
 11
158.9351703210248
 21
82.895348844774432
 31
0.0
  0
LINE
  5
1473
  8
0
 62
     0
 10
161.67688992363719
 20
78.032308898602338
 30
0.0
 11
156.81384997746511
 21
82.895348844774432
 31
0.0
  0
LINE
  5
1474
  8
0
 62
     0
 10
159.59959523674721
 20
77.988283241932663
 30
0.0
 11
154.69252963390551
 21
82.895348844774432
 31
0.0
  0
LINE
  5
1475
  8
0
 62
     0
 10
157.51391499614931
 20
77.952643138970814
 30
0.0
 11
152.57120929034591
 21
82.895348844774432
 31
0.0
  0
LINE
  5
1476
  8
0
 62
     0
 10
155.4197486222055
 20
77.925489169355004
 30
0.0
 11
150.4498889467861
 21
82.895348844774432
 31
0.0
  0
LINE
  5
1477
  8
0
 62
     0
 10
153.3169930673393
 20
77.906924380661664
 30
0.0
 11
148.3285686032265
 21
82.895348844774432
 31
0.0
  0
LINE
  5
1478
  8
0
 62
     0
 10
151.20554273127871
 20
77.89705437316259
 30
0.0
 11
146.2072482596669
 21
82.895348844774432
 31
0.0
  0
LINE
  5
1479
  8
0
 62
     0
 10
149.0852893724857
 20
77.895987388395966
 30
0.0
 11
144.08592791610721
 21
82.895348844774432
 31
0.0
  0
LINE
  5
147A
  8
0
 62
     0
 10
146.95612201555991
 20
77.903834401762197
 30
0.0
 11
141.96460757254749
 21
82.895348844774432
 31
0.0
  0
LINE
  5
147B
  8
0
 62
     0
 10
144.81792685439041
 20
77.920709219372
 30
0.0
 11
139.843287228988
 21
82.895348844774432
 31
0.0
  0
LINE
  5
147C
  8
0
 62
     0
 10
142.67058715081561
 20
77.946728579387212
 30
0.0
 11
137.7219668854282
 21
82.895348844774432
 31
0.0
  0
LINE
  5
147D
  8
0
 62
     0
 10
140.51398312852959
 20
77.982012258113457
 30
0.0
 11
135.60064654186871
 21
82.895348844774432
 31
0.0
  0
LINE
  5
147E
  8
0
 62
     0
 10
138.3479918619646
 20
78.026683181118784
 30
0.0
 11
133.479326198309
 21
82.895348844774446
 31
0.0
  0
LINE
  5
147F
  8
0
 62
     0
 10
136.1724871598494
 20
78.080867539674401
 30
0.0
 11
131.35800585474939
 21
82.895348844774432
 31
0.0
  0
LINE
  5
1480
  8
0
 62
     0
 10
133.98733944313221
 20
78.144694912832051
 30
0.0
 11
129.23668551118971
 21
82.895348844774432
 31
0.0
  0
LINE
  5
1481
  8
0
 62
     0
 10
131.79241561692851
 20
78.218298395476097
 30
0.0
 11
127.1153651676301
 21
82.895348844774446
 31
0.0
  0
LINE
  5
1482
  8
0
 62
     0
 10
129.58757893613259
 20
78.30181473271233
 30
0.0
 11
124.9940448240704
 21
82.895348844774432
 31
0.0
  0
LINE
  5
1483
  8
0
 62
     0
 10
127.3726888643037
 20
78.395384460981603
 30
0.0
 11
122.8727244805107
 21
82.895348844774446
 31
0.0
  0
LINE
  5
1484
  8
0
 62
     0
 10
125.1476009254105
 20
78.499152056315054
 30
0.0
 11
120.75140413695119
 21
82.895348844774446
 31
0.0
  0
LINE
  5
1485
  8
0
 62
     0
 10
122.9121665479874
 20
78.613266090178598
 30
0.0
 11
118.63008379339151
 21
82.895348844774446
 31
0.0
  0
LINE
  5
1486
  8
0
 62
     0
 10
120.66623290121871
 20
78.737879393387644
 30
0.0
 11
116.5087634498318
 21
82.895348844774446
 31
0.0
  0
LINE
  5
1487
  8
0
 62
     0
 10
118.4096427224367
 20
78.873149228609975
 30
0.0
 11
114.3874431062722
 21
82.895348844774446
 31
0.0
  0
LINE
  5
1488
  8
0
 62
     0
 10
116.1422341354729
 20
79.019237472014183
 30
0.0
 11
112.2661227627125
 21
82.895348844774503
 31
0.0
  0
LINE
  5
1489
  8
0
 62
     0
 10
113.8638404592634
 20
79.176310804663984
 30
0.0
 11
110.1448024191529
 21
82.895348844774503
 31
0.0
  0
LINE
  5
148A
  8
0
 62
     0
 10
111.57429000606
 20
79.344540914307643
 30
0.0
 11
108.02348207559319
 21
82.895348844774503
 31
0.0
  0
LINE
  5
148B
  8
0
 62
     0
 10
109.2734058685474
 20
79.524104708260737
 30
0.0
 11
105.90216173203351
 21
82.895348844774503
 31
0.0
  0
LINE
  5
148C
  8
0
 62
     0
 10
106.96100569510961
 20
79.715184538138899
 30
0.0
 11
103.780841388474
 21
82.895348844774503
 31
0.0
  0
LINE
  5
148D
  8
0
 62
     0
 10
104.6618096039636
 20
79.893060285725156
 30
0.0
 11
101.6595210449144
 21
82.895348844774503
 31
0.0
  0
LINE
  5
148E
  8
0
 62
     0
 10
102.5382007013547
 20
79.895348844774432
 30
0.0
 11
99.890150911003957
 21
82.5433986351253
 31
0.0
  0
LINE
  5
148F
  8
0
 62
     0
 10
212.65051241388761
 20
79.007330769630229
 30
0.0
 11
214.89015091100379
 21
81.246969266746433
 31
0.0
  0
LINE
  5
1490
  8
0
 62
     0
 10
210.6302073247833
 20
79.108346024085478
 30
0.0
 11
214.89015091100379
 21
83.368289610306107
 31
0.0
  0
LINE
  5
1491
  8
0
 62
     0
 10
213.8901509110039
 20
84.489609953865696
 30
0.0
 11
214.89015091100379
 21
85.489609953865738
 31
0.0
  0
LINE
  5
1492
  8
0
 62
     0
 10
208.6099022356789
 20
79.209361278540712
 30
0.0
 11
212.29588980191249
 21
82.895348844774432
 31
0.0
  0
LINE
  5
1493
  8
0
 62
     0
 10
213.8901509110039
 20
86.610930297425341
 30
0.0
 11
214.89015091100379
 21
87.610930297425384
 31
0.0
  0
LINE
  5
1494
  8
0
 62
     0
 10
206.58959714657439
 20
79.310376532995917
 30
0.0
 11
210.17456945835289
 21
82.895348844774432
 31
0.0
  0
LINE
  5
1495
  8
0
 62
     0
 10
213.8901509110037
 20
88.732250640984958
 30
0.0
 11
214.89015091100379
 21
89.732250640984986
 31
0.0
  0
LINE
  5
1496
  8
0
 62
     0
 10
204.56929205746999
 20
79.411391787451137
 30
0.0
 11
208.0532491147932
 21
82.895348844774432
 31
0.0
  0
LINE
  5
1497
  8
0
 62
     0
 10
213.8901509110037
 20
90.853570984544575
 30
0.0
 11
213.93192877123369
 21
90.895348844774404
 31
0.0
  0
LINE
  5
1498
  8
0
 62
     0
 10
202.5489869683656
 20
79.512407041906343
 30
0.0
 11
205.9319287712336
 21
82.895348844774432
 31
0.0
  0
LINE
  5
1499
  8
0
 62
     0
 10
200.52868187926109
 20
79.613422296361577
 30
0.0
 11
203.810608427674
 21
82.895348844774432
 31
0.0
  0
LINE
  5
149A
  8
0
 62
     0
 10
198.5083767901566
 20
79.714437550816783
 30
0.0
 11
201.68928808411439
 21
82.895348844774432
 31
0.0
  0
LINE
  5
149B
  8
0
 62
     0
 10
196.4847328120328
 20
79.812113916252486
 30
0.0
 11
199.56796774055471
 21
82.895348844774432
 31
0.0
  0
LINE
  5
149C
  8
0
 62
     0
 10
194.36190957039949
 20
79.810611018178903
 30
0.0
 11
197.44664739699499
 21
82.895348844774432
 31
0.0
  0
LINE
  5
149D
  8
0
 62
     0
 10
192.08317993135859
 20
79.653201722697617
 30
0.0
 11
195.3253270534355
 21
82.895348844774432
 31
0.0
  0
LINE
  5
149E
  8
0
 62
     0
 10
189.7744595407984
 20
79.46580167569708
 30
0.0
 11
193.2040067098757
 21
82.895348844774432
 31
0.0
  0
LINE
  5
149F
  8
0
 62
     0
 10
187.47719663240281
 20
79.289859110861059
 30
0.0
 11
191.0826863663161
 21
82.895348844774432
 31
0.0
  0
LINE
  5
14A0
  8
0
 62
     0
 10
185.19121060981141
 20
79.125193431829345
 30
0.0
 11
188.96136602275641
 21
82.895348844774432
 31
0.0
  0
LINE
  5
14A1
  8
0
 62
     0
 10
182.91632624821361
 20
78.971629413791206
 30
0.0
 11
186.84004567919681
 21
82.895348844774432
 31
0.0
  0
LINE
  5
14A2
  8
0
 62
     0
 10
180.6523734734667
 20
78.828996982603812
 30
0.0
 11
184.7187253356372
 21
82.895348844774432
 31
0.0
  0
LINE
  5
14A3
  8
0
 62
     0
 10
178.3991871528174
 20
78.697131005514152
 30
0.0
 11
182.59740499207749
 21
82.895348844774432
 31
0.0
  0
LINE
  5
14A4
  8
0
 62
     0
 10
176.1566068964899
 20
78.575871092746453
 30
0.0
 11
180.476084648518
 21
82.895348844774432
 31
0.0
  0
LINE
  5
14A5
  8
0
 62
     0
 10
173.92447686945641
 20
78.46506140927265
 30
0.0
 11
178.35476430495831
 21
82.895348844774432
 31
0.0
  0
LINE
  5
14A6
  8
0
 62
     0
 10
171.70264561275781
 20
78.364550496133546
 30
0.0
 11
176.23344396139871
 21
82.895348844774432
 31
0.0
  0
LINE
  5
14A7
  8
0
 62
     0
 10
169.4909658737881
 20
78.274191100723499
 30
0.0
 11
174.11212361783899
 21
82.895348844774432
 31
0.0
  0
LINE
  5
14A8
  8
0
 62
     0
 10
167.28929444499971
 20
78.1938400154947
 30
0.0
 11
171.99080327427939
 21
82.895348844774432
 31
0.0
  0
LINE
  5
14A9
  8
0
 62
     0
 10
165.09749201052031
 20
78.123357924575018
 30
0.0
 11
169.86948293071981
 21
82.895348844774432
 31
0.0
  0
LINE
  5
14AA
  8
0
 62
     0
 10
162.9154230002147
 20
78.062609257829024
 30
0.0
 11
167.74816258716001
 21
82.895348844774432
 31
0.0
  0
LINE
  5
14AB
  8
0
 62
     0
 10
160.74295545075171
 20
78.011462051925704
 30
0.0
 11
165.62684224360041
 21
82.895348844774432
 31
0.0
  0
LINE
  5
14AC
  8
0
 62
     0
 10
158.5799608732701
 20
77.969787818003766
 30
0.0
 11
163.5055219000408
 21
82.895348844774432
 31
0.0
  0
LINE
  5
14AD
  8
0
 62
     0
 10
156.4263141272632
 20
77.937461415556427
 30
0.0
 11
161.3842015564812
 21
82.895348844774432
 31
0.0
  0
LINE
  5
14AE
  8
0
 62
     0
 10
154.28189330032791
 20
77.914360932180813
 30
0.0
 11
159.26288121292151
 21
82.895348844774432
 31
0.0
  0
LINE
  5
14AF
  8
0
 62
     0
 10
152.1465795934493
 20
77.900367568861853
 30
0.0
 11
157.14156086936191
 21
82.895348844774432
 31
0.0
  0
LINE
  5
14B0
  8
0
 62
     0
 10
150.0202572115092
 20
77.895365530481499
 30
0.0
 11
155.02024052580231
 21
82.895348844774432
 31
0.0
  0
LINE
  5
14B1
  8
0
 62
     0
 10
147.9028132587338
 20
77.899241921265599
 30
0.0
 11
152.89892018224259
 21
82.895348844774432
 31
0.0
  0
LINE
  5
14B2
  8
0
 62
     0
 10
145.79413763880601
 20
77.911886644897621
 30
0.0
 11
150.7775998386829
 21
82.895348844774432
 31
0.0
  0
LINE
  5
14B3
  8
0
 62
     0
 10
143.6941229593964
 20
77.933192309047456
 30
0.0
 11
148.6562794951233
 21
82.895348844774432
 31
0.0
  0
LINE
  5
14B4
  8
0
 62
     0
 10
141.60266444086781
 20
77.963054134078533
 30
0.0
 11
146.53495915156361
 21
82.895348844774432
 31
0.0
  0
LINE
  5
14B5
  8
0
 62
     0
 10
139.5196598289406
 20
78.001369865710942
 30
0.0
 11
144.41363880800409
 21
82.895348844774432
 31
0.0
  0
LINE
  5
14B6
  8
0
 62
     0
 10
137.445009311104
 20
78.048039691434141
 30
0.0
 11
142.29231846444441
 21
82.895348844774432
 31
0.0
  0
LINE
  5
14B7
  8
0
 62
     0
 10
135.37861543658241
 20
78.102966160472064
 30
0.0
 11
140.1709981208846
 21
82.895348844774432
 31
0.0
  0
LINE
  5
14B8
  8
0
 62
     0
 10
133.32038303967011
 20
78.166054107119479
 30
0.0
 11
138.049677777325
 21
82.895348844774432
 31
0.0
  0
LINE
  5
14B9
  8
0
 62
     0
 10
131.27021916626711
 20
78.237210577276031
 30
0.0
 11
135.9283574337654
 21
82.895348844774432
 31
0.0
  0
LINE
  5
14BA
  8
0
 62
     0
 10
129.2280330034485
 20
78.316344758017181
 30
0.0
 11
133.8070370902058
 21
82.895348844774404
 31
0.0
  0
LINE
  5
14BB
  8
0
 62
     0
 10
127.1937358119204
 20
78.40336791004863
 30
0.0
 11
131.68571674664611
 21
82.895348844774432
 31
0.0
  0
LINE
  5
14BC
  8
0
 62
     0
 10
125.1672408612144
 20
78.498193302902365
 30
0.0
 11
129.56439640308639
 21
82.895348844774432
 31
0.0
  0
LINE
  5
14BD
  8
0
 62
     0
 10
123.14846336749051
 20
78.600736152738151
 30
0.0
 11
127.4430760595268
 21
82.895348844774432
 31
0.0
  0
LINE
  5
14BE
  8
0
 62
     0
 10
121.13732043381719
 20
78.710913562624512
 30
0.0
 11
125.3217557159671
 21
82.895348844774375
 31
0.0
  0
LINE
  5
14BF
  8
0
 62
     0
 10
119.1337309928111
 20
78.828644465177931
 30
0.0
 11
123.2004353724075
 21
82.895348844774375
 31
0.0
  0
LINE
  5
14C0
  8
0
 62
     0
 10
117.1376157515222
 20
78.953849567448728
 30
0.0
 11
121.0791150288478
 21
82.895348844774404
 31
0.0
  0
LINE
  5
14C1
  8
0
 62
     0
 10
115.1488971384597
 20
79.086451297945814
 30
0.0
 11
118.95779468528831
 21
82.895348844774375
 31
0.0
  0
LINE
  5
14C2
  8
0
 62
     0
 10
113.1674992526543
 20
79.226373755700038
 30
0.0
 11
116.8364743417287
 21
82.895348844774375
 31
0.0
  0
LINE
  5
14C3
  8
0
 62
     0
 10
111.1933478146658
 20
79.373542661271173
 30
0.0
 11
114.715153998169
 21
82.895348844774375
 31
0.0
  0
LINE
  5
14C4
  8
0
 62
     0
 10
109.22637011944251
 20
79.527885309607569
 30
0.0
 11
112.5938336546093
 21
82.895348844774375
 31
0.0
  0
LINE
  5
14C5
  8
0
 62
     0
 10
107.26649499095021
 20
79.689330524674872
 30
0.0
 11
110.4725133110497
 21
82.895348844774404
 31
0.0
  0
LINE
  5
14C6
  8
0
 62
     0
 10
105.3136450087454
 20
79.857800886029793
 30
0.0
 11
108.35119296749011
 21
82.895348844774375
 31
0.0
  0
LINE
  5
14C7
  8
0
 62
     0
 10
103.2298726239304
 20
79.895348844774432
 30
0.0
 11
106.22987262393031
 21
82.895348844774375
 31
0.0
  0
LINE
  5
14C8
  8
0
 62
     0
 10
101.2230779080399
 20
80.009874472443499
 30
0.0
 11
104.1085522803707
 21
82.895348844774375
 31
0.0
  0
LINE
  5
14C9
  8
0
 62
     0
 10
100.0984734074972
 20
81.006590315460514
 30
0.0
 11
101.987231936811
 21
82.895348844774375
 31
0.0
  0
ENDBLK
  5
14CA
  8
0
  0
BLOCK
  8
0
  2
*X5
 70
     1
 10
0.0
 20
0.0
 30
0.0
  3
*X5
  1

  0
LINE
  5
14CD
  8
0
 62
     0
 10
211.8901509110039
 20
222.76888656818471
 30
0.0
 11
211.84261851125351
 21
222.81641896793491
 31
0.0
  0
LINE
  5
14CE
  8
0
 62
     0
 10
211.8901509110039
 20
220.64756622462511
 30
0.0
 11
210.8901509110037
 21
221.64756622462511
 31
0.0
  0
LINE
  5
14CF
  8
0
 62
     0
 10
211.8901509110039
 20
218.52624588106531
 30
0.0
 11
210.8901509110037
 21
219.52624588106551
 31
0.0
  0
LINE
  5
14D0
  8
0
 62
     0
 10
211.8901509110039
 20
216.4049255375057
 30
0.0
 11
210.89015091100379
 21
217.4049255375057
 31
0.0
  0
LINE
  5
14D1
  8
0
 62
     0
 10
211.83281025236531
 20
214.3409458525847
 30
0.0
 11
210.89015091100379
 21
215.28360519394599
 31
0.0
  0
LINE
  5
14D2
  8
0
 62
     0
 10
210.93895708006161
 20
213.11347868132879
 30
0.0
 11
210.23601679345529
 21
213.81641896793491
 31
0.0
  0
LINE
  5
14D3
  8
0
 62
     0
 10
209.11469644989569
 20
212.81641896793491
 30
0.0
 11
208.11469644989569
 21
213.81641896793491
 31
0.0
  0
LINE
  5
14D4
  8
0
 62
     0
 10
207.5417322164011
 20
212.26806285786981
 30
0.0
 11
205.99337610633609
 21
213.81641896793491
 31
0.0
  0
LINE
  5
14D5
  8
0
 62
     0
 10
205.5318002245709
 20
212.15667450614049
 30
0.0
 11
203.8720557627764
 21
213.81641896793491
 31
0.0
  0
LINE
  5
14D6
  8
0
 62
     0
 10
203.51763356703111
 20
212.04952082012059
 30
0.0
 11
201.7507354192168
 21
213.81641896793491
 31
0.0
  0
LINE
  5
14D7
  8
0
 62
     0
 10
201.49920687551511
 20
211.94662716807699
 30
0.0
 11
199.62941507565711
 21
213.81641896793491
 31
0.0
  0
LINE
  5
14D8
  8
0
 62
     0
 10
199.47649446401451
 20
211.84801923601799
 30
0.0
 11
197.5080947320975
 21
213.81641896793491
 31
0.0
  0
LINE
  5
14D9
  8
0
 62
     0
 10
197.4494703232732
 20
211.75372303319969
 30
0.0
 11
195.3867743885379
 21
213.81641896793491
 31
0.0
  0
LINE
  5
14DA
  8
0
 62
     0
 10
195.4181081151537
 20
211.66376489775951
 30
0.0
 11
193.2654540449783
 21
213.81641896793491
 31
0.0
  0
LINE
  5
14DB
  8
0
 62
     0
 10
193.38238116687759
 20
211.5781715024759
 30
0.0
 11
191.14413370141861
 21
213.81641896793491
 31
0.0
  0
LINE
  5
14DC
  8
0
 62
     0
 10
191.3422624651333
 20
211.4969698606607
 30
0.0
 11
189.02281335785901
 21
213.81641896793491
 31
0.0
  0
LINE
  5
14DD
  8
0
 62
     0
 10
189.29772465004851
 20
211.42018733218561
 30
0.0
 11
186.90149301429921
 21
213.81641896793491
 31
0.0
  0
LINE
  5
14DE
  8
0
 62
     0
 10
187.24874000902349
 20
211.3478516296511
 30
0.0
 11
184.7801726707396
 21
213.81641896793491
 31
0.0
  0
LINE
  5
14DF
  8
0
 62
     0
 10
185.1952804704209
 20
211.2799908246941
 30
0.0
 11
182.65885232718
 21
213.81641896793491
 31
0.0
  0
LINE
  5
14E0
  8
0
 62
     0
 10
183.13731759710751
 20
211.21663335444771
 30
0.0
 11
180.5375319836204
 21
213.81641896793491
 31
0.0
  0
LINE
  5
14E1
  8
0
 62
     0
 10
181.07482257984691
 20
211.15780802814871
 30
0.0
 11
178.41621164006079
 21
213.81641896793491
 31
0.0
  0
LINE
  5
14E2
  8
0
 62
     0
 10
179.00776623053281
 20
211.1035440339032
 30
0.0
 11
176.29489129650111
 21
213.81641896793491
 31
0.0
  0
LINE
  5
14E3
  8
0
 62
     0
 10
176.93611897526421
 20
211.05387094561209
 30
0.0
 11
174.1735709529415
 21
213.81641896793491
 31
0.0
  0
LINE
  5
14E4
  8
0
 62
     0
 10
174.85985084725451
 20
211.00881873006239
 30
0.0
 11
172.05225060938179
 21
213.81641896793491
 31
0.0
  0
LINE
  5
14E5
  8
0
 62
     0
 10
172.7789314795707
 20
210.9684177541865
 30
0.0
 11
169.9309302658221
 21
213.81641896793491
 31
0.0
  0
LINE
  5
14E6
  8
0
 62
     0
 10
170.69333009769761
 20
210.93269879249991
 30
0.0
 11
167.80960992226241
 21
213.81641896793491
 31
0.0
  0
LINE
  5
14E7
  8
0
 62
     0
 10
168.603015511922
 20
210.90169303471581
 30
0.0
 11
165.68828957870281
 21
213.81641896793491
 31
0.0
  0
LINE
  5
14E8
  8
0
 62
     0
 10
166.50795610953051
 20
210.8754320935476
 30
0.0
 11
163.56696923514309
 21
213.81641896793491
 31
0.0
  0
LINE
  5
14E9
  8
0
 62
     0
 10
164.40811984681679
 20
210.85394801270181
 30
0.0
 11
161.4456488915836
 21
213.81641896793491
 31
0.0
  0
LINE
  5
14EA
  8
0
 62
     0
 10
162.3034742408916
 20
210.8372732750673
 30
0.0
 11
159.324328548024
 21
213.81641896793491
 31
0.0
  0
LINE
  5
14EB
  8
0
 62
     0
 10
160.1939863612902
 20
210.82544081110899
 30
0.0
 11
157.20300820446431
 21
213.81641896793491
 31
0.0
  0
LINE
  5
14EC
  8
0
 62
     0
 10
158.07962282137001
 20
210.81848400746961
 30
0.0
 11
155.08168786090471
 21
213.81641896793491
 31
0.0
  0
LINE
  5
14ED
  8
0
 62
     0
 10
155.9603497694936
 20
210.81643671578641
 30
0.0
 11
152.96036751734499
 21
213.81641896793491
 31
0.0
  0
LINE
  5
14EE
  8
0
 62
     0
 10
153.8361328799881
 20
210.81933326173211
 30
0.0
 11
150.83904717378539
 21
213.81641896793491
 31
0.0
  0
LINE
  5
14EF
  8
0
 62
     0
 10
151.70693734387771
 20
210.8272084542829
 30
0.0
 11
148.7177268302257
 21
213.81641896793491
 31
0.0
  0
LINE
  5
14F0
  8
0
 62
     0
 10
149.57272785937701
 20
210.84009759522399
 30
0.0
 11
146.59640648666601
 21
213.81641896793491
 31
0.0
  0
LINE
  5
14F1
  8
0
 62
     0
 10
147.43346862214341
 20
210.85803648889799
 30
0.0
 11
144.47508614310641
 21
213.81641896793491
 31
0.0
  0
LINE
  5
14F2
  8
0
 62
     0
 10
145.2891233152771
 20
210.8810614522047
 30
0.0
 11
142.35376579954681
 21
213.81641896793491
 31
0.0
  0
LINE
  5
14F3
  8
0
 62
     0
 10
143.13965509906049
 20
210.90920932486159
 30
0.0
 11
140.2324454559872
 21
213.81641896793491
 31
0.0
  0
LINE
  5
14F4
  8
0
 62
     0
 10
140.98502660043241
 20
210.9425174799301
 30
0.0
 11
138.1111251124274
 21
213.81641896793491
 31
0.0
  0
LINE
  5
14F5
  8
0
 62
     0
 10
138.82519990218441
 20
210.98102383461841
 30
0.0
 11
135.98980476886791
 21
213.81641896793491
 31
0.0
  0
LINE
  5
14F6
  8
0
 62
     0
 10
136.6601365318721
 20
211.02476686137101
 30
0.0
 11
133.8684844253082
 21
213.81641896793491
 31
0.0
  0
LINE
  5
14F7
  8
0
 62
     0
 10
134.489797450433
 20
211.07378559925061
 30
0.0
 11
131.74716408174859
 21
213.81641896793511
 31
0.0
  0
LINE
  5
14F8
  8
0
 62
     0
 10
132.3141430404994
 20
211.1281196656245
 30
0.0
 11
129.62584373818891
 21
213.81641896793491
 31
0.0
  0
LINE
  5
14F9
  8
0
 62
     0
 10
130.13313309439721
 20
211.187809268167
 30
0.0
 11
127.5045233946292
 21
213.81641896793491
 31
0.0
  0
LINE
  5
14FA
  8
0
 62
     0
 10
127.9467268018211
 20
211.25289521718361
 30
0.0
 11
125.3832030510696
 21
213.81641896793511
 31
0.0
  0
LINE
  5
14FB
  8
0
 62
     0
 10
125.754882737174
 20
211.32341893827089
 30
0.0
 11
123.26188270751
 21
213.81641896793491
 31
0.0
  0
LINE
  5
14FC
  8
0
 62
     0
 10
123.5575588465602
 20
211.39942248532509
 30
0.0
 11
121.14056236395039
 21
213.81641896793491
 31
0.0
  0
LINE
  5
14FD
  8
0
 62
     0
 10
121.3547124344197
 20
211.4809485539061
 30
0.0
 11
119.01924202039071
 21
213.81641896793491
 31
0.0
  0
LINE
  5
14FE
  8
0
 62
     0
 10
119.1463001497934
 20
211.56804049497271
 30
0.0
 11
116.897921676831
 21
213.81641896793511
 31
0.0
  0
LINE
  5
14FF
  8
0
 62
     0
 10
116.9322779722047
 20
211.66074232900181
 30
0.0
 11
114.7766013332714
 21
213.81641896793511
 31
0.0
  0
LINE
  5
1500
  8
0
 62
     0
 10
114.71260119714471
 20
211.75909876050221
 30
0.0
 11
112.6552809897118
 21
213.81641896793491
 31
0.0
  0
LINE
  5
1501
  8
0
 62
     0
 10
112.4872244211484
 20
211.86315519293879
 30
0.0
 11
110.5339606461521
 21
213.81641896793511
 31
0.0
  0
LINE
  5
1502
  8
0
 62
     0
 10
110.2561015264466
 20
211.9729577440809
 30
0.0
 11
108.41264030259249
 21
213.81641896793511
 31
0.0
  0
LINE
  5
1503
  8
0
 62
     0
 10
108.0191856651782
 20
212.08855326178951
 30
0.0
 11
106.2913199590329
 21
213.81641896793491
 31
0.0
  0
LINE
  5
1504
  8
0
 62
     0
 10
105.77642924314939
 20
212.2099893402588
 30
0.0
 11
104.1699996154731
 21
213.81641896793511
 31
0.0
  0
LINE
  5
1505
  8
0
 62
     0
 10
103.7992905503054
 20
212.06580768954311
 30
0.0
 11
102.0486792719135
 21
213.81641896793511
 31
0.0
  0
LINE
  5
1506
  8
0
 62
     0
 10
102.74423905982439
 20
210.99953883646441
 30
0.0
 11
99.927358928353954
 21
213.81641896793511
 31
0.0
  0
LINE
  5
1507
  8
0
 62
     0
 10
208.78541123135381
 20
212.81641896793511
 30
0.0
 11
209.78541123135369
 21
213.81641896793491
 31
0.0
  0
LINE
  5
1508
  8
0
 62
     0
 10
210.8901509110037
 20
214.92115864758509
 30
0.0
 11
211.8901509110039
 21
215.92115864758509
 31
0.0
  0
LINE
  5
1509
  8
0
 62
     0
 10
208.27903279329391
 20
212.31004052987501
 30
0.0
 11
208.3901509110039
 21
212.42115864758509
 31
0.0
  0
LINE
  5
150A
  8
0
 62
     0
 10
210.89015091100379
 20
217.04247899114461
 30
0.0
 11
211.8901509110039
 21
218.04247899114461
 31
0.0
  0
LINE
  5
150B
  8
0
 62
     0
 10
206.0316302182818
 20
212.18395829842279
 30
0.0
 11
207.6640908877942
 21
213.81641896793491
 31
0.0
  0
LINE
  5
150C
  8
0
 62
     0
 10
210.89015091100379
 20
219.16379933470441
 30
0.0
 11
211.8901509110039
 21
220.16379933470441
 31
0.0
  0
LINE
  5
150D
  8
0
 62
     0
 10
203.79010632529989
 20
212.06375474900051
 30
0.0
 11
205.5427705442344
 21
213.81641896793491
 31
0.0
  0
LINE
  5
150E
  8
0
 62
     0
 10
210.8901509110037
 20
221.28511967826401
 30
0.0
 11
211.8901509110039
 21
222.28511967826401
 31
0.0
  0
LINE
  5
150F
  8
0
 62
     0
 10
201.5544129190248
 20
211.94938168628499
 30
0.0
 11
203.4214502006748
 21
213.81641896793491
 31
0.0
  0
LINE
  5
1510
  8
0
 62
     0
 10
199.3245025636223
 20
211.8407916744421
 30
0.0
 11
201.30012985711511
 21
213.81641896793491
 31
0.0
  0
LINE
  5
1511
  8
0
 62
     0
 10
197.10032856613711
 20
211.73793802051651
 30
0.0
 11
199.17880951355551
 21
213.81641896793491
 31
0.0
  0
LINE
  5
1512
  8
0
 62
     0
 10
194.8818449603468
 20
211.6407747582858
 30
0.0
 11
197.0574891699959
 21
213.81641896793491
 31
0.0
  0
LINE
  5
1513
  8
0
 62
     0
 10
192.6690064910695
 20
211.5492566325681
 30
0.0
 11
194.93616882643619
 21
213.81641896793491
 31
0.0
  0
LINE
  5
1514
  8
0
 62
     0
 10
190.46176859890531
 20
211.46333908396369
 30
0.0
 11
192.8148484828767
 21
213.81641896793491
 31
0.0
  0
LINE
  5
1515
  8
0
 62
     0
 10
188.2600874053999
 20
211.38297823401791
 30
0.0
 11
190.69352813931701
 21
213.81641896793491
 31
0.0
  0
LINE
  5
1516
  8
0
 62
     0
 10
186.06391969861431
 20
211.30813087079201
 30
0.0
 11
188.57220779575741
 21
213.81641896793491
 31
0.0
  0
LINE
  5
1517
  8
0
 62
     0
 10
183.87322291908831
 20
211.23875443482549
 30
0.0
 11
186.45088745219761
 21
213.81641896793491
 31
0.0
  0
LINE
  5
1518
  8
0
 62
     0
 10
181.68795514618381
 20
211.1748070054808
 30
0.0
 11
184.329567108638
 21
213.81641896793491
 31
0.0
  0
LINE
  5
1519
  8
0
 62
     0
 10
179.50807508479659
 20
211.1162472876531
 30
0.0
 11
182.2082467650784
 21
213.81641896793491
 31
0.0
  0
LINE
  5
151A
  8
0
 62
     0
 10
177.3335420524225
 20
211.0630345988389
 30
0.0
 11
180.0869264215188
 21
213.81641896793491
 31
0.0
  0
LINE
  5
151B
  8
0
 62
     0
 10
175.16431596656881
 20
211.01512885654481
 30
0.0
 11
177.96560607795911
 21
213.81641896793491
 31
0.0
  0
LINE
  5
151C
  8
0
 62
     0
 10
173.0003573324978
 20
210.9724905660332
 30
0.0
 11
175.84428573439951
 21
213.81641896793491
 31
0.0
  0
LINE
  5
151D
  8
0
 62
     0
 10
170.8416272312929
 20
210.93508080838811
 30
0.0
 11
173.7229653908399
 21
213.81641896793491
 31
0.0
  0
LINE
  5
151E
  8
0
 62
     0
 10
168.6880873082369
 20
210.9028612288916
 30
0.0
 11
171.6016450472801
 21
213.81641896793491
 31
0.0
  0
LINE
  5
151F
  8
0
 62
     0
 10
166.53969976149179
 20
210.87579402570631
 30
0.0
 11
169.4803247037205
 21
213.81641896793491
 31
0.0
  0
LINE
  5
1520
  8
0
 62
     0
 10
164.3964273310711
 20
210.85384193884519
 30
0.0
 11
167.35900436016081
 21
213.81641896793491
 31
0.0
  0
LINE
  5
1521
  8
0
 62
     0
 10
162.25823328809511
 20
210.83696823942881
 30
0.0
 11
165.23768401660121
 21
213.81641896793491
 31
0.0
  0
LINE
  5
1522
  8
0
 62
     0
 10
160.12508142432111
 20
210.8251367192145
 30
0.0
 11
163.1163636730416
 21
213.81641896793491
 31
0.0
  0
LINE
  5
1523
  8
0
 62
     0
 10
157.9969360419399
 20
210.8183116803929
 30
0.0
 11
160.995043329482
 21
213.81641896793491
 31
0.0
  0
LINE
  5
1524
  8
0
 62
     0
 10
155.87376194362781
 20
210.81645792564041
 30
0.0
 11
158.87372298592231
 21
213.81641896793491
 31
0.0
  0
LINE
  5
1525
  8
0
 62
     0
 10
153.75552442285101
 20
210.81954074842321
 30
0.0
 11
156.75240264236271
 21
213.81641896793491
 31
0.0
  0
LINE
  5
1526
  8
0
 62
     0
 10
151.64218925441051
 20
210.82752592354251
 30
0.0
 11
154.63108229880311
 21
213.81641896793511
 31
0.0
  0
LINE
  5
1527
  8
0
 62
     0
 10
149.5337226852217
 20
210.84037969791319
 30
0.0
 11
152.5097619552435
 21
213.81641896793511
 31
0.0
  0
LINE
  5
1528
  8
0
 62
     0
 10
147.4300914253221
 20
210.85806878157331
 30
0.0
 11
150.38844161168379
 21
213.81641896793491
 31
0.0
  0
LINE
  5
1529
  8
0
 62
     0
 10
145.33126263910029
 20
210.88056033891101
 30
0.0
 11
148.2671212681241
 21
213.81641896793511
 31
0.0
  0
LINE
  5
152A
  8
0
 62
     0
 10
143.23720393673739
 20
210.9078219801078
 30
0.0
 11
146.1458009245645
 21
213.81641896793511
 31
0.0
  0
LINE
  5
152B
  8
0
 62
     0
 10
141.14788336585801
 20
210.93982175278811
 30
0.0
 11
144.02448058100481
 21
213.81641896793491
 31
0.0
  0
LINE
  5
152C
  8
0
 62
     0
 10
139.0632694033828
 20
210.97652813387251
 30
0.0
 11
141.90316023744521
 21
213.81641896793511
 31
0.0
  0
LINE
  5
152D
  8
0
 62
     0
 10
136.98333094757521
 20
211.01791002162449
 30
0.0
 11
139.78183989388549
 21
213.81641896793511
 31
0.0
  0
LINE
  5
152E
  8
0
 62
     0
 10
134.90803731027961
 20
211.0639367278888
 30
0.0
 11
137.660519550326
 21
213.81641896793491
 31
0.0
  0
LINE
  5
152F
  8
0
 62
     0
 10
132.8373582093443
 20
211.11457797051301
 30
0.0
 11
135.5391992067664
 21
213.81641896793511
 31
0.0
  0
LINE
  5
1530
  8
0
 62
     0
 10
130.7712637612216
 20
211.1698038659498
 30
0.0
 11
133.41787886320671
 21
213.81641896793511
 31
0.0
  0
LINE
  5
1531
  8
0
 62
     0
 10
128.70972447374399
 20
211.22958492203199
 30
0.0
 11
131.29655851964691
 21
213.81641896793491
 31
0.0
  0
LINE
  5
1532
  8
0
 62
     0
 10
126.65271123906901
 20
211.29389203091671
 30
0.0
 11
129.17523817608739
 21
213.81641896793491
 31
0.0
  0
LINE
  5
1533
  8
0
 62
     0
 10
124.6001953267869
 20
211.36269646219409
 30
0.0
 11
127.0539178325276
 21
213.81641896793491
 31
0.0
  0
LINE
  5
1534
  8
0
 62
     0
 10
122.5521483771891
 20
211.43596985615599
 30
0.0
 11
124.932597488968
 21
213.81641896793491
 31
0.0
  0
LINE
  5
1535
  8
0
 62
     0
 10
120.5085423946915
 20
211.5136842172181
 30
0.0
 11
122.8112771454084
 21
213.81641896793491
 31
0.0
  0
LINE
  5
1536
  8
0
 62
     0
 10
118.46934974140839
 20
211.59581190749461
 30
0.0
 11
120.68995680184869
 21
213.81641896793491
 31
0.0
  0
LINE
  5
1537
  8
0
 62
     0
 10
116.4345431308727
 20
211.6823256405186
 30
0.0
 11
118.56863645828911
 21
213.81641896793491
 31
0.0
  0
LINE
  5
1538
  8
0
 62
     0
 10
114.40409562189841
 20
211.7731984751039
 30
0.0
 11
116.4473161147295
 21
213.81641896793491
 31
0.0
  0
LINE
  5
1539
  8
0
 62
     0
 10
112.3779806125825
 20
211.8684038093476
 30
0.0
 11
114.3259957711699
 21
213.81641896793491
 31
0.0
  0
LINE
  5
153A
  8
0
 62
     0
 10
110.3561718344405
 20
211.96791537476531
 30
0.0
 11
112.2046754276102
 21
213.81641896793491
 31
0.0
  0
LINE
  5
153B
  8
0
 62
     0
 10
108.33864334667361
 20
212.07170723055799
 30
0.0
 11
110.08335508405059
 21
213.81641896793491
 31
0.0
  0
LINE
  5
153C
  8
0
 62
     0
 10
106.3253695305623
 20
212.17975375800631
 30
0.0
 11
107.96203474049091
 21
213.81641896793491
 31
0.0
  0
LINE
  5
153D
  8
0
 62
     0
 10
104.3163250839862
 20
212.29202965498999
 30
0.0
 11
105.8407143969313
 21
213.81641896793491
 31
0.0
  0
LINE
  5
153E
  8
0
 62
     0
 10
100.94574648703021
 20
211.0427714015936
 30
0.0
 11
103.7193940533716
 21
213.81641896793491
 31
0.0
  0
LINE
  5
153F
  8
0
 62
     0
 10
99.942323189053553
 20
212.16066844717639
 30
0.0
 11
101.5980737098119
 21
213.81641896793491
 31
0.0
  0
ENDBLK
  5
1540
  8
0
  0
BLOCK
  8
0
  2
*X6
 70
     1
 10
0.0
 20
0.0
 30
0.0
  3
*X6
  1

  0
LINE
  5
1543
  8
0
 62
     0
 10
218.8901509110039
 20
42.455517719246117
 30
0.0
 11
217.41844387941711
 21
43.92722475083292
 31
0.0
  0
LINE
  5
1544
  8
0
 62
     0
 10
218.8901509110039
 20
40.334197375686493
 30
0.0
 11
215.8901509110039
 21
43.334197375686529
 31
0.0
  0
LINE
  5
1545
  8
0
 62
     0
 10
218.8901509110039
 20
38.212877032126841
 30
0.0
 11
215.8901509110039
 21
41.212877032126912
 31
0.0
  0
LINE
  5
1546
  8
0
 62
     0
 10
218.8901509110039
 20
36.091556688567181
 30
0.0
 11
215.8901509110039
 21
39.091556688567259
 31
0.0
  0
LINE
  5
1547
  8
0
 62
     0
 10
218.8901509110039
 20
33.970236345007528
 30
0.0
 11
215.8901509110039
 21
36.970236345007599
 31
0.0
  0
LINE
  5
1548
  8
0
 62
     0
 10
218.87515473012471
 20
31.863912182327081
 30
0.0
 11
215.8901509110039
 21
34.848916001447968
 31
0.0
  0
LINE
  5
1549
  8
0
 62
     0
 10
218.3297926933441
 20
30.287953875547981
 30
0.0
 11
215.8901509110039
 21
32.727595657888308
 31
0.0
  0
LINE
  5
154A
  8
0
 62
     0
 10
217.26460767735441
 20
29.231818547978168
 30
0.0
 11
215.06920147449949
 21
31.42722475083292
 31
0.0
  0
LINE
  5
154B
  8
0
 62
     0
 10
215.6758639552431
 20
28.699241926529709
 30
0.0
 11
212.94788113093989
 21
31.42722475083292
 31
0.0
  0
LINE
  5
154C
  8
0
 62
     0
 10
213.27723783074961
 20
28.97654770746351
 30
0.0
 11
210.8265607873804
 21
31.427224750832892
 31
0.0
  0
LINE
  5
154D
  8
0
 62
     0
 10
210.7605910800919
 20
29.371874114561571
 30
0.0
 11
208.70524044382071
 21
31.42722475083292
 31
0.0
  0
LINE
  5
154E
  8
0
 62
     0
 10
208.2439443294343
 20
29.767200521659621
 30
0.0
 11
206.583920100261
 21
31.427224750832892
 31
0.0
  0
LINE
  5
154F
  8
0
 62
     0
 10
205.7272975787767
 20
30.162526928757639
 30
0.0
 11
204.46259975670131
 21
31.42722475083292
 31
0.0
  0
LINE
  5
1550
  8
0
 62
     0
 10
203.3415554278611
 20
30.426948736113442
 30
0.0
 11
202.34127941314171
 21
31.42722475083292
 31
0.0
  0
LINE
  5
1551
  8
0
 62
     0
 10
201.21995906958199
 20
30.42722475083292
 30
0.0
 11
200.2199590695821
 21
31.427224750832892
 31
0.0
  0
LINE
  5
1552
  8
0
 62
     0
 10
199.0986387260225
 20
30.42722475083292
 30
0.0
 11
198.0986387260225
 21
31.42722475083292
 31
0.0
  0
LINE
  5
1553
  8
0
 62
     0
 10
196.9773183824629
 20
30.427224750832892
 30
0.0
 11
195.97731838246281
 21
31.42722475083292
 31
0.0
  0
LINE
  5
1554
  8
0
 62
     0
 10
194.85599803890321
 20
30.427224750832892
 30
0.0
 11
193.85599803890321
 21
31.42722475083292
 31
0.0
  0
LINE
  5
1555
  8
0
 62
     0
 10
192.73467769534349
 20
30.427224750832849
 30
0.0
 11
191.73467769534349
 21
31.427224750832892
 31
0.0
  0
LINE
  5
1556
  8
0
 62
     0
 10
190.7831469006565
 20
30.257435201960249
 30
0.0
 11
189.6133573517838
 21
31.427224750832892
 31
0.0
  0
LINE
  5
1557
  8
0
 62
     0
 10
188.93328736870239
 20
29.985974390354809
 30
0.0
 11
187.49203700822429
 21
31.42722475083292
 31
0.0
  0
LINE
  5
1558
  8
0
 62
     0
 10
187.0699390497378
 20
29.72800236575975
 30
0.0
 11
185.37071666466451
 21
31.42722475083292
 31
0.0
  0
LINE
  5
1559
  8
0
 62
     0
 10
185.19284966501721
 20
29.483771406920692
 30
0.0
 11
183.24939632110491
 21
31.42722475083292
 31
0.0
  0
LINE
  5
155A
  8
0
 62
     0
 10
183.30175612109741
 20
29.25354460728073
 30
0.0
 11
181.12807597754519
 21
31.42722475083292
 31
0.0
  0
LINE
  5
155B
  8
0
 62
     0
 10
181.39638387511829
 20
29.037596509700279
 30
0.0
 11
179.00675563398559
 21
31.427224750832892
 31
0.0
  0
LINE
  5
155C
  8
0
 62
     0
 10
179.4764462504383
 20
28.836213790820679
 30
0.0
 11
176.8854352904261
 21
31.427224750832892
 31
0.0
  0
LINE
  5
155D
  8
0
 62
     0
 10
177.5416436977975
 20
28.649695999901709
 30
0.0
 11
174.76411494686641
 21
31.42722475083292
 31
0.0
  0
LINE
  5
155E
  8
0
 62
     0
 10
175.59166299660771
 20
28.478356357531979
 30
0.0
 11
172.64279460330681
 21
31.42722475083292
 31
0.0
  0
LINE
  5
155F
  8
0
 62
     0
 10
173.6261763903253
 20
28.322522620254599
 30
0.0
 11
170.52147425974709
 21
31.427224750832892
 31
0.0
  0
LINE
  5
1560
  8
0
 62
     0
 10
171.6448406491333
 20
28.182538017887069
 30
0.0
 11
168.40015391618741
 21
31.42722475083292
 31
0.0
  0
LINE
  5
1561
  8
0
 62
     0
 10
169.64729605230329
 20
28.058762271157349
 30
0.0
 11
166.2788335726278
 21
31.427224750832892
 31
0.0
  0
LINE
  5
1562
  8
0
 62
     0
 10
167.63316528166169
 20
27.951572698239399
 30
0.0
 11
164.15751322906809
 21
31.42722475083292
 31
0.0
  0
LINE
  5
1563
  8
0
 62
     0
 10
165.6020522164583
 20
27.861365419883182
 30
0.0
 11
162.0361928855086
 21
31.427224750832892
 31
0.0
  0
LINE
  5
1564
  8
0
 62
     0
 10
163.55354061867331
 20
27.788556674108531
 30
0.0
 11
159.91487254194891
 21
31.42722475083292
 31
0.0
  0
LINE
  5
1565
  8
0
 62
     0
 10
161.48719269631371
 20
27.733584252908511
 30
0.0
 11
157.79355219838931
 21
31.42722475083292
 31
0.0
  0
LINE
  5
1566
  8
0
 62
     0
 10
159.40254753054541
 20
27.69690907511707
 30
0.0
 11
155.6722318548295
 21
31.42722475083292
 31
0.0
  0
LINE
  5
1567
  8
0
 62
     0
 10
157.29911935052181
 20
27.67901691158109
 30
0.0
 11
153.55091151126999
 21
31.42722475083292
 31
0.0
  0
LINE
  5
1568
  8
0
 62
     0
 10
155.17639563745061
 20
27.68042028109269
 30
0.0
 11
151.42959116771041
 21
31.42722475083292
 31
0.0
  0
LINE
  5
1569
  8
0
 62
     0
 10
153.03383503673911
 20
27.70166053824439
 30
0.0
 11
149.3082708241507
 21
31.427224750832941
 31
0.0
  0
LINE
  5
156A
  8
0
 62
     0
 10
150.87086505387791
 20
27.743310177546011
 30
0.0
 11
147.18695048059089
 21
31.427224750832941
 31
0.0
  0
LINE
  5
156B
  8
0
 62
     0
 10
148.6868795059822
 20
27.805975381882071
 30
0.0
 11
145.06563013703129
 21
31.427224750832941
 31
0.0
  0
LINE
  5
156C
  8
0
 62
     0
 10
146.48123569649559
 20
27.89029884780896
 30
0.0
 11
142.9443097934718
 21
31.427224750832931
 31
0.0
  0
LINE
  5
156D
  8
0
 62
     0
 10
144.25325127531261
 20
27.996962925432481
 30
0.0
 11
140.822989449912
 21
31.427224750832931
 31
0.0
  0
LINE
  5
156E
  8
0
 62
     0
 10
142.0022007403316
 20
28.126693116853769
 30
0.0
 11
138.70166910635251
 21
31.427224750832941
 31
0.0
  0
LINE
  5
156F
  8
0
 62
     0
 10
139.7273115289868
 20
28.280261984638852
 30
0.0
 11
136.58034876279271
 21
31.427224750832959
 31
0.0
  0
LINE
  5
1570
  8
0
 62
     0
 10
137.42775963932411
 20
28.45849353074194
 30
0.0
 11
134.45902841923319
 21
31.427224750832941
 31
0.0
  0
LINE
  5
1571
  8
0
 62
     0
 10
135.10266470936261
 20
28.662268117143761
 30
0.0
 11
132.3377080756735
 21
31.427224750832941
 31
0.0
  0
LINE
  5
1572
  8
0
 62
     0
 10
132.7510844703456
 20
28.892528012601272
 30
0.0
 11
130.2163877321139
 21
31.427224750832941
 31
0.0
  0
LINE
  5
1573
  8
0
 62
     0
 10
130.37200847346631
 20
29.150283665920909
 30
0.0
 11
128.09506738855421
 21
31.427224750832959
 31
0.0
  0
LINE
  5
1574
  8
0
 62
     0
 10
127.96435097003079
 20
29.436620825796808
 30
0.0
 11
125.9737470449945
 21
31.427224750832981
 31
0.0
  0
LINE
  5
1575
  8
0
 62
     0
 10
125.52694280081479
 20
29.75270865145303
 30
0.0
 11
123.85242670143479
 21
31.427224750832959
 31
0.0
  0
LINE
  5
1576
  8
0
 62
     0
 10
123.0585221203655
 20
30.099808988342762
 30
0.0
 11
121.73110635787521
 21
31.427224750832981
 31
0.0
  0
LINE
  5
1577
  8
0
 62
     0
 10
120.6097860143158
 20
30.427224750832892
 30
0.0
 11
119.6097860143157
 21
31.427224750832981
 31
0.0
  0
LINE
  5
1578
  8
0
 62
     0
 10
118.488465670756
 20
30.427224750832892
 30
0.0
 11
117.4884656707559
 21
31.427224750832981
 31
0.0
  0
LINE
  5
1579
  8
0
 62
     0
 10
116.3671453271964
 20
30.427224750832892
 30
0.0
 11
115.3671453271964
 21
31.427224750832981
 31
0.0
  0
LINE
  5
157A
  8
0
 62
     0
 10
114.24582498363679
 20
30.427224750832892
 30
0.0
 11
113.2458249836366
 21
31.427224750832981
 31
0.0
  0
LINE
  5
157B
  8
0
 62
     0
 10
112.12450464007721
 20
30.42722475083287
 30
0.0
 11
111.12450464007711
 21
31.427224750832981
 31
0.0
  0
LINE
  5
157C
  8
0
 62
     0
 10
110.0031842965174
 20
30.427224750832892
 30
0.0
 11
109.0031842965174
 21
31.427224750832981
 31
0.0
  0
LINE
  5
157D
  8
0
 62
     0
 10
107.8818639529579
 20
30.42722475083287
 30
0.0
 11
106.8818639529578
 21
31.427224750832998
 31
0.0
  0
LINE
  5
157E
  8
0
 62
     0
 10
105.7605436093982
 20
30.427224750832892
 30
0.0
 11
104.7605436093981
 21
31.427224750832998
 31
0.0
  0
LINE
  5
157F
  8
0
 62
     0
 10
104.3901509110039
 20
29.67629710566759
 30
0.0
 11
102.6392232658385
 21
31.427224750832981
 31
0.0
  0
LINE
  5
1580
  8
0
 62
     0
 10
104.1082874737982
 20
27.836840199313571
 30
0.0
 11
100.51790292227879
 21
31.427224750832998
 31
0.0
  0
LINE
  5
1581
  8
0
 62
     0
 10
102.9828237946704
 20
26.840983534881769
 30
0.0
 11
99.890150911003957
 21
29.93365641854832
 31
0.0
  0
LINE
  5
1582
  8
0
 62
     0
 10
214.96624973785941
 20
28.713325877025081
 30
0.0
 11
218.8901509110039
 21
32.637227050169479
 31
0.0
  0
LINE
  5
1583
  8
0
 62
     0
 10
215.8901509110039
 20
31.758547393729071
 30
0.0
 11
218.8901509110039
 21
34.75854739372911
 31
0.0
  0
LINE
  5
1584
  8
0
 62
     0
 10
213.13110624417749
 20
28.99950272690279
 30
0.0
 11
215.55882826810759
 21
31.427224750832892
 31
0.0
  0
LINE
  5
1585
  8
0
 62
     0
 10
215.8901509110039
 20
33.87986773728872
 30
0.0
 11
218.8901509110039
 21
36.87986773728877
 31
0.0
  0
LINE
  5
1586
  8
0
 62
     0
 10
211.29777411489451
 20
29.287490941179382
 30
0.0
 11
213.4375079245481
 21
31.427224750832892
 31
0.0
  0
LINE
  5
1587
  8
0
 62
     0
 10
215.8901509110039
 20
36.001188080848358
 30
0.0
 11
218.8901509110039
 21
39.001188080848387
 31
0.0
  0
LINE
  5
1588
  8
0
 62
     0
 10
209.46444198561139
 20
29.575479155455941
 30
0.0
 11
211.31618758098841
 21
31.427224750832892
 31
0.0
  0
LINE
  5
1589
  8
0
 62
     0
 10
215.8901509110039
 20
38.122508424408018
 30
0.0
 11
218.8901509110039
 21
41.122508424408011
 31
0.0
  0
LINE
  5
158A
  8
0
 62
     0
 10
207.63110985632829
 20
29.86346736973255
 30
0.0
 11
209.19486723742881
 21
31.427224750832892
 31
0.0
  0
LINE
  5
158B
  8
0
 62
     0
 10
215.8901509110039
 20
40.243828767967642
 30
0.0
 11
218.8901509110039
 21
43.243828767967671
 31
0.0
  0
LINE
  5
158C
  8
0
 62
     0
 10
205.79777772704529
 20
30.151455584009131
 30
0.0
 11
207.07354689386909
 21
31.427224750832892
 31
0.0
  0
LINE
  5
158D
  8
0
 62
     0
 10
215.8901509110039
 20
42.365149111527288
 30
0.0
 11
217.45222655030949
 21
43.927224750832913
 31
0.0
  0
LINE
  5
158E
  8
0
 62
     0
 10
203.9302259731075
 20
30.405224173630899
 30
0.0
 11
204.95222655030949
 21
31.427224750832892
 31
0.0
  0
LINE
  5
158F
  8
0
 62
     0
 10
201.83090620674989
 20
30.427224750832892
 30
0.0
 11
202.83090620674969
 21
31.427224750832892
 31
0.0
  0
LINE
  5
1590
  8
0
 62
     0
 10
199.7095858631902
 20
30.427224750832892
 30
0.0
 11
200.7095858631902
 21
31.427224750832892
 31
0.0
  0
LINE
  5
1591
  8
0
 62
     0
 10
197.5882655196306
 20
30.427224750832892
 30
0.0
 11
198.5882655196306
 21
31.427224750832892
 31
0.0
  0
LINE
  5
1592
  8
0
 62
     0
 10
195.46694517607079
 20
30.42722475083287
 30
0.0
 11
196.46694517607079
 21
31.427224750832892
 31
0.0
  0
LINE
  5
1593
  8
0
 62
     0
 10
193.34562483251111
 20
30.427224750832849
 30
0.0
 11
194.34562483251119
 21
31.427224750832892
 31
0.0
  0
LINE
  5
1594
  8
0
 62
     0
 10
191.1030092102697
 20
30.305929472150929
 30
0.0
 11
192.22430448895159
 21
31.427224750832892
 31
0.0
  0
LINE
  5
1595
  8
0
 62
     0
 10
188.61682860510251
 20
29.941069210543489
 30
0.0
 11
190.1029841453919
 21
31.427224750832892
 31
0.0
  0
LINE
  5
1596
  8
0
 62
     0
 10
186.1624032452371
 20
29.60796419423778
 30
0.0
 11
187.9816638018323
 21
31.427224750832892
 31
0.0
  0
LINE
  5
1597
  8
0
 62
     0
 10
183.73841545467079
 20
29.305296747231012
 30
0.0
 11
185.86034345827261
 21
31.427224750832892
 31
0.0
  0
LINE
  5
1598
  8
0
 62
     0
 10
181.34364595915039
 20
29.031847595270388
 30
0.0
 11
183.73902311471301
 21
31.427224750832892
 31
0.0
  0
LINE
  5
1599
  8
0
 62
     0
 10
178.97696387672639
 20
28.786485856405921
 30
0.0
 11
181.6177027711534
 21
31.427224750832892
 31
0.0
  0
LINE
  5
159A
  8
0
 62
     0
 10
176.6373179854539
 20
28.568160308692981
 30
0.0
 11
179.4963824275938
 21
31.427224750832892
 31
0.0
  0
LINE
  5
159B
  8
0
 62
     0
 10
174.323729074287
 20
28.375891741085809
 30
0.0
 11
177.37506208403411
 21
31.427224750832892
 31
0.0
  0
LINE
  5
159C
  8
0
 62
     0
 10
172.03528321710951
 20
28.208766227468011
 30
0.0
 11
175.25374174047451
 21
31.427224750832892
 31
0.0
  0
LINE
  5
159D
  8
0
 62
     0
 10
169.7711258370941
 20
28.06592919101211
 30
0.0
 11
173.13242139691491
 21
31.427224750832892
 31
0.0
  0
LINE
  5
159E
  8
0
 62
     0
 10
167.5304564506049
 20
27.946580148082528
 30
0.0
 11
171.01110105335519
 21
31.427224750832892
 31
0.0
  0
LINE
  5
159F
  8
0
 62
     0
 10
165.31252399777659
 20
27.84996803881393
 30
0.0
 11
168.8897807097955
 21
31.427224750832892
 31
0.0
  0
LINE
  5
15A0
  8
0
 62
     0
 10
163.1166226815468
 20
27.775387066143761
 30
0.0
 11
166.76846036623579
 21
31.427224750832892
 31
0.0
  0
LINE
  5
15A1
  8
0
 62
     0
 10
160.94208824896941
 20
27.722172977126132
 30
0.0
 11
164.6471400226763
 21
31.427224750832892
 31
0.0
  0
LINE
  5
15A2
  8
0
 62
     0
 10
158.78829465858919
 20
27.689699730305591
 30
0.0
 11
162.52581967911669
 21
31.427224750832892
 31
0.0
  0
LINE
  5
15A3
  8
0
 62
     0
 10
156.6546510859184
 20
27.677376501194399
 30
0.0
 11
160.40449933555701
 21
31.427224750832892
 31
0.0
  0
LINE
  5
15A4
  8
0
 62
     0
 10
154.5405992259536
 20
27.684644984789159
 30
0.0
 11
158.2831789919972
 21
31.427224750832892
 31
0.0
  0
LINE
  5
15A5
  8
0
 62
     0
 10
152.4456108574401
 20
27.710976959835271
 30
0.0
 11
156.1618586484376
 21
31.427224750832892
 31
0.0
  0
LINE
  5
15A6
  8
0
 62
     0
 10
150.36918563845049
 20
27.755872084405439
 30
0.0
 11
154.04053830487811
 21
31.427224750832892
 31
0.0
  0
LINE
  5
15A7
  8
0
 62
     0
 10
148.31084910694281
 20
27.818855896457229
 30
0.0
 11
151.91921796131851
 21
31.42722475083292
 31
0.0
  0
LINE
  5
15A8
  8
0
 62
     0
 10
146.27015086343721
 20
27.89947799651145
 30
0.0
 11
149.79789761775879
 21
31.427224750832892
 31
0.0
  0
LINE
  5
15A9
  8
0
 62
     0
 10
144.24666291591541
 20
27.99731039254916
 30
0.0
 11
147.6765772741991
 21
31.42722475083292
 31
0.0
  0
LINE
  5
15AA
  8
0
 62
     0
 10
142.2399781695554
 20
28.111945989748762
 30
0.0
 11
145.5552569306395
 21
31.427224750832931
 31
0.0
  0
LINE
  5
15AB
  8
0
 62
     0
 10
140.2497090460927
 20
28.242997209845829
 30
0.0
 11
143.4339365870799
 21
31.427224750832941
 31
0.0
  0
LINE
  5
15AC
  8
0
 62
     0
 10
138.2754862194418
 20
28.390094726754612
 30
0.0
 11
141.3126162435201
 21
31.427224750832941
 31
0.0
  0
LINE
  5
15AD
  8
0
 62
     0
 10
136.31695745581891
 20
28.552886306691182
 30
0.0
 11
139.19129589996061
 21
31.427224750832931
 31
0.0
  0
LINE
  5
15AE
  8
0
 62
     0
 10
134.37378654798709
 20
28.73103574241917
 30
0.0
 11
137.069975556401
 21
31.427224750832941
 31
0.0
  0
LINE
  5
15AF
  8
0
 62
     0
 10
132.4456523344472
 20
28.9242218724388
 30
0.0
 11
134.9486552128412
 21
31.427224750832941
 31
0.0
  0
LINE
  5
15B0
  8
0
 62
     0
 10
130.5322477954295
 20
29.132137676980872
 30
0.0
 11
132.82733486928171
 21
31.427224750832941
 31
0.0
  0
LINE
  5
15B1
  8
0
 62
     0
 10
128.6332792184628
 20
29.354489443573819
 30
0.0
 11
130.70601452572211
 21
31.427224750832941
 31
0.0
  0
LINE
  5
15B2
  8
0
 62
     0
 10
126.7484654270754
 20
29.59099599574601
 30
0.0
 11
128.58469418216239
 21
31.427224750832941
 31
0.0
  0
LINE
  5
15B3
  8
0
 62
     0
 10
124.8775370668872
 20
29.841387979117361
 30
0.0
 11
126.46337383860271
 21
31.427224750832941
 31
0.0
  0
LINE
  5
15B4
  8
0
 62
     0
 10
123.0202359439552
 20
30.105407199745049
 30
0.0
 11
124.342053495043
 21
31.427224750832959
 31
0.0
  0
LINE
  5
15B5
  8
0
 62
     0
 10
121.1763144107729
 20
30.382806010122341
 30
0.0
 11
122.2207331514834
 21
31.427224750832959
 31
0.0
  0
LINE
  5
15B6
  8
0
 62
     0
 10
119.0994128079237
 20
30.427224750832892
 30
0.0
 11
120.0994128079239
 21
31.427224750832981
 31
0.0
  0
LINE
  5
15B7
  8
0
 62
     0
 10
116.9780924643641
 20
30.427224750832892
 30
0.0
 11
117.9780924643642
 21
31.427224750832959
 31
0.0
  0
LINE
  5
15B8
  8
0
 62
     0
 10
114.85677212080439
 20
30.427224750832892
 30
0.0
 11
115.85677212080449
 21
31.427224750832959
 31
0.0
  0
LINE
  5
15B9
  8
0
 62
     0
 10
112.73545177724471
 20
30.427224750832892
 30
0.0
 11
113.7354517772449
 21
31.427224750832981
 31
0.0
  0
LINE
  5
15BA
  8
0
 62
     0
 10
110.6141314336852
 20
30.427224750832892
 30
0.0
 11
111.6141314336853
 21
31.427224750832981
 31
0.0
  0
LINE
  5
15BB
  8
0
 62
     0
 10
108.4928110901256
 20
30.427224750832892
 30
0.0
 11
109.4928110901256
 21
31.427224750832981
 31
0.0
  0
LINE
  5
15BC
  8
0
 62
     0
 10
106.3714907465659
 20
30.427224750832892
 30
0.0
 11
107.371490746566
 21
31.427224750832981
 31
0.0
  0
LINE
  5
15BD
  8
0
 62
     0
 10
102.6896127207217
 20
26.7453467249887
 30
0.0
 11
104.322028936848
 21
28.377762941115051
 31
0.0
  0
LINE
  5
15BE
  8
0
 62
     0
 10
100.8836808925366
 20
27.060735240363279
 30
0.0
 11
105.25017040300639
 21
31.427224750832981
 31
0.0
  0
LINE
  5
15BF
  8
0
 62
     0
 10
99.984413904323745
 20
28.28278859570996
 30
0.0
 11
103.12885005944671
 21
31.427224750832981
 31
0.0
  0
LINE
  5
15C0
  8
0
 62
     0
 10
99.890150911003929
 20
30.309845945949789
 30
0.0
 11
101.007529715887
 21
31.427224750832981
 31
0.0
  0
ENDBLK
  5
15C1
  8
0
  0
ENDSEC
  0
SECTION
  2
ENTITIES
  0
LINE
  5
15C2
  8
0
 10
99.890150911003957
 20
187.57170764060839
 30
0.0
 11
99.890150911003957
 21
169.57170764060851
 31
0.0
1001
ACAD
1000
ASC_BOUNDS
1002
{
1070
    19
1005
737
1002
}
  0
LINE
  5
15C3
  8
0
  6
CENTER
 10
96.890150911003957
 20
178.57170764060851
 30
0.0
 11
217.8901509110039
 21
178.57170764060851
 31
0.0
1001
ACAD
1000
ASC_BOUNDS
1002
{
1070
    19
1005
737
1002
}
  0
LINE
  5
15C4
  8
0
 10
214.89015091100379
 20
188.46920920115841
 30
0.0
 11
214.89015091100379
 21
168.6742060800585
 31
0.0
1001
ACAD
1000
ASC_BOUNDS
1002
{
1070
    19
1005
737
1002
}
  0
ARC
  5
15C5
  8
0
 10
149.8901509110039
 20
672.82170764060845
 30
0.0
 40
507.24999999999977
 50
264.95986215052392
 51
274.86405283444128
1001
ACAD
1000
ASC_BOUNDS
1002
{
1070
    19
1005
737
1002
}
  0
LINE
  5
15C6
  8
0
 10
104.4478798409959
 20
167.57170764060851
 30
0.0
 11
101.8901509110039
 21
167.57170764060851
 31
0.0
1001
ACAD
1000
ASC_BOUNDS
1002
{
1070
    19
1005
737
1002
}
  0
LINE
  5
15C7
  8
0
 10
196.9426755377938
 20
167.46908140926891
 30
0.0
 11
212.79027567711611
 21
166.67670140230291
 31
0.0
1001
ACAD
1000
ASC_BOUNDS
1002
{
1070
    19
1005
737
1002
}
  0
ARC
  5
15C8
  8
0
 10
195.44454702947701
 20
137.50651124293341
 30
0.0
 40
30.0
 50
87.137594773888296
 51
94.864052834441452
1001
ACAD
1000
ASC_BOUNDS
1002
{
1070
    19
1005
737
1002
}
  0
ARC
  5
15C9
  8
0
 10
212.89015091100379
 20
168.6742060800585
 30
0.0
 40
2.0
 50
267.13759477388822
 51
0.0
1001
ACAD
1000
ASC_BOUNDS
1002
{
1070
    19
1005
737
1002
}
  0
ARC
  5
15CA
  8
0
 10
101.8901509110039
 20
169.57170764060851
 30
0.0
 40
2.0
 50
180.0
 51
270.0
1001
ACAD
1000
ASC_BOUNDS
1002
{
1070
    19
1005
737
1002
}
  0
ARC
  5
15CB
  8
0
 10
104.4478798409959
 20
157.57170764060851
 30
0.0
 40
10.0
 50
84.959862150522781
 51
90.000000000000469
1001
ACAD
1000
ASC_BOUNDS
1002
{
1070
    19
1005
737
1002
}
  0
LINE
  5
15CC
  8
0
 10
196.9426755377938
 20
189.67433387194799
 30
0.0
 11
212.79027567711611
 21
190.46671387891411
 31
0.0
  0
ARC
  5
15CD
  8
0
 10
149.8901509110039
 20
-315.67829235939121
 30
0.0
 40
507.24999999999977
 50
85.135947165558591
 51
95.040137849475997
  0
LINE
  5
15CE
  8
0
 10
104.4478798409959
 20
189.57170764060839
 30
0.0
 11
101.8901509110039
 21
189.57170764060851
 31
0.0
  0
ARC
  5
15CF
  8
0
 10
101.8901509110039
 20
187.57170764060839
 30
0.0
 40
2.0
 50
90.000000000000057
 51
180.0
  0
ARC
  5
15D0
  8
0
 10
104.4478798409959
 20
199.57170764060839
 30
0.0
 40
10.0
 50
269.99999999999932
 51
275.04013784947722
  0
ARC
  5
15D1
  8
0
 10
195.44454702947701
 20
219.6369040382834
 30
0.0
 40
30.0
 50
265.13594716555849
 51
272.8624052261116
  0
ARC
  5
15D2
  8
0
 10
212.89015091100379
 20
188.46920920115841
 30
0.0
 40
2.0
 50
0.0
 51
92.86240522611169
  0
ARC
  5
15D3
  8
0
 10
150.3901509110033
 20
-340.5577871110616
 30
0.0
 40
528.62499999999977
 50
86.475217952678975
 51
93.524782047321025
  0
ARC
  5
15D4
  8
0
 10
150.3901509110033
 20
714.69221288893755
 30
0.0
 40
528.62499999999977
 50
266.4752179526788
 51
273.52478204732103
  0
ARC
  5
15D5
  8
0
 10
150.39015091100379
 20
5.0300409739419152
 30
0.0
 40
177.54166666666649
 50
79.452208085296434
 51
100.5477919147034
  0
ARC
  5
15D6
  8
0
 10
150.3901509110035
 20
707.19670764060015
 30
0.0
 40
528.62499999999181
 50
266.4752179526788
 51
273.52478204732103
  0
LINE
  5
15D7
  8
0
 10
117.8901509110039
 20
179.57170764060831
 30
0.0
 11
182.8901509110039
 21
179.57170764060839
 31
0.0
  0
LINE
  5
15D8
  8
0
 10
117.8901509110034
 20
187.06721288893789
 30
0.0
 11
182.8901509110039
 21
187.06721288893789
 31
0.0
  0
LINE
  5
15D9
  8
0
 10
213.8901509110039
 20
178.57170764060851
 30
0.0
 11
213.8901509110039
 21
171.57170764060851
 31
0.0
1001
ACAD
1000
ASC_BOUNDS
1002
{
1070
    19
1005
737
1002
}
  0
LINE
  5
15DA
  8
0
 10
99.890150911003929
 20
171.57170764060851
 30
0.0
 11
213.8901509110039
 21
171.57170764060851
 31
0.0
1001
ACAD
1000
ASC_BOUNDS
1002
{
1070
    19
1005
737
1002
}
  0
LINE
  5
15DB
  8
0
 10
99.890150911003929
 20
129.089347251032
 30
0.0
 11
213.8901509110039
 21
129.089347251032
 31
0.0
1001
ACAD
1000
ASC_BOUNDS
1002
{
1070
    19
1005
744
1002
}
  0
LINE
  5
15DC
  8
0
 10
196.9426755377938
 20
147.69197348237159
 30
0.0
 11
212.79027567711611
 21
148.48435348933751
 31
0.0
  0
LINE
  5
15DD
  8
0
 10
196.9426755377938
 20
125.4867210196924
 30
0.0
 11
212.79027567711611
 21
124.6943410127264
 31
0.0
1001
ACAD
1000
ASC_BOUNDS
1002
{
1070
    19
1005
744
1002
}
  0
LINE
  5
15DE
  8
0
  6
CENTER
 10
96.890150911003957
 20
136.589347251032
 30
0.0
 11
217.8901509110039
 21
136.589347251032
 31
0.0
1001
ACAD
1000
ASC_BOUNDS
1002
{
1070
    19
1005
744
1002
}
  0
LINE
  5
15DF
  8
0
 10
117.8901509110034
 20
145.0848524993614
 30
0.0
 11
182.8901509110039
 21
145.0848524993614
 31
0.0
  0
LINE
  5
15E0
  8
0
 10
117.8901509110039
 20
137.5893472510318
 30
0.0
 11
182.8901509110039
 21
137.589347251032
 31
0.0
  0
ARC
  5
15E1
  8
0
 10
150.3901509110035
 20
665.21434725102347
 30
0.0
 40
528.62499999999181
 50
266.4752179526788
 51
273.52478204732103
  0
ARC
  5
15E2
  8
0
 10
150.39015091100379
 20
-36.952319415634577
 30
0.0
 40
177.54166666666649
 50
79.452208085296434
 51
100.5477919147034
  0
ARC
  5
15E3
  8
0
 10
150.3901509110033
 20
672.70985249936155
 30
0.0
 40
528.62499999999977
 50
266.4752179526788
 51
273.52478204732103
  0
ARC
  5
15E4
  8
0
 10
150.3901509110033
 20
-382.54014750063789
 30
0.0
 40
528.62499999999977
 50
86.475217952678975
 51
93.524782047321025
  0
ARC
  5
15E5
  8
0
 10
149.8901509110039
 20
-357.66065274896761
 30
0.0
 40
507.24999999999977
 50
85.135947165558591
 51
95.040137849475997
  0
ARC
  5
15E6
  8
0
 10
149.8901509110039
 20
630.839347251032
 30
0.0
 40
507.24999999999977
 50
264.95986215052392
 51
274.86405283444128
1001
ACAD
1000
ASC_BOUNDS
1002
{
1070
    19
1005
744
1002
}
  0
LINE
  5
15E7
  8
0
 10
99.890150911003957
 20
145.589347251032
 30
0.0
 11
99.890150911003957
 21
127.589347251032
 31
0.0
1001
ACAD
1000
ASC_BOUNDS
1002
{
1070
    19
1005
744
1002
}
  0
LINE
  5
15E8
  8
0
 10
104.4478798409959
 20
125.589347251032
 30
0.0
 11
101.8901509110039
 21
125.589347251032
 31
0.0
1001
ACAD
1000
ASC_BOUNDS
1002
{
1070
    19
1005
744
1002
}
  0
ARC
  5
15E9
  8
0
 10
101.8901509110039
 20
127.589347251032
 30
0.0
 40
2.0
 50
180.0
 51
270.0
1001
ACAD
1000
ASC_BOUNDS
1002
{
1070
    19
1005
744
1002
}
  0
ARC
  5
15EA
  8
0
 10
104.4478798409959
 20
115.589347251032
 30
0.0
 40
10.0
 50
84.959862150522781
 51
90.000000000000469
1001
ACAD
1000
ASC_BOUNDS
1002
{
1070
    19
1005
744
1002
}
  0
LINE
  5
15EB
  8
0
 10
104.4478798409959
 20
147.58934725103191
 30
0.0
 11
101.8901509110039
 21
147.58934725103211
 31
0.0
  0
ARC
  5
15EC
  8
0
 10
101.8901509110039
 20
145.58934725103211
 30
0.0
 40
2.0
 50
90.000000000000057
 51
180.0
  0
ARC
  5
15ED
  8
0
 10
104.4478798409959
 20
157.58934725103191
 30
0.0
 40
10.0
 50
269.99999999999932
 51
275.04013784947722
  0
ARC
  5
15EE
  8
0
 10
195.44454702947701
 20
95.524150853357085
 30
0.0
 40
30.0
 50
87.137594773888296
 51
94.864052834441452
1001
ACAD
1000
ASC_BOUNDS
1002
{
1070
    19
1005
744
1002
}
  0
ARC
  5
15EF
  8
0
 10
195.44454702947701
 20
177.654543648707
 30
0.0
 40
30.0
 50
265.13594716555849
 51
272.8624052261116
  0
LINE
  5
15F0
  8
0
 10
213.8901509110039
 20
136.589347251032
 30
0.0
 11
213.8901509110039
 21
129.089347251032
 31
0.0
1001
ACAD
1000
ASC_BOUNDS
1002
{
1070
    19
1005
744
1002
}
  0
LINE
  5
15F1
  8
0
 10
214.89015091100379
 20
146.48684881158181
 30
0.0
 11
214.89015091100379
 21
126.6918456904821
 31
0.0
1001
ACAD
1000
ASC_BOUNDS
1002
{
1070
    19
1005
744
1002
}
  0
ARC
  5
15F2
  8
0
 10
212.89015091100379
 20
126.6918456904821
 30
0.0
 40
2.0
 50
267.13759477388822
 51
0.0
1001
ACAD
1000
ASC_BOUNDS
1002
{
1070
    19
1005
744
1002
}
  0
ARC
  5
15F3
  8
0
 10
212.89015091100379
 20
146.48684881158181
 30
0.0
 40
2.0
 50
0.0
 51
92.86240522611169
  0
LINE
  5
15F4
  8
0
  6
CENTER
 10
96.890150911003957
 20
90.895348844774418
 30
0.0
 11
217.8901509110039
 21
90.895348844774418
 31
0.0
1001
ACAD
1000
ASC_BOUNDS
1002
{
1070
    19
1005
751
1002
}
  0
LINE
  5
15F5
  8
0
 10
196.9426755377938
 20
79.792722613434933
 30
0.0
 11
212.79027567711611
 21
79.000342606468834
 31
0.0
1001
ACAD
1000
ASC_BOUNDS
1002
{
1070
    19
1005
751
1002
}
  0
LINE
  5
15F6
  8
0
 10
196.9426755377938
 20
101.9979750761139
 30
0.0
 11
212.79027567711611
 21
102.79035508308
 31
0.0
  0
LINE
  5
15F7
  8
0
 10
99.890150911003929
 20
82.895348844774432
 30
0.0
 11
213.8901509110039
 21
82.895348844774432
 31
0.0
1001
ACAD
1000
ASC_BOUNDS
1002
{
1070
    19
1005
751
1002
}
  0
ARC
  5
15F8
  8
0
 10
149.8901509110039
 20
-403.35465115522538
 30
0.0
 40
507.24999999999977
 50
85.135947165558591
 51
95.040137849475997
  0
ARC
  5
15F9
  8
0
 10
149.8901509110039
 20
585.14534884477428
 30
0.0
 40
507.24999999999977
 50
264.95986215052392
 51
274.86405283444128
1001
ACAD
1000
ASC_BOUNDS
1002
{
1070
    19
1005
751
1002
}
  0
ARC
  5
15FA
  8
0
 10
150.3901509110033
 20
-428.23414590689538
 30
0.0
 40
528.62499999999977
 50
86.475217952678975
 51
93.524782047321025
  0
ARC
  5
15FB
  8
0
 10
150.3901509110033
 20
627.01585409310383
 30
0.0
 40
528.62499999999977
 50
266.4752179526788
 51
273.52478204732103
  0
ARC
  5
15FC
  8
0
 10
150.39015091100379
 20
-82.646317821892211
 30
0.0
 40
177.54166666666649
 50
79.452208085296434
 51
100.5477919147034
  0
ARC
  5
15FD
  8
0
 10
150.3901509110035
 20
619.5203488447662
 30
0.0
 40
528.62499999999181
 50
266.4752179526788
 51
273.52478204732103
  0
LINE
  5
15FE
  8
0
 10
117.8901509110039
 20
91.895348844774219
 30
0.0
 11
182.8901509110039
 21
91.895348844774404
 31
0.0
  0
LINE
  5
15FF
  8
0
 10
117.8901509110034
 20
99.390854093103925
 30
0.0
 11
182.8901509110039
 21
99.390854093103925
 31
0.0
  0
ARC
  5
1600
  8
0
 10
101.8901509110039
 20
81.895348844774446
 30
0.0
 40
2.0
 50
180.0
 51
270.0
1001
ACAD
1000
ASC_BOUNDS
1002
{
1070
    19
1005
751
1002
}
  0
LINE
  5
1601
  8
0
 10
99.890150911003957
 20
99.895348844774432
 30
0.0
 11
99.890150911003957
 21
81.895348844774446
 31
0.0
1001
ACAD
1000
ASC_BOUNDS
1002
{
1070
    19
1005
751
1002
}
  0
LINE
  5
1602
  8
0
 10
104.4478798409959
 20
79.895348844774432
 30
0.0
 11
101.8901509110039
 21
79.895348844774432
 31
0.0
1001
ACAD
1000
ASC_BOUNDS
1002
{
1070
    19
1005
751
1002
}
  0
ARC
  5
1603
  8
0
 10
104.4478798409959
 20
69.89534884477446
 30
0.0
 40
10.0
 50
84.959862150522781
 51
90.000000000000469
1001
ACAD
1000
ASC_BOUNDS
1002
{
1070
    19
1005
751
1002
}
  0
LINE
  5
1604
  8
0
 10
104.4478798409959
 20
101.8953488447744
 30
0.0
 11
101.8901509110039
 21
101.8953488447744
 31
0.0
  0
ARC
  5
1605
  8
0
 10
101.8901509110039
 20
99.895348844774475
 30
0.0
 40
2.0
 50
90.000000000000057
 51
180.0
  0
ARC
  5
1606
  8
0
 10
104.4478798409959
 20
111.8953488447744
 30
0.0
 40
10.0
 50
269.99999999999932
 51
275.04013784947722
  0
ARC
  5
1607
  8
0
 10
195.44454702947701
 20
131.9605452424494
 30
0.0
 40
30.0
 50
265.13594716555849
 51
272.8624052261116
  0
ARC
  5
1608
  8
0
 10
195.44454702947701
 20
49.830152447099458
 30
0.0
 40
30.0
 50
87.137594773888296
 51
94.864052834441452
1001
ACAD
1000
ASC_BOUNDS
1002
{
1070
    19
1005
751
1002
}
  0
ARC
  5
1609
  8
0
 10
212.89015091100379
 20
100.7928504053242
 30
0.0
 40
2.0
 50
0.0
 51
92.86240522611169
  0
ARC
  5
160A
  8
0
 10
212.89015091100379
 20
80.997847284224534
 30
0.0
 40
2.0
 50
267.13759477388822
 51
0.0
1001
ACAD
1000
ASC_BOUNDS
1002
{
1070
    19
1005
751
1002
}
  0
LINE
  5
160B
  8
0
 10
214.89015091100379
 20
100.7928504053242
 30
0.0
 11
214.89015091100379
 21
80.997847284224534
 31
0.0
1001
ACAD
1000
ASC_BOUNDS
1002
{
1070
    19
1005
751
1002
}
  0
LINE
  5
160C
  8
0
 10
213.8901509110039
 20
90.895348844774418
 30
0.0
 11
213.8901509110039
 21
82.895348844774432
 31
0.0
1001
ACAD
1000
ASC_BOUNDS
1002
{
1070
    19
1005
751
1002
}
  0
INSERT
  5
160D
  8
0
  6
CONTINUOUS
  2
*X2
 10
0.0
 20
0.0
 30
0.0
1001
ACAD
1000
HATCH
1002
{
1070
    19
1000
_USER
1040
1.5
1040
0.7853981633974483
1000
ASC_BOUNDS
1070
     1
1070
     1
1070
    12
1005
E2
1005
236
1005
234
1005
235
1005
232
1005
2F9
1005
233
1005
278
1005
9C
1005
5DF
1005
5DD
1005
9F
1000
ASC_SEEDPOINT
1011
150.45862045247841
1021
8.2275227924726147E+062
1031
0.0
1021
170.46882319120891
1031
0.0
1000
R14_HATCH_DATA
1000
737
1011
1.0
1021
8.2275227924726147E+062
1031
0.0
1021
0.0
1031
0.0
1011
0.0
1021
8.2275227924726147E+062
1031
0.0
1021
1.0
1031
0.0
1011
0.0
1021
8.2275227924726147E+062
1031
0.0
1021
0.0
1031
1.0
1040
0.0
1010
0.0
1020
0.0
1030
1.0
1000
_USER
1070
     0
1070
     1
1071
        1
1071
        7
1070
     1
1070
     1
1071
       12
1040
99.890150911003957
1040
171.57170764060859
1040
0.0
1040
99.890150911003957
1040
169.57170764060851
1040
0.4142135623730992
1040
101.8901509110039
1040
167.57170764060851
1040
0.0
1040
104.4478798409959
1040
167.57170764060851
1040
-0.0219952960847944
1040
105.32641577275071
1040
167.53304161837571
1040
0.0432421066101371
1040
192.90079294189351
1040
167.39847195383209
1040
-0.033725811369518
1040
196.94267553779281
1040
167.46908140926911
1040
0.0
1040
212.79027567711611
1040
166.67670140230291
1040
0.4289228992614005
1040
214.89015091100379
1040
168.6742060800585
1040
0.0
1040
214.89015091100379
1040
178.57170764060851
1040
0.0
1040
213.8901509110039
1040
178.57170764060851
1040
0.0
1040
213.8901509110039
1040
171.57170764060851
1040
0.0
1071
       12
1005
9F
1005
5DD
1005
5DF
1005
9C
1005
278
1005
233
1005
2F9
1005
232
1005
235
1005
234
1005
236
1005
E2
1070
     0
1070
     0
1040
0.7853981633974483
1040
1.5
1070
     1
1070
     2
1040
0.7853981633974483
1040
0.0
1040
0.0
1040
-1.0606601717798201
1040
1.0606601717798201
1070
     0
1040
2.3561944901923431
1040
0.0
1040
0.0
1040
-1.0606601717798201
1040
-1.0606601717798201
1070
     0
1040
0.1430733486247465
1071
        1
1040
150.45862045247841
1040
170.46882319120891
1040
0.0
1002
}
  0
INSERT
  5
160E
  8
0
  6
CONTINUOUS
  2
*X3
 10
0.0
 20
0.0
 30
0.0
1001
ACAD
1000
HATCH
1002
{
1070
    19
1000
_USER
1040
1.5
1040
0.7853981633974483
1000
ASC_BOUNDS
1070
     1
1070
     1
1070
    12
1005
67A
1005
67B
1005
662
1005
677
1005
66E
1005
672
1005
670
1005
671
1005
66F
1005
660
1005
679
1005
663
1000
ASC_SEEDPOINT
1011
168.35049073496691
1021
8.2275227924726147E+062
1031
0.0
1021
128.40525855409541
1031
0.0
1000
R14_HATCH_DATA
1000
744
1011
1.0
1021
8.2275227924726147E+062
1031
0.0
1021
0.0
1031
0.0
1011
0.0
1021
8.2275227924726147E+062
1031
0.0
1021
1.0
1031
0.0
1011
0.0
1021
8.2275227924726147E+062
1031
0.0
1021
0.0
1031
1.0
1040
0.0
1010
0.0
1020
0.0
1030
1.0
1000
_USER
1070
     0
1070
     1
1071
        1
1071
        7
1070
     1
1070
     1
1071
       12
1040
99.890150911003957
1040
129.089347251032
1040
0.0
1040
99.890150911003957
1040
127.589347251032
1040
0.4142135623730992
1040
101.8901509110039
1040
125.589347251032
1040
0.0
1040
104.4478798409957
1040
125.589347251032
1040
-0.0219952960847946
1040
105.32641577275049
1040
125.55068122879911
1040
0.0432421066101371
1040
192.90079294189351
1040
125.4161115642557
1040
-0.0337258113695175
1040
196.9426755377925
1040
125.4867210196926
1040
0.0
1040
212.79027567711611
1040
124.6943410127264
1040
0.4289228992614027
1040
214.89015091100379
1040
126.6918456904821
1040
0.0
1040
214.89015091100379
1040
136.589347251032
1040
0.0
1040
213.8901509110039
1040
136.589347251032
1040
0.0
1040
213.8901509110039
1040
129.089347251032
1040
0.0
1071
       12
1005
663
1005
679
1005
660
1005
66F
1005
671
1005
670
1005
672
1005
66E
1005
677
1005
662
1005
67B
1005
67A
1070
     0
1070
     0
1040
0.7853981633974483
1040
1.5
1070
     1
1070
     2
1040
0.7853981633974483
1040
0.0
1040
0.0
1040
-1.0606601717798201
1040
1.0606601717798201
1070
     0
1040
2.3561944901923431
1040
0.0
1040
0.0
1040
-1.0606601717798201
1040
-1.0606601717798201
1070
     0
1040
0.1430733486247465
1071
        1
1040
168.35049073496691
1040
128.40525855409541
1040
0.0
1002
}
  0
INSERT
  5
160F
  8
0
  6
CONTINUOUS
  2
*X4
 10
0.0
 20
0.0
 30
0.0
1001
ACAD
1000
HATCH
1002
{
1070
    19
1000
_USER
1040
1.5
1040
0.7853981633974483
1000
ASC_BOUNDS
1070
     1
1070
     1
1070
    12
1005
697
1005
67E
1005
695
1005
682
1005
68F
1005
68E
1005
68C
1005
68D
1005
680
1005
699
1005
67D
1005
698
1000
ASC_SEEDPOINT
1011
160.19179791094979
1021
8.2275227924726147E+062
1031
0.0
1021
79.90339328257852
1031
0.0
1000
R14_HATCH_DATA
1000
751
1011
1.0
1021
8.2275227924726147E+062
1031
0.0
1021
0.0
1031
0.0
1011
0.0
1021
8.2275227924726147E+062
1031
0.0
1021
1.0
1031
0.0
1011
0.0
1021
8.2275227924726147E+062
1031
0.0
1021
0.0
1031
1.0
1040
0.0
1010
0.0
1020
0.0
1030
1.0
1000
_USER
1070
     0
1070
     1
1071
        1
1071
        7
1070
     1
1070
     1
1071
       12
1040
192.90079294189351
1040
79.722113157998152
1040
-0.0337258113695175
1040
196.9426755377925
1040
79.792722613435018
1040
0.0
1040
212.79027567711611
1040
79.000342606468834
1040
0.4289228992614027
1040
214.89015091100379
1040
80.997847284224534
1040
0.0
1040
214.89015091100379
1040
90.895348844774404
1040
0.0
1040
213.8901509110039
1040
90.895348844774404
1040
0.0
1040
213.8901509110039
1040
82.895348844774432
1040
0.0
1040
99.890150911003957
1040
82.895348844774432
1040
0.0
1040
99.890150911003957
1040
81.895348844774446
1040
0.4142135623730992
1040
101.8901509110039
1040
79.895348844774432
1040
0.0
1040
104.4478798409957
1040
79.895348844774432
1040
-0.0219952960847946
1040
105.32641577275049
1040
79.856682822541501
1040
0.0432421066101371
1071
       12
1005
698
1005
67D
1005
699
1005
680
1005
68D
1005
68C
1005
68E
1005
68F
1005
682
1005
695
1005
67E
1005
697
1070
     0
1070
     0
1040
0.7853981633974483
1040
1.5
1070
     1
1070
     2
1040
0.7853981633974483
1040
0.0
1040
0.0
1040
-1.0606601717798201
1040
1.0606601717798201
1070
     0
1040
2.3561944901923431
1040
0.0
1040
0.0
1040
-1.0606601717798201
1040
-1.0606601717798201
1070
     0
1040
0.1430733486247465
1071
        1
1040
160.19179791094979
1040
79.90339328257852
1040
0.0
1002
}
  0
LINE
  5
1610
  8
0
  6
CENTER
 10
97.890150911003957
 20
222.81641896793491
 30
0.0
 11
213.8901509110039
 21
222.81641896793491
 31
0.0
  0
ARC
  5
1611
  8
0
 10
156.1401509110041
 20
-675.95441436539807
 30
0.0
 40
910.77083333333314
 50
86.711193470609857
 51
93.2888065293902
  0
ARC
  5
1612
  8
0
 10
101.8901509110039
 20
232.73308563460159
 30
0.0
 40
2.0833333333333131
 50
16.260204708311552
 51
163.73979529168861
  0
LINE
  5
1613
  8
0
 10
208.3901509110039
 20
233.31641896793491
 30
0.0
 11
208.3901509110039
 21
232.81641896793511
 31
0.0
  0
LINE
  5
1614
  8
0
 10
208.3901509110039
 20
232.81641896793511
 30
0.0
 11
209.8901509110039
 21
232.81641896793511
 31
0.0
  0
ARC
  5
1615
  8
0
 10
209.8901509110039
 20
230.81641896793491
 30
0.0
 40
2.0
 50
0.0
 51
90.0
  0
LINE
  5
1616
  8
0
 10
211.8901509110039
 20
230.81641896793491
 30
0.0
 11
211.8901509110039
 21
214.81641896793491
 31
0.0
1001
ACAD
1000
ASC_BOUNDS
1002
{
1070
    19
1005
C75
1002
}
  0
LINE
  5
1617
  8
0
 10
99.890150911003985
 20
233.31641896793491
 30
0.0
 11
99.890150911003985
 21
212.31641896793491
 31
0.0
1001
ACAD
1000
ASC_BOUNDS
1002
{
1070
    19
1005
C75
1002
}
  0
LINE
  5
1618
  8
0
 10
103.8901509110039
 20
233.31641896793491
 30
0.0
 11
103.8901509110039
 21
222.81641896793491
 31
0.0
  0
LINE
  5
1619
  8
0
 10
208.3901509110039
 20
232.81641896793511
 30
0.0
 11
208.3901509110039
 21
222.81641896793491
 31
0.0
  0
ARC
  5
161A
  8
0
 10
156.1401509110041
 20
-675.95441436539807
 30
0.0
 40
910.27083333333314
 50
86.711193470609857
 51
93.2888065293902
  0
ARC
  5
161B
  8
0
 10
156.1401509110041
 20
-675.95441436539807
 30
0.0
 40
909.67083333333323
 50
86.711193470609857
 51
93.2888065293902
  0
ARC
  5
161C
  8
0
 10
156.1401509110041
 20
-675.95441436539807
 30
0.0
 40
908.97083333333319
 50
86.70467358997621
 51
93.295326410023776
  0
LINE
  5
161D
  8
0
 10
103.8901509110039
 20
230.5134436608208
 30
0.0
 11
208.3901509110039
 21
230.5134436608208
 31
0.0
  0
LINE
  5
161E
  8
0
 10
103.8901509110039
 20
229.4134436608208
 30
0.0
 11
208.3901509110039
 21
229.4134436608208
 31
0.0
  0
LINE
  5
161F
  8
0
 10
103.8901509110039
 20
228.2134436608209
 30
0.0
 11
208.3901509110039
 21
228.2134436608209
 31
0.0
  0
LINE
  5
1620
  8
0
 10
103.8901509110039
 20
226.9134436608208
 30
0.0
 11
208.3901509110039
 21
226.9134436608208
 31
0.0
  0
LINE
  5
1621
  8
0
 10
103.8901509110039
 20
225.5134436608208
 30
0.0
 11
208.3901509110039
 21
225.5134436608208
 31
0.0
  0
LINE
  5
1622
  8
0
 10
103.8901509110039
 20
224.0134436608208
 30
0.0
 11
208.3901509110039
 21
224.0134436608208
 31
0.0
  0
ARC
  5
1623
  8
0
 10
156.1401509110039
 20
-1474.3880030857231
 30
0.0
 40
1706.689062499976
 50
88.245625173761354
 51
91.754374826238632
  0
ARC
  5
1624
  8
0
 10
156.1401509110039
 20
-1475.2508516256919
 30
0.0
 40
1706.689062499976
 50
88.245625173761354
 51
91.754374826238632
  0
ARC
  5
1625
  8
0
 10
209.8901509110039
 20
214.81641896793491
 30
0.0
 40
2.0
 50
270.0
 51
0.0
1001
ACAD
1000
ASC_BOUNDS
1002
{
1070
    19
1005
C75
1002
}
  0
LINE
  5
1626
  8
0
  6
CENTER
 10
97.890150911003957
 20
222.81641896793491
 30
0.0
 11
213.8901509110039
 21
222.81641896793491
 31
0.0
1001
ACAD
1000
ASC_BOUNDS
1002
{
1070
    19
1005
C75
1002
}
  0
ARC
  5
1627
  8
0
 10
156.1401509110041
 20
1121.5872523012681
 30
0.0
 40
910.77083333333314
 50
266.71119347060983
 51
273.28880652939011
1001
ACAD
1000
ASC_BOUNDS
1002
{
1070
    19
1005
C75
1002
}
  0
ARC
  5
1628
  8
0
 10
101.8901509110039
 20
212.89975230126819
 30
0.0
 40
2.0833333333333131
 50
196.26020470831119
 51
343.73979529168832
1001
ACAD
1000
ASC_BOUNDS
1002
{
1070
    19
1005
C75
1002
}
  0
LINE
  5
1629
  8
0
 10
208.3901509110039
 20
212.81641896793491
 30
0.0
 11
209.8901509110039
 21
212.81641896793491
 31
0.0
1001
ACAD
1000
ASC_BOUNDS
1002
{
1070
    19
1005
C75
1002
}
  0
LINE
  5
162A
  8
0
 10
208.3901509110039
 20
212.31641896793491
 30
0.0
 11
208.3901509110039
 21
212.81641896793491
 31
0.0
1001
ACAD
1000
ASC_BOUNDS
1002
{
1070
    19
1005
C75
1002
}
  0
LINE
  5
162B
  8
0
 10
218.8901509110039
 20
55.666888774287862
 30
0.0
 11
218.8901509110039
 21
32.187560727377971
 31
0.0
1001
ACAD
1000
ASC_BOUNDS
1002
{
1070
    19
1005
F5A
1002
}
  0
LINE
  5
162C
  8
0
 10
210.89015091100379
 20
222.81641896793491
 30
0.0
 11
210.89015091100379
 21
213.81641896793491
 31
0.0
1001
ACAD
1000
ASC_BOUNDS
1002
{
1070
    19
1005
C75
1002
}
  0
LINE
  5
162D
  8
0
 10
99.890150911003957
 20
213.81641896793491
 30
0.0
 11
210.89015091100379
 21
213.81641896793491
 31
0.0
1001
ACAD
1000
ASC_BOUNDS
1002
{
1070
    19
1005
C75
1002
}
  0
INSERT
  5
162E
  8
0
  6
CONTINUOUS
  2
*X5
 10
0.0
 20
0.0
 30
0.0
1001
ACAD
1000
HATCH
1002
{
1070
    19
1000
_USER
1040
1.5
1040
0.7853981633974483
1000
ASC_BOUNDS
1070
     1
1070
     1
1070
    10
1005
B9D
1005
B9E
1005
A30
1005
C5F
1005
C5E
1005
B91
1005
A2F
1005
B90
1005
B9F
1005
BA0
1000
ASC_SEEDPOINT
1011
174.5494494159453
1021
8.2275227924726147E+062
1031
0.0
1021
211.9045748102545
1031
0.0
1000
R14_HATCH_DATA
1000
C75
1011
1.0
1021
8.2275227924726147E+062
1031
0.0
1021
0.0
1031
0.0
1011
0.0
1021
8.2275227924726147E+062
1031
0.0
1021
1.0
1031
0.0
1011
0.0
1021
8.2275227924726147E+062
1031
0.0
1021
0.0
1031
1.0
1040
0.0
1010
0.0
1020
0.0
1030
1.0
1000
_USER
1070
     0
1070
     1
1071
        1
1071
        7
1070
     1
1070
     1
1071
       10
1040
208.3901509110039
1040
212.31641896793491
1040
0.0
1040
208.3901509110039
1040
212.81641896793511
1040
0.0
1040
209.8901509110039
1040
212.81641896793491
1040
0.4142135623730991
1040
211.8901509110039
1040
214.81641896793491
1040
0.0
1040
211.8901509110039
1040
222.81641896793491
1040
0.0
1040
210.89015091100379
1040
222.81641896793491
1040
0.0
1040
210.89015091100379
1040
213.81641896793491
1040
0.0
1040
99.890150911003957
1040
213.81641896793491
1040
0.0
1040
99.890150911003985
1040
212.31641896793491
1040
0.7500000000000441
1040
103.8901509110039
1040
212.31641896793511
1040
0.0287081339712919
1071
       10
1005
BA0
1005
B9F
1005
B90
1005
A2F
1005
B91
1005
C5E
1005
C5F
1005
A30
1005
B9E
1005
B9D
1070
     0
1070
     0
1040
0.7853981633974483
1040
1.5
1070
     1
1070
     2
1040
0.7853981633974483
1040
0.0
1040
1.9096873930216121
1040
-1.0606601717798201
1040
1.0606601717798201
1070
     0
1040
2.3561944901923431
1040
0.0
1040
1.9096873930216121
1040
-1.0606601717798201
1040
-1.0606601717798201
1070
     0
1040
0.1181460930054251
1071
        1
1040
174.5494494159453
1040
211.9045748102545
1040
0.0
1002
}
  0
LINE
  5
162F
  8
0
 10
120.89015091100519
 20
46.983973094361772
 30
0.0
 11
191.89015091100421
 21
46.983973094361971
 31
0.0
  0
ARC
  5
1630
  8
0
 10
156.39015091100461
 20
676.60897309433756
 30
0.0
 40
630.62499999997556
 50
266.77292213423749
 51
273.22707786576228
  0
ARC
  5
1631
  8
0
 10
156.39015091100461
 20
-161.5576935722994
 30
0.0
 40
211.5416666666614
 50
80.339160083419955
 51
99.660839916579945
  0
ARC
  5
1632
  8
0
 10
156.3901509110039
 20
-170.33413888553011
 30
0.0
 40
230.51136363636309
 50
81.140881402044698
 51
98.859118597955302
  0
LINE
  5
1633
  8
0
 10
204.94988919216181
 20
57.569803700147048
 30
0.0
 11
214.84701512370501
 21
59.124489606737349
 31
0.0
  0
ARC
  5
1634
  8
0
 10
203.2672572569202
 20
67.42722475083292
 30
0.0
 40
10.0
 50
270.0
 51
279.68685278900142
  0
LINE
  5
1635
  8
0
 10
113.3901509110039
 20
57.42722475083297
 30
0.0
 11
113.3901509110039
 21
43.927224750832913
 31
0.0
  0
LINE
  5
1636
  8
0
 10
112.3901509110039
 20
57.42722475083297
 30
0.0
 11
112.3901509110039
 21
43.927224750832913
 31
0.0
  0
LINE
  5
1637
  8
0
 10
109.3901509110039
 20
57.42722475083297
 30
0.0
 11
109.3901509110039
 21
43.927224750832913
 31
0.0
  0
LINE
  5
1638
  8
0
 10
108.3901509110039
 20
57.42722475083297
 30
0.0
 11
108.3901509110039
 21
43.927224750832913
 31
0.0
  0
ARC
  5
1639
  8
0
 10
102.1401509110039
 20
58.927224750832949
 30
0.0
 40
2.25
 50
0.0
 51
180.0
  0
LINE
  5
163A
  8
0
 10
104.3901509110039
 20
58.927224750832949
 30
0.0
 11
104.3901509110039
 21
57.427224750832941
 31
0.0
  0
ARC
  5
163B
  8
0
 10
156.39015091100379
 20
1316.927224750842
 30
0.0
 40
1260.5000000000091
 50
268.38614108979522
 51
271.61385891020473
  0
LINE
  5
163C
  8
0
 10
99.890150911003957
 20
58.927224750832949
 30
0.0
 11
99.890150911003929
 21
28.927224750832892
 31
0.0
1001
ACAD
1000
ASC_BOUNDS
1002
{
1070
    19
1005
F5A
1002
}
  0
ARC
  5
163D
  8
0
 10
215.39015091100379
 20
55.666888774287862
 30
0.0
 40
3.5
 50
0.0
 51
98.927331709443692
  0
LINE
  5
163E
  8
0
 10
203.2672572569202
 20
57.42722475083292
 30
0.0
 11
191.8901509110039
 21
57.427224750832949
 31
0.0
  0
LINE
  5
163F
  8
0
 10
120.8901509110039
 20
57.427224750832949
 30
0.0
 11
104.3901509110039
 21
57.427224750832941
 31
0.0
  0
LINE
  5
1640
  8
0
 10
204.94988919216181
 20
30.284645801518788
 30
0.0
 11
214.84701512370501
 21
28.729959894928481
 31
0.0
1001
ACAD
1000
ASC_BOUNDS
1002
{
1070
    19
1005
F5A
1002
}
  0
LINE
  5
1641
  8
0
  6
CENTER
 10
96.890150911003943
 20
43.927224750832913
 30
0.0
 11
221.8901509110039
 21
43.927224750832913
 31
0.0
1001
ACAD
1000
ASC_BOUNDS
1002
{
1070
    19
1005
F5A
1002
}
  0
ARC
  5
1642
  8
0
 10
156.3901509110039
 20
258.18858838719609
 30
0.0
 40
230.51136363636309
 50
261.14088140204461
 51
278.8591185979551
1001
ACAD
1000
ASC_BOUNDS
1002
{
1070
    19
1005
F5A
1002
}
  0
LINE
  5
1643
  8
0
 10
120.8901509110039
 20
30.427224750832892
 30
0.0
 11
104.3901509110039
 21
30.427224750832892
 31
0.0
1001
ACAD
1000
ASC_BOUNDS
1002
{
1070
    19
1005
F5A
1002
}
  0
ARC
  5
1644
  8
0
 10
102.1401509110039
 20
28.927224750832892
 30
0.0
 40
2.25
 50
180.0
 51
0.0
1001
ACAD
1000
ASC_BOUNDS
1002
{
1070
    19
1005
F5A
1002
}
  0
LINE
  5
1645
  8
0
 10
104.3901509110039
 20
28.927224750832892
 30
0.0
 11
104.3901509110039
 21
30.427224750832892
 31
0.0
1001
ACAD
1000
ASC_BOUNDS
1002
{
1070
    19
1005
F5A
1002
}
  0
LINE
  5
1646
  8
0
 10
203.2672572569202
 20
30.42722475083292
 30
0.0
 11
191.8901509110039
 21
30.427224750832892
 31
0.0
1001
ACAD
1000
ASC_BOUNDS
1002
{
1070
    19
1005
F5A
1002
}
  0
ARC
  5
1647
  8
0
 10
203.2672572569202
 20
20.42722475083292
 30
0.0
 40
10.0
 50
80.313147210998565
 51
90.000000000000057
1001
ACAD
1000
ASC_BOUNDS
1002
{
1070
    19
1005
F5A
1002
}
  0
ARC
  5
1648
  8
0
 10
215.39015091100379
 20
32.187560727377971
 30
0.0
 40
3.5
 50
261.07266829055612
 51
0.0
1001
ACAD
1000
ASC_BOUNDS
1002
{
1070
    19
1005
F5A
1002
}
  0
LINE
  5
1649
  8
0
 10
99.890150911003929
 20
31.42722475083292
 30
0.0
 11
215.8901509110039
 21
31.42722475083292
 31
0.0
1001
ACAD
1000
ASC_BOUNDS
1002
{
1070
    19
1005
F5A
1002
}
  0
LINE
  5
164A
  8
0
 10
215.8901509110039
 20
43.927224750832913
 30
0.0
 11
215.8901509110039
 21
31.42722475083292
 31
0.0
1001
ACAD
1000
ASC_BOUNDS
1002
{
1070
    19
1005
F5A
1002
}
  0
INSERT
  5
164B
  8
0
  6
CONTINUOUS
  2
*X6
 10
0.0
 20
0.0
 30
0.0
1001
ACAD
1000
HATCH
1002
{
1070
    19
1000
_USER
1040
1.5
1040
0.7853981633974483
1000
ASC_BOUNDS
1070
     1
1070
     1
1070
    13
1005
EBA
1005
EBC
1005
EBE
1005
EBD
1005
E2A
1005
EC4
1005
F4C
1005
EB0
1005
C5C
1005
EC2
1005
EAF
1005
EC0
1005
EBF
1000
ASC_SEEDPOINT
1011
178.39685231891511
1021
8.2275227924726147E+062
1031
0.0
1021
30.264176172445261
1031
0.0
1000
R14_HATCH_DATA
1000
F5A
1011
1.0
1021
8.2275227924726147E+062
1031
0.0
1021
0.0
1031
0.0
1011
0.0
1021
8.2275227924726147E+062
1031
0.0
1021
1.0
1031
0.0
1011
0.0
1021
8.2275227924726147E+062
1031
0.0
1021
0.0
1031
1.0
1040
0.0
1010
0.0
1020
0.0
1030
1.0
1000
_USER
1070
     0
1070
     1
1071
        1
1071
        7
1070
     1
1070
     1
1071
       13
1040
99.890150911003929
1040
31.42722475083292
1040
0.0
1040
99.890150911003929
1040
28.927224750832892
1040
1.0
1040
104.3901509110039
1040
28.927224750832892
1040
0.0
1040
104.3901509110039
1040
30.427224750832892
1040
0.0
1040
120.890150911004
1040
30.427224750832892
1040
0.0774647887323945
1040
191.8901509110039
1040
30.427224750832849
1040
0.0
1040
203.2672572569202
1040
30.42722475083292
1040
-0.0422920565843642
1040
204.94988919216149
1040
30.284645801518838
1040
0.0
1040
214.84701512370501
1040
28.729959894928481
1040
0.4606219083798981
1040
218.8901509110039
1040
32.187560727377971
1040
0.0
1040
218.8901509110039
1040
43.927224750832913
1040
0.0
1040
215.8901509110039
1040
43.927224750832913
1040
0.0
1040
215.8901509110039
1040
31.42722475083292
1040
0.0
1071
       13
1005
EBF
1005
EC0
1005
EAF
1005
EC2
1005
C5C
1005
EB0
1005
F4C
1005
EC4
1005
E2A
1005
EBD
1005
EBE
1005
EBC
1005
EBA
1070
     0
1070
     0
1040
0.7853981633974483
1040
1.5
1070
     1
1070
     2
1040
0.7853981633974483
1040
0.0
1040
-3.8193743147052142
1040
-1.0606601717798201
1040
1.0606601717798201
1070
     0
1040
2.3561944901923431
1040
0.0
1040
-3.8193743147052142
1040
-1.0606601717798201
1040
-1.0606601717798201
1070
     0
1040
0.1516535600627167
1071
        1
1040
178.39685231891511
1040
30.264176172445261
1040
0.0
1002
}
  0
VIEWPORT
  5
164E
 67
     1
  8
0
 10
143.47825622558591
 20
99.980751991272001
 30
0.0
 40
339.12752973873143
 41
222.1965796813964
 68
     1
 69
     1
1001
ACAD
1000
MVIEW
1002
{
1070
    16
1010
0.0
1020
0.0
1030
0.0
1010
0.0
1020
0.0
1030
1.0
1040
0.0
1040
222.1965796813964
1040
143.47825622558591
1040
99.980751991272001
1040
50.0
1040
0.0
1040
0.0
1070
     0
1070
   100
1070
     1
1070
     1
1070
     0
1070
     0
1070
     0
1070
     0
1040
0.0
1040
0.0
1040
0.0
1040
10.0
1040
10.0
1040
10.0
1040
10.0
1070
     0
1002
{
1002
}
1002
}
  0
VIEWPORT
  5
1650
 67
     1
  8
0
 10
143.37242841720581
 20
99.874916553497314
 30
0.0
 40
229.3958854675293
 41
159.7998664855956
 68
     2
 69
     2
1001
ACAD
1000
MVIEW
1002
{
1070
    16
1010
0.0
1020
0.0
1030
0.0
1010
0.0
1020
0.0
1030
1.0
1040
0.0
1040
300.10452961672462
1040
210.0
1040
148.5
1040
50.0
1040
0.0
1040
0.0
1070
     0
1070
   100
1070
     1
1070
     2
1070
     0
1070
     0
1070
     0
1070
     0
1040
0.0
1040
0.0
1040
0.0
1040
10.0
1040
10.0
1040
10.0
1040
10.0
1070
     0
1002
{
1002
}
1002
}
  0
ENDSEC
  0
EOF
