  0
SECTION
  2
HEADER
  9
$ACADVER
  1
AC1009
  9
$INSBASE
 10
0.0
 20
0.0
 30
0.0
  9
$EXTMIN
 10
9.4252966863864458
 20
-203.03033262983709
 30
-0.0015258207003583
  9
$EXTMAX
 10
906.52856736179501
 20
539.02365292751165
 30
0.0000000349246037
  9
$LIMMIN
 10
0.0
 20
0.0
  9
$LIMMAX
 10
420.0
 20
297.0
  9
$ORTHOMODE
 70
     1
  9
$REGENMODE
 70
     1
  9
$FILLMODE
 70
     1
  9
$QTEXTMODE
 70
     0
  9
$MIRRTEXT
 70
     1
  9
$DRAGMODE
 70
     2
  9
$LTSCALE
 40
1.0
  9
$OSMODE
 70
    40
  9
$ATTMODE
 70
     1
  9
$TEXTSIZE
 40
3.5
  9
$TRACEWID
 40
6.0
  9
$TEXTSTYLE
  7
STANDARD
  9
$CLAYER
  8
0
  9
$CELTYPE
  6
BYLAYER
  9
$CECOLOR
 62
   256
  9
$DIMSCALE
 40
1.0
  9
$DIMASZ
 40
2.5
  9
$DIMEXO
 40
0.625
  9
$DIMDLI
 40
3.75
  9
$DIMRND
 40
0.0
  9
$DIMDLE
 40
0.0
  9
$DIMEXE
 40
1.25
  9
$DIMTP
 40
0.0
  9
$DIMTM
 40
0.0
  9
$DIMTXT
 40
2.5
  9
$DIMCEN
 40
2.5
  9
$DIMTSZ
 40
0.0
  9
$DIMTOL
 70
     0
  9
$DIMLIM
 70
     0
  9
$DIMTIH
 70
     1
  9
$DIMTOH
 70
     0
  9
$DIMSE1
 70
     0
  9
$DIMSE2
 70
     0
  9
$DIMTAD
 70
     1
  9
$DIMZIN
 70
     8
  9
$DIMBLK
  1

  9
$DIMASO
 70
     1
  9
$DIMSHO
 70
     1
  9
$DIMPOST
  1

  9
$DIMAPOST
  1

  9
$DIMALT
 70
     0
  9
$DIMALTD
 70
     2
  9
$DIMALTF
 40
0.0394
  9
$DIMLFAC
 40
1.0
  9
$DIMTOFL
 70
     1
  9
$DIMTVP
 40
1.0
  9
$DIMTIX
 70
     0
  9
$DIMSOXD
 70
     0
  9
$DIMSAH
 70
     0
  9
$DIMBLK1
  1

  9
$DIMBLK2
  1

  9
$DIMSTYLE
  2
STANDARD
  9
$DIMCLRD
 70
     0
  9
$DIMCLRE
 70
     0
  9
$DIMCLRT
 70
     0
  9
$DIMTFAC
 40
1.0
  9
$DIMGAP
 40
0.625
  9
$LUNITS
 70
     2
  9
$LUPREC
 70
     4
  9
$SKETCHINC
 40
1.0
  9
$FILLETRAD
 40
2.0
  9
$AUNITS
 70
     0
  9
$AUPREC
 70
     0
  9
$MENU
  1
acad
  9
$ELEVATION
 40
0.0
  9
$PELEVATION
 40
0.0
  9
$THICKNESS
 40
0.0
  9
$LIMCHECK
 70
     0
  9
$BLIPMODE
 70
     0
  9
$CHAMFERA
 40
10.0
  9
$CHAMFERB
 40
10.0
  9
$SKPOLY
 70
     0
  9
$TDCREATE
 40
2450498.4258581009
  9
$TDUPDATE
 40
2452236.606959363
  9
$TDINDWG
 40
0.5214966204
  9
$TDUSRTIMER
 40
0.5214966204
  9
$USRTIMER
 70
     1
  9
$ANGBASE
 50
0.0
  9
$ANGDIR
 70
     0
  9
$PDMODE
 70
     0
  9
$PDSIZE
 40
0.0
  9
$PLINEWID
 40
0.0
  9
$COORDS
 70
     2
  9
$SPLFRAME
 70
     0
  9
$SPLINETYPE
 70
     6
  9
$SPLINESEGS
 70
     8
  9
$ATTDIA
 70
     0
  9
$ATTREQ
 70
     1
  9
$HANDLING
 70
-16383
  9
$HANDSEED
  5
575
  9
$SURFTAB1
 70
     6
  9
$SURFTAB2
 70
     6
  9
$SURFTYPE
 70
     6
  9
$SURFU
 70
     6
  9
$SURFV
 70
     6
  9
$UCSNAME
  2

  9
$UCSORG
 10
0.0
 20
0.0
 30
0.0
  9
$UCSXDIR
 10
1.0
 20
0.0
 30
0.0
  9
$UCSYDIR
 10
0.0
 20
1.0
 30
0.0
  9
$PUCSNAME
  2

  9
$PUCSORG
 10
0.0
 20
0.0
 30
0.0
  9
$PUCSXDIR
 10
1.0
 20
0.0
 30
0.0
  9
$PUCSYDIR
 10
0.0
 20
1.0
 30
0.0
  9
$USERI1
 70
     0
  9
$USERI2
 70
     0
  9
$USERI3
 70
     0
  9
$USERI4
 70
     0
  9
$USERI5
 70
     0
  9
$USERR1
 40
0.0
  9
$USERR2
 40
0.0
  9
$USERR3
 40
0.0
  9
$USERR4
 40
0.0
  9
$USERR5
 40
0.0
  9
$WORLDVIEW
 70
     1
  9
$SHADEDGE
 70
     3
  9
$SHADEDIF
 70
    70
  9
$TILEMODE
 70
     1
  9
$MAXACTVP
 70
    16
  9
$PLIMCHECK
 70
     0
  9
$PEXTMIN
 10
1.0000000000000000E+020
 20
1.0000000000000000E+020
 30
1.0000000000000000E+020
  9
$PEXTMAX
 10
-1.0000000000000000E+020
 20
-1.0000000000000000E+020
 30
-1.0000000000000000E+020
  9
$PLIMMIN
 10
0.0
 20
0.0
  9
$PLIMMAX
 10
420.0
 20
297.0
  9
$UNITMODE
 70
     0
  9
$VISRETAIN
 70
     0
  9
$PLINEGEN
 70
     0
  9
$PSLTSCALE
 70
     1
  0
ENDSEC
  0
SECTION
  2
TABLES
  0
TABLE
  2
VPORT
 70
     4
  0
VPORT
  2
*ACTIVE
 70
     0
 10
0.0
 20
0.0
 11
1.0
 21
1.0
 12
457.97693202409062
 22
167.99666014883721
 13
0.0
 23
0.0
 14
0.5
 24
0.5
 15
10.0
 25
10.0
 16
0.0
 26
0.0
 36
1.0
 17
0.0
 27
0.0
 37
0.0
 40
1495.451471530861
 41
1.5573979591836731
 42
50.0
 43
0.0
 44
0.0
 50
0.0
 51
0.0
 71
     0
 72
   100
 73
     1
 74
     0
 75
     1
 76
     0
 77
     0
 78
     0
  0
ENDTAB
  0
TABLE
  2
LTYPE
 70
    25
  0
LTYPE
  2
CONTINUOUS
 70
     0
  3
Solid line
 72
    65
 73
     0
 40
0.0
  0
LTYPE
  2
CENTER
 70
     0
  3
____ _ ____ _ ____ _ ____ _ ____ _ ____ _ ____ 
 72
    65
 73
     4
 40
2.0
 49
1.25
 49
-0.25
 49
0.25
 49
-0.25
  0
LTYPE
  2
DASHED
 70
     0
  3
__ __ __ __ __ __ __ __ __ __ __ __ __ __ __ __
 72
    65
 73
     2
 40
0.75
 49
0.5
 49
-0.25
  0
ENDTAB
  0
TABLE
  2
LAYER
 70
     1
  0
LAYER
  2
0
 70
     0
 62
     7
  6
CONTINUOUS
  0
ENDTAB
  0
TABLE
  2
STYLE
 70
     1
  0
STYLE
  2
STANDARD
 70
     0
 40
0.0
 41
1.0
 50
0.0
 71
     0
 42
3.5
  3
txt
  4

  0
ENDTAB
  0
TABLE
  2
VIEW
 70
     0
  0
ENDTAB
  0
TABLE
  2
UCS
 70
     0
  0
ENDTAB
  0
TABLE
  2
APPID
 70
     1
  0
APPID
  2
ACAD
 70
     0
  0
ENDTAB
  0
TABLE
  2
DIMSTYLE
 70
     1
  0
DIMSTYLE
  2
STANDARD
 70
     0
  3

  4

  5

  6

  7

 40
1.0
 41
0.18
 42
0.0625
 43
0.38
 44
0.18
 45
0.0
 46
0.0
 47
0.0
 48
0.0
140
0.18
141
0.09
142
0.0
143
25.399999999999999
144
1.0
145
0.0
146
1.0
147
0.09
 71
     0
 72
     0
 73
     1
 74
     1
 75
     0
 76
     0
 77
     0
 78
     0
170
     0
171
     2
172
     0
173
     0
174
     0
175
     0
176
     0
177
     0
178
     0
  0
ENDTAB
  0
ENDSEC
  0
SECTION
  2
BLOCKS
  0
BLOCK
  8
0
  2
$MODEL_SPACE
 70
     0
 10
0.0
 20
0.0
 30
0.0
  3
$MODEL_SPACE
  1

  0
ENDBLK
  5
49
  8
0
  0
BLOCK
 67
     1
  8
0
  2
$PAPER_SPACE
 70
     0
 10
0.0
 20
0.0
 30
0.0
  3
$PAPER_SPACE
  1

  0
ENDBLK
  5
47
 67
     1
  8
0
  0
ENDSEC
  0
SECTION
  2
ENTITIES
  0
CIRCLE
  5
15C
  8
0
 10
100.0
 20
300.0
 30
0.0
 40
50.0
  0
CIRCLE
  5
15D
  8
0
 10
100.0
 20
300.0
 30
0.0
 40
48.5
  0
ARC
  5
15E
  8
0
 10
100.0
 20
300.0
 30
0.0
 40
37.5
 50
102.54239687627781
 51
77.457603123722109
  0
ARC
  5
15F
  8
0
 10
100.0
 20
300.0
 30
0.0
 40
36.0
 50
103.45775480635039
 51
76.542245193649549
  0
ARC
  5
160
  8
0
 10
100.0
 20
300.0
 30
0.0
 40
10.0
 50
328.21166938294829
 51
31.788330617051621
  0
LINE
  5
161
  8
0
 10
110.4999999999999
 20
312.0
 30
0.0
 11
110.4999999999999
 21
274.5
 31
0.0
  0
LINE
  5
162
  8
0
 10
89.500000000000014
 20
274.5
 30
0.0
 11
89.500000000000014
 21
312.0
 31
0.0
  0
ARC
  5
163
  8
0
 10
100.0
 20
274.5
 30
0.0
 40
10.5
 50
180.0
 51
0.0
  0
LINE
  5
164
  8
0
 10
91.25
 20
330.0
 30
0.0
 11
96.25
 21
330.0
 31
0.0
  0
LINE
  5
165
  8
0
 10
91.25
 20
330.0
 30
0.0
 11
89.500000000000014
 21
312.0
 31
0.0
  0
LINE
  5
166
  8
0
 10
108.75
 20
330.0
 30
0.0
 11
110.4999999999999
 21
312.0
 31
0.0
  0
ARC
  5
167
  8
0
 10
100.0
 20
336.5
 30
0.0
 40
4.0
 50
318.59037789072897
 51
41.409622109270963
  0
LINE
  5
168
  8
0
 10
91.856425766007206
 20
336.60508432848428
 30
0.0
 11
95.381197846482976
 21
330.5
 31
0.0
  0
LINE
  5
169
  8
0
 10
104.618802153517
 20
330.5
 30
0.0
 11
108.14357423399269
 21
336.60508432848422
 31
0.0
  0
LINE
  5
16A
  8
0
 10
96.535898384862264
 20
342.5
 30
0.0
 11
93.071796769724486
 21
336.5
 31
0.0
  0
LINE
  5
16B
  8
0
 10
93.071796769724486
 20
336.5
 30
0.0
 11
96.535898384862264
 21
330.5
 31
0.0
  0
LINE
  5
16C
  8
0
 10
95.381197846482976
 20
330.5
 30
0.0
 11
104.6188021535169
 21
330.5
 31
0.0
  0
LINE
  5
16D
  8
0
 10
103.46410161513769
 20
330.5
 30
0.0
 11
106.9282032302755
 21
336.5
 31
0.0
  0
LINE
  5
16E
  8
0
 10
106.9282032302755
 20
336.5
 30
0.0
 11
103.46410161513769
 21
342.5
 31
0.0
  0
LINE
  5
16F
  8
0
 10
103.46410161513769
 20
342.5
 30
0.0
 11
96.535898384862264
 21
342.5
 31
0.0
  0
LINE
  5
170
  8
0
 10
105.4848275573014
 20
330.0
 30
0.0
 11
108.3782207760789
 21
335.01150406119791
 31
0.0
  0
LINE
  5
171
  8
0
 10
91.621779223921024
 20
335.01150406119791
 30
0.0
 11
94.515172442698542
 21
330.0
 31
0.0
  0
LINE
  5
172
  8
0
 10
103.0
 20
330.5
 30
0.0
 11
103.0
 21
340.0
 31
0.0
  0
LINE
  5
173
  8
0
 10
103.0
 20
340.0
 30
0.0
 11
97.0
 21
340.0
 31
0.0
  0
LINE
  5
174
  8
0
 10
97.0
 20
340.0
 30
0.0
 11
97.0
 21
330.5
 31
0.0
  0
ARC
  5
175
  8
0
 10
100.0
 20
336.5
 30
0.0
 40
4.0
 50
61.044975628140243
 51
118.95502437185969
  0
ARC
  5
176
  8
0
 10
100.0
 20
336.5
 30
0.0
 40
4.0
 50
138.590377890729
 51
221.40962210927091
  0
LINE
  5
177
  8
0
 10
102.75
 20
330.5
 30
0.0
 11
102.75
 21
338.5
 31
0.0
  0
LINE
  5
178
  8
0
 10
97.250000000000014
 20
330.5
 30
0.0
 11
97.250000000000014
 21
338.5
 31
0.0
  0
ARC
  5
179
  8
0
 10
100.0
 20
335.21874999999989
 30
0.0
 40
4.28125
 50
50.033786956200032
 51
129.96621304379991
  0
LINE
  5
17A
  8
0
 10
103.4999999999999
 20
330.5
 30
0.0
 11
104.4999999999999
 21
328.5
 31
0.0
  0
LINE
  5
17B
  8
0
 10
96.5
 20
330.5
 30
0.0
 11
95.5
 21
328.5
 31
0.0
  0
LINE
  5
17C
  8
0
 10
103.75
 20
330.0
 30
0.0
 11
108.75
 21
330.0
 31
0.0
  0
LINE
  5
17D
  8
0
 10
107.4999999999999
 20
328.5
 30
0.0
 11
92.75
 21
328.5
 31
0.0
  0
LINE
  5
17E
  8
0
 10
92.75
 20
328.5
 30
0.0
 11
91.5
 21
309.0
 31
0.0
  0
LINE
  5
17F
  8
0
 10
91.5
 20
309.0
 30
0.0
 11
108.4999999999999
 21
309.0
 31
0.0
  0
LINE
  5
180
  8
0
 10
108.4999999999999
 20
309.0
 30
0.0
 11
107.4999999999999
 21
328.5
 31
0.0
  0
LINE
  5
181
  8
0
 10
91.5
 20
309.0
 30
0.0
 11
91.5
 21
281.49999999999989
 31
0.0
  0
LINE
  5
182
  8
0
 10
108.4999999999999
 20
281.49999999999989
 30
0.0
 11
108.4999999999999
 21
309.0
 31
0.0
  0
ARC
  5
183
  8
0
 10
100.0
 20
300.0
 30
0.0
 40
10.0
 50
148.21166938294829
 51
211.7883306170516
  0
ARC
  5
184
  8
0
 10
100.0
 20
304.83333333333331
 30
0.0
 40
24.833333333333339
 50
249.9840403971173
 51
290.01595960288262
  0
LINE
  5
185
  8
0
 10
108.4999999999999
 20
281.49999999999989
 30
0.0
 11
91.5
 21
281.49999999999989
 31
0.0
  0
LINE
  5
186
  8
0
  6
CENTER
 10
100.0
 20
247.0
 30
0.0
 11
100.0
 21
353.0
 31
0.0
  0
LINE
  5
187
  8
0
  6
CENTER
 10
47.0
 20
300.0
 30
0.0
 11
153.0
 21
300.0
 31
0.0
  0
LINE
  5
188
  8
0
 10
181.49999999999989
 20
315.0
 30
0.0
 11
204.0
 21
315.0
 31
0.0
  0
LINE
  5
189
  8
0
 10
204.0
 20
315.0
 30
0.0
 11
204.0
 21
329.0
 31
0.0
  0
LINE
  5
18A
  8
0
 10
222.0
 20
346.15137194658098
 30
0.0
 11
222.0
 21
329.0
 31
0.0
  0
LINE
  5
18B
  8
0
 10
198.0
 20
346.27442072521342
 30
0.0
 11
198.0
 21
315.0
 31
0.0
  0
LINE
  5
18C
  8
0
 10
198.0
 20
329.0
 30
0.0
 11
204.0
 21
329.0
 31
0.0
  0
LINE
  5
18D
  8
0
 10
201.7183240015431
 20
349.76760474990351
 30
0.0
 11
219.65594571538799
 21
348.64650339278819
 31
0.0
  0
LINE
  5
18E
  8
0
 10
180.0
 20
313.5
 30
0.0
 11
180.0
 21
300.0
 31
0.0
  0
LINE
  5
18F
  8
0
 10
198.0
 20
331.0
 30
0.0
 11
201.5
 21
331.0
 31
0.0
  0
LINE
  5
190
  8
0
 10
201.5
 20
331.0
 30
0.0
 11
201.5
 21
342.0
 31
0.0
  0
LINE
  5
191
  8
0
 10
201.5
 20
342.0
 30
0.0
 11
198.0
 21
342.0
 31
0.0
  0
LINE
  5
192
  8
0
 10
198.0
 20
344.0
 30
0.0
 11
218.0
 21
344.0
 31
0.0
  0
LINE
  5
193
  8
0
 10
198.0
 20
346.0128205128205
 30
0.0
 11
218.0
 21
345.5
 31
0.0
  0
LINE
  5
194
  8
0
 10
218.0
 20
345.5
 30
0.0
 11
218.0
 21
344.0
 31
0.0
  0
ARC
  5
195
  8
0
 10
201.5
 20
346.27442072521342
 30
0.0
 40
3.5
 50
86.423665625002656
 51
180.0
  0
ARC
  5
196
  8
0
 10
181.49999999999989
 20
313.5
 30
0.0
 40
1.5
 50
90.0
 51
180.0
  0
ARC
  5
197
  8
0
 10
219.5
 20
346.15137194658098
 30
0.0
 40
2.5
 50
359.99999999999989
 51
86.423665625002613
  0
LINE
  5
198
  8
0
 10
222.0
 20
253.84862805341891
 30
0.0
 11
222.0
 21
300.0
 31
0.0
  0
ARC
  5
199
  8
0
 10
219.5
 20
253.84862805341891
 30
0.0
 40
2.5
 50
273.57633437499732
 51
0.0000000000000509
  0
LINE
  5
19A
  8
0
 10
201.7183240015431
 20
250.2323952500964
 30
0.0
 11
219.65594571538799
 21
251.3534966072117
 31
0.0
  0
ARC
  5
19B
  8
0
 10
201.5
 20
253.7255792747865
 30
0.0
 40
3.5
 50
180.0
 51
273.57633437499732
  0
LINE
  5
19C
  8
0
 10
198.0
 20
253.7255792747865
 30
0.0
 11
198.0
 21
300.0
 31
0.0
  0
LINE
  5
19D
  8
0
 10
181.49999999999989
 20
285.0
 30
0.0
 11
198.0
 21
285.0
 31
0.0
  0
LINE
  5
19E
  8
0
 10
180.0
 20
286.5
 30
0.0
 11
180.0
 21
300.0
 31
0.0
  0
ARC
  5
19F
  8
0
 10
181.49999999999989
 20
286.5
 30
0.0
 40
1.5
 50
180.0
 51
270.0
  0
LINE
  5
1A0
  8
0
  6
CENTER
 10
177.0
 20
300.0
 30
0.0
 11
227.0
 21
300.0
 31
0.0
  0
LINE
  5
1A1
  8
0
 10
201.5
 20
339.0
 30
0.0
 11
204.0
 21
339.0
 31
0.0
  0
LINE
  5
1A2
  8
0
 10
201.5
 20
334.0
 30
0.0
 11
204.0
 21
334.0
 31
0.0
  0
LINE
  5
1A3
  8
0
 10
204.0
 20
342.5
 30
0.0
 11
222.0
 21
342.5
 31
0.0
  0
LINE
  5
1A4
  8
0
 10
204.0
 20
330.5
 30
0.0
 11
211.5
 21
330.5
 31
0.0
  0
LINE
  5
1A5
  8
0
 10
204.0
 20
330.5
 30
0.0
 11
204.0
 21
342.5
 31
0.0
  0
LINE
  5
1A6
  8
0
 10
211.5
 20
330.0
 30
0.0
 11
207.0
 21
330.0
 31
0.0
  0
LINE
  5
1A7
  8
0
 10
207.0
 20
330.0
 30
0.0
 11
207.0
 21
300.0
 31
0.0
  0
LINE
  5
1A8
  8
0
 10
211.5
 20
330.5
 30
0.0
 11
211.5
 21
330.0
 31
0.0
  0
ARC
  5
1A9
  8
0
 10
204.30000000000001
 20
336.5
 30
0.0
 40
5.300000000000006
 50
121.89079180184579
 51
163.5595368833616
  0
LINE
  5
1AA
  8
0
 10
199.2166939891444
 20
338.0
 30
0.0
 11
201.0
 21
338.0
 31
0.0
  0
LINE
  5
1AB
  8
0
 10
201.0
 20
338.0
 30
0.0
 11
201.0
 21
335.0
 31
0.0
  0
LINE
  5
1AC
  8
0
 10
201.0
 20
335.0
 30
0.0
 11
199.2166939891444
 21
335.0
 31
0.0
  0
LINE
  5
1AD
  8
0
 10
199.2166939891444
 20
338.0
 30
0.0
 11
199.2166939891444
 21
335.0
 31
0.0
  0
ARC
  5
1AE
  8
0
 10
204.30000000000001
 20
336.5
 30
0.0
 40
5.300000000000006
 50
196.44046311663831
 51
238.10920819815411
  0
LINE
  5
1AF
  8
0
 10
201.0
 20
337.5
 30
0.0
 11
199.2166939891444
 21
337.5
 31
0.0
  0
LINE
  5
1B0
  8
0
 10
201.0
 20
335.49999999999989
 30
0.0
 11
199.2166939891444
 21
335.49999999999989
 31
0.0
  0
ARC
  5
1B1
  8
0
 10
215.5
 20
305.33333333333331
 30
0.0
 40
24.833333333333339
 50
285.17362750393681
 51
290.01595960288262
  0
LINE
  5
1B2
  8
0
 10
224.0
 20
282.0
 30
0.0
 11
222.0
 21
282.0
 31
0.0
  0
LINE
  5
1B3
  8
0
 10
224.0
 20
282.0
 30
0.0
 11
224.0
 21
309.5
 31
0.0
  0
LINE
  5
1B4
  8
0
 10
207.0
 20
309.5
 30
0.0
 11
207.0
 21
300.0
 31
0.0
  0
LINE
  5
1B5
  8
0
 10
207.0
 20
309.5
 30
0.0
 11
224.0
 21
309.5
 31
0.0
  0
LINE
  5
1B6
  8
0
 10
208.25
 20
329.0
 30
0.0
 11
207.0
 21
309.5
 31
0.0
  0
LINE
  5
1B7
  8
0
 10
224.0
 20
309.5
 30
0.0
 11
223.0
 21
329.0
 31
0.0
  0
LINE
  5
1B8
  8
0
 10
223.0
 20
329.0
 30
0.0
 11
208.25
 21
329.0
 31
0.0
  0
LINE
  5
1B9
  8
0
 10
219.0
 20
331.0
 30
0.0
 11
220.0
 21
329.0
 31
0.0
  0
LINE
  5
1BA
  8
0
 10
212.0
 20
331.0
 30
0.0
 11
211.0
 21
329.0
 31
0.0
  0
LINE
  5
1BB
  8
0
 10
212.74999999999989
 20
331.0
 30
0.0
 11
212.74999999999989
 21
339.0
 31
0.0
  0
ARC
  5
1BC
  8
0
 10
215.5
 20
335.71875
 30
0.0
 40
4.28125
 50
50.033786956200032
 51
129.96621304379991
  0
LINE
  5
1BD
  8
0
 10
218.25
 20
331.0
 30
0.0
 11
218.25
 21
339.0
 31
0.0
  0
LINE
  5
1BE
  8
0
  6
DASHED
 10
222.5
 20
344.0
 30
0.0
 11
222.5
 21
329.24999999999989
 31
0.0
  0
LINE
  5
1BF
  8
0
  6
DASHED
 10
242.0
 20
328.0
 30
0.0
 11
242.0
 21
345.0
 31
0.0
  0
LINE
  5
1C0
  8
0
  6
DASHED
 10
269.49999999999989
 20
345.0
 30
0.0
 11
269.49999999999989
 21
328.0
 31
0.0
  0
ARC
  5
1C1
  8
0
  6
DASHED
 10
246.1666666666666
 20
336.5
 30
0.0
 40
24.833333333333339
 50
339.98404039711738
 51
20.015959602882621
  0
LINE
  5
1C2
  8
0
  6
DASHED
 10
242.0
 20
328.0
 30
0.0
 11
269.49999999999989
 21
328.0
 31
0.0
  0
LINE
  5
1C3
  8
0
  6
DASHED
 10
222.5
 20
329.24999999999989
 30
0.0
 11
242.0
 21
328.0
 31
0.0
  0
LINE
  5
1C4
  8
0
  6
DASHED
 10
220.5
 20
333.0
 30
0.0
 11
222.5
 21
332.0
 31
0.0
  0
LINE
  5
1C5
  8
0
  6
DASHED
 10
220.5
 20
340.0
 30
0.0
 11
222.5
 21
341.0
 31
0.0
  0
LINE
  5
1C6
  8
0
  6
DASHED
 10
220.5
 20
339.25
 30
0.0
 11
212.5
 21
339.25
 31
0.0
  0
LINE
  5
1C7
  8
0
  6
DASHED
 10
220.5
 20
333.74999999999989
 30
0.0
 11
212.5
 21
333.74999999999989
 31
0.0
  0
ARC
  5
1C8
  8
0
  6
DASHED
 10
215.78124999999989
 20
336.5
 30
0.0
 40
4.28125
 50
140.0337869562
 51
219.96621304379991
  0
LINE
  5
1C9
  8
0
  6
DASHED
 10
269.49999999999989
 20
345.0
 30
0.0
 11
242.0
 21
345.0
 31
0.0
  0
LINE
  5
1CA
  8
0
  6
DASHED
 10
242.0
 20
345.0
 30
0.0
 11
222.5
 21
344.0
 31
0.0
  0
LINE
  5
1CB
  8
0
 10
212.0
 20
331.0
 30
0.0
 11
219.0
 21
331.0
 31
0.0
  0
LINE
  5
1CC
  8
0
  6
DASHED
 10
220.5
 20
333.0
 30
0.0
 11
220.5
 21
340.0
 31
0.0
  0
CIRCLE
  5
1CD
  8
0
 10
215.5
 20
336.5
 30
0.0
 40
0.5
  0
LINE
  5
1CE
  8
0
 10
211.0
 20
340.5
 30
0.0
 11
221.49999999999989
 21
340.5
 31
0.0
  0
LINE
  5
1CF
  8
0
 10
211.0
 20
330.5
 30
0.0
 11
211.0
 21
340.5
 31
0.0
  0
LINE
  5
1D0
  8
0
 10
222.0
 20
330.5
 30
0.0
 11
219.24999999999989
 21
330.5
 31
0.0
  0
LINE
  5
1D1
  8
0
 10
222.0
 20
330.0
 30
0.0
 11
219.49999999999989
 21
330.0
 31
0.0
  0
LINE
  5
1D2
  8
0
 10
180.0
 20
310.0
 30
0.0
 11
192.0
 21
310.0
 31
0.0
  0
LINE
  5
1D3
  8
0
 10
196.0
 20
310.0
 30
0.0
 11
196.0
 21
300.0
 31
0.0
  0
LINE
  5
1D4
  8
0
 10
180.0
 20
302.49999999999989
 30
0.0
 11
196.0
 21
302.49999999999989
 31
0.0
  0
LINE
  5
1D5
  8
0
 10
194.0
 20
310.0
 30
0.0
 11
194.0
 21
309.0
 31
0.0
  0
LINE
  5
1D6
  8
0
 10
194.0
 20
309.0
 30
0.0
 11
192.0
 21
309.0
 31
0.0
  0
LINE
  5
1D7
  8
0
 10
192.0
 20
309.0
 30
0.0
 11
192.0
 21
310.0
 31
0.0
  0
LINE
  5
1D8
  8
0
 10
194.0
 20
310.0
 30
0.0
 11
196.0
 21
310.0
 31
0.0
  0
LINE
  5
1D9
  8
0
 10
196.0
 20
308.0
 30
0.0
 11
202.49999999999989
 21
308.0
 31
0.0
  0
LINE
  5
1DA
  8
0
 10
202.49999999999989
 20
308.0
 30
0.0
 11
202.49999999999989
 21
308.49999999999989
 31
0.0
  0
LINE
  5
1DB
  8
0
 10
202.49999999999989
 20
308.49999999999989
 30
0.0
 11
207.0
 21
308.49999999999989
 31
0.0
  0
LINE
  5
1DC
  8
0
 10
200.49999999999989
 20
308.0
 30
0.0
 11
200.49999999999989
 21
306.49999999999989
 31
0.0
  0
LINE
  5
1DD
  8
0
 10
200.49999999999989
 20
306.49999999999989
 30
0.0
 11
202.49999999999989
 21
306.49999999999989
 31
0.0
  0
LINE
  5
1DE
  8
0
 10
202.49999999999989
 20
306.49999999999989
 30
0.0
 11
202.49999999999989
 21
300.0
 31
0.0
  0
LINE
  5
1DF
  8
0
 10
205.0
 20
308.49999999999989
 30
0.0
 11
205.0
 21
300.0
 31
0.0
  0
LINE
  5
1E0
  8
0
 62
     0
 10
185.52943725152281
 20
302.49999999999989
 30
0.0
 11
192.02943725152281
 21
309.0
 31
0.0
  0
LINE
  5
1E1
  8
0
 62
     0
 10
181.28679656440349
 20
302.49999999999989
 30
0.0
 11
188.78679656440349
 21
310.0
 31
0.0
  0
LINE
  5
1E2
  8
0
 62
     0
 10
180.0
 20
305.45584412271569
 30
0.0
 11
184.5441558772842
 21
310.0
 31
0.0
  0
LINE
  5
1E3
  8
0
 62
     0
 10
180.0
 20
309.69848480983501
 30
0.0
 11
180.30151519016499
 21
310.0
 31
0.0
  0
LINE
  5
1E4
  8
0
 62
     0
 10
189.7720779386421
 20
302.49999999999989
 30
0.0
 11
196.0
 21
308.72792206135779
 31
0.0
  0
LINE
  5
1E5
  8
0
 62
     0
 10
194.01471862576139
 20
302.49999999999989
 30
0.0
 11
196.0
 21
304.48528137423858
 31
0.0
  0
LINE
  5
1E6
  8
0
 10
204.0
 20
338.5
 30
0.0
 11
210.0
 21
338.5
 31
0.0
  0
LINE
  5
1E7
  8
0
 10
210.0
 20
338.5
 30
0.0
 11
210.0
 21
334.5
 31
0.0
  0
LINE
  5
1E8
  8
0
 10
210.0
 20
334.5
 30
0.0
 11
204.0
 21
334.5
 31
0.0
  0
LINE
  5
1E9
  8
0
 10
204.0
 20
333.49999999999989
 30
0.0
 11
210.0
 21
333.49999999999989
 31
0.0
  0
LINE
  5
1EA
  8
0
 10
210.0
 20
339.5
 30
0.0
 11
204.0
 21
339.5
 31
0.0
  0
LINE
  5
1EB
  8
0
 62
     0
 10
211.0
 20
335.89148570989801
 30
0.0
 11
210.0
 21
336.89148570989789
 31
0.0
  0
LINE
  5
1EC
  8
0
 62
     0
 10
211.0
 20
333.06305858515179
 30
0.0
 11
209.56305858515171
 21
334.5
 31
0.0
  0
LINE
  5
1ED
  8
0
 62
     0
 10
210.73463146040561
 20
330.5
 30
0.0
 11
206.73463146040561
 21
334.5
 31
0.0
  0
LINE
  5
1EE
  8
0
 62
     0
 10
207.9062043356594
 20
330.5
 30
0.0
 11
204.0
 21
334.40620433565942
 31
0.0
  0
LINE
  5
1EF
  8
0
 62
     0
 10
205.07777721091321
 20
330.5
 30
0.0
 11
204.0
 21
331.57777721091321
 31
0.0
  0
LINE
  5
1F0
  8
0
 62
     0
 10
211.0
 20
338.71991283464422
 30
0.0
 11
207.21991283464411
 21
342.5
 31
0.0
  0
LINE
  5
1F1
  8
0
 62
     0
 10
212.04833995939029
 20
340.5
 30
0.0
 11
210.04833995939029
 21
342.5
 31
0.0
  0
LINE
  5
1F2
  8
0
 62
     0
 10
214.8767670841365
 20
340.5
 30
0.0
 11
212.8767670841365
 21
342.5
 31
0.0
  0
LINE
  5
1F3
  8
0
 62
     0
 10
217.70519420888269
 20
340.5
 30
0.0
 11
215.70519420888269
 21
342.5
 31
0.0
  0
LINE
  5
1F4
  8
0
 62
     0
 10
220.5336213336289
 20
340.5
 30
0.0
 11
218.5336213336289
 21
342.5
 31
0.0
  0
LINE
  5
1F5
  8
0
 62
     0
 10
205.56305858515171
 20
338.5
 30
0.0
 11
204.0
 21
340.06305858515179
 31
0.0
  0
LINE
  5
1F6
  8
0
 62
     0
 10
208.39148570989801
 20
338.5
 30
0.0
 11
204.39148570989801
 21
342.5
 31
0.0
  0
LINE
  5
1F7
  8
0
 62
     0
 10
188.78679656440349
 20
310.0
 30
0.0
 11
193.78679656440349
 21
315.0
 31
0.0
  0
LINE
  5
1F8
  8
0
 62
     0
 10
208.78679656440349
 20
330.0
 30
0.0
 11
209.28679656440349
 21
330.5
 31
0.0
  0
LINE
  5
1F9
  8
0
 62
     0
 10
204.0
 20
325.21320343559643
 30
0.0
 11
207.0
 21
328.21320343559631
 31
0.0
  0
LINE
  5
1FA
  8
0
 62
     0
 10
184.5441558772842
 20
310.0
 30
0.0
 11
189.5441558772842
 21
315.0
 31
0.0
  0
LINE
  5
1FB
  8
0
 62
     0
 10
217.0441558772842
 20
342.5
 30
0.0
 11
221.76139797794289
 21
347.21724210065861
 31
0.0
  0
LINE
  5
1FC
  8
0
 62
     0
 10
203.5441558772842
 20
329.0
 30
0.0
 11
205.04415587728431
 21
330.5
 31
0.0
  0
LINE
  5
1FD
  8
0
 62
     0
 10
180.30151519016499
 20
310.0
 30
0.0
 11
185.30151519016491
 21
315.0
 31
0.0
  0
LINE
  5
1FE
  8
0
 62
     0
 10
215.85647731041081
 20
345.55496212024588
 30
0.0
 11
218.98966135544941
 21
348.68814616528442
 31
0.0
  0
LINE
  5
1FF
  8
0
 62
     0
 10
199.30151519016499
 20
329.0
 30
0.0
 11
201.30151519016499
 21
331.0
 31
0.0
  0
LINE
  5
200
  8
0
 62
     0
 10
212.80151519016491
 20
342.5
 30
0.0
 11
214.30151519016499
 21
344.0
 31
0.0
  0
LINE
  5
201
  8
0
 62
     0
 10
201.5
 20
331.19848480983501
 30
0.0
 11
204.0
 21
333.69848480983489
 31
0.0
  0
LINE
  5
202
  8
0
 62
     0
 10
180.1016429653659
 20
314.04276846232023
 30
0.0
 11
180.95723153767969
 21
314.89835703463399
 31
0.0
  0
LINE
  5
203
  8
0
 62
     0
 10
211.7199026404696
 20
345.66102813742378
 30
0.0
 11
214.99658776757241
 21
348.93771326452668
 31
0.0
  0
LINE
  5
204
  8
0
 62
     0
 10
208.5588745030457
 20
342.5
 30
0.0
 11
210.0588745030457
 21
344.0
 31
0.0
  0
LINE
  5
205
  8
0
 62
     0
 10
201.5
 20
339.68376618407359
 30
0.0
 11
204.0
 21
342.18376618407348
 31
0.0
  0
LINE
  5
206
  8
0
 62
     0
 10
207.5833279705283
 20
345.76709415460181
 30
0.0
 11
211.00351417969549
 21
349.18728036376899
 31
0.0
  0
LINE
  5
207
  8
0
 62
     0
 10
204.31623381592641
 20
342.5
 30
0.0
 11
205.81623381592641
 21
344.0
 31
0.0
  0
LINE
  5
208
  8
0
 62
     0
 10
199.57359312880709
 20
342.0
 30
0.0
 11
201.57359312880709
 21
344.0
 31
0.0
  0
LINE
  5
209
  8
0
 62
     0
 10
203.44675330058689
 20
345.87316017177977
 30
0.0
 11
207.01044059181851
 21
349.43684746301142
 31
0.0
  0
LINE
  5
20A
  8
0
 62
     0
 10
199.31017863064571
 20
345.9792261889578
 30
0.0
 11
203.0173670039415
 21
349.68641456225367
 31
0.0
  0
LINE
  5
20B
  8
0
 62
     0
 10
192.02943725152281
 20
309.0
 30
0.0
 11
198.02943725152281
 21
315.0
 31
0.0
  0
LINE
  5
20C
  8
0
 62
     0
 10
204.0
 20
320.97056274847711
 30
0.0
 11
207.0
 21
323.97056274847711
 31
0.0
  0
LINE
  5
20D
  8
0
 62
     0
 10
196.0
 20
308.72792206135779
 30
0.0
 11
202.2720779386421
 21
315.0
 31
0.0
  0
LINE
  5
20E
  8
0
 62
     0
 10
199.51471862576139
 20
308.0
 30
0.0
 11
207.0
 21
315.48528137423853
 31
0.0
  0
LINE
  5
20F
  8
0
 62
     0
 10
204.2573593128806
 20
308.49999999999989
 30
0.0
 11
207.0
 21
311.24264068711932
 31
0.0
  0
LINE
  5
210
  8
0
 62
     0
 10
207.0
 20
317.26406871192842
 30
0.0
 11
204.0
 21
320.26406871192847
 31
0.0
  0
LINE
  5
211
  8
0
 62
     0
 10
207.0
 20
313.02142802480921
 30
0.0
 11
204.0
 21
316.02142802480921
 31
0.0
  0
LINE
  5
212
  8
0
 62
     0
 10
207.0
 20
308.77878733768978
 30
0.0
 11
200.77878733768981
 21
315.0
 31
0.0
  0
LINE
  5
213
  8
0
 62
     0
 10
203.0361466505706
 20
308.49999999999989
 30
0.0
 11
196.53614665057049
 21
315.0
 31
0.0
  0
LINE
  5
214
  8
0
 62
     0
 10
199.29350596345131
 20
308.0
 30
0.0
 11
192.29350596345131
 21
315.0
 31
0.0
  0
LINE
  5
215
  8
0
 62
     0
 10
194.0
 20
309.05086527633199
 30
0.0
 11
188.05086527633199
 21
315.0
 31
0.0
  0
LINE
  5
216
  8
0
 62
     0
 10
188.8082245892127
 20
310.0
 30
0.0
 11
183.8082245892127
 21
315.0
 31
0.0
  0
LINE
  5
217
  8
0
 62
     0
 10
184.56558390209341
 20
310.0
 30
0.0
 11
180.24461052977679
 21
314.32097337231659
 31
0.0
  0
LINE
  5
218
  8
0
 62
     0
 10
207.0
 20
321.50670939904768
 30
0.0
 11
204.0
 21
324.50670939904768
 31
0.0
  0
LINE
  5
219
  8
0
 62
     0
 10
207.0
 20
325.749350086167
 30
0.0
 11
204.0
 21
328.749350086167
 31
0.0
  0
LINE
  5
21A
  8
0
 62
     0
 10
203.749350086167
 20
329.0
 30
0.0
 11
201.5
 21
331.249350086167
 31
0.0
  0
LINE
  5
21B
  8
0
 62
     0
 10
207.0
 20
329.99199077328637
 30
0.0
 11
206.49199077328629
 21
330.5
 31
0.0
  0
LINE
  5
21C
  8
0
 62
     0
 10
204.0
 20
332.99199077328632
 30
0.0
 11
202.99199077328629
 21
334.0
 31
0.0
  0
LINE
  5
21D
  8
0
 62
     0
 10
211.23463146040561
 20
330.0
 30
0.0
 11
210.73463146040561
 21
330.5
 31
0.0
  0
LINE
  5
21E
  8
0
 62
     0
 10
202.23463146040561
 20
339.0
 30
0.0
 11
201.5
 21
339.73463146040558
 31
0.0
  0
LINE
  5
21F
  8
0
 62
     0
 10
204.0
 20
341.4772721475249
 30
0.0
 11
201.4772721475249
 21
344.0
 31
0.0
  0
LINE
  5
220
  8
0
 62
     0
 10
199.5029898356176
 20
345.97428231190719
 30
0.0
 11
198.15921744025511
 21
347.31805470726971
 31
0.0
  0
LINE
  5
221
  8
0
 62
     0
 10
207.21991283464411
 20
342.5
 30
0.0
 11
205.71991283464419
 21
344.0
 31
0.0
  0
LINE
  5
222
  8
0
 62
     0
 10
203.8572789618716
 20
345.86263387277251
 30
0.0
 11
200.19705602462889
 21
349.52285681001518
 31
0.0
  0
LINE
  5
223
  8
0
 62
     0
 10
211.4625535217634
 20
342.5
 30
0.0
 11
209.9625535217634
 21
344.0
 31
0.0
  0
LINE
  5
224
  8
0
 62
     0
 10
208.2115680881256
 20
345.75098543363782
 30
0.0
 11
204.360057089881
 21
349.6024964318824
 31
0.0
  0
LINE
  5
225
  8
0
 62
     0
 10
215.70519420888269
 20
342.5
 30
0.0
 11
214.20519420888269
 21
344.0
 31
0.0
  0
LINE
  5
226
  8
0
 62
     0
 10
212.56585721437961
 20
345.63933699450303
 30
0.0
 11
208.88554048947481
 21
349.31965371940782
 31
0.0
  0
LINE
  5
227
  8
0
 62
     0
 10
219.94783489600201
 20
342.5
 30
0.0
 11
218.0
 21
344.44783489600201
 31
0.0
  0
LINE
  5
228
  8
0
 62
     0
 10
216.92014634063361
 20
345.5276885553684
 30
0.0
 11
213.41102388906879
 21
349.03681100693319
 31
0.0
  0
LINE
  5
229
  8
0
 62
     0
 10
204.0
 20
316.72792206135779
 30
0.0
 11
207.0
 21
319.72792206135779
 31
0.0
  0
LINE
  5
22A
  8
0
 62
     0
 10
199.50670939904771
 20
329.0
 30
0.0
 11
198.0
 21
330.50670939904768
 31
0.0
  0
LINE
  5
22B
  8
0
 62
     0
 10
221.28679656440349
 20
342.5
 30
0.0
 11
222.0
 21
343.21320343559643
 31
0.0
  0
LINE
  5
22C
  8
0
 10
222.0
 20
345.0
 30
0.0
 11
218.26666666666659
 21
348.73333333333329
 31
0.0
  0
LINE
  5
22D
  8
0
 62
     0
 10
204.4650788387051
 20
300.0
 30
0.0
 11
202.49999999999989
 21
301.9650788387051
 31
0.0
  0
LINE
  5
22E
  8
0
 62
     0
 10
205.0
 20
302.29350596345131
 30
0.0
 11
202.49999999999989
 21
304.79350596345131
 31
0.0
  0
LINE
  5
22F
  8
0
 62
     0
 10
200.79350596345131
 20
306.49999999999989
 30
0.0
 11
200.49999999999989
 21
306.79350596345131
 31
0.0
  0
LINE
  5
230
  8
0
 62
     0
 10
205.0
 20
305.12193308819752
 30
0.0
 11
202.12193308819749
 21
308.0
 31
0.0
  0
LINE
  5
231
  8
0
 62
     0
 10
205.0
 20
307.95036021294362
 30
0.0
 11
204.45036021294371
 21
308.49999999999989
 31
0.0
  0
LINE
  5
232
  8
0
 62
     0
 10
199.23463146040561
 20
342.0
 30
0.0
 11
197.99999999999989
 21
343.23463146040558
 31
0.0
  0
LINE
  5
233
  8
0
 10
204.0
 20
338.0
 30
0.0
 11
201.5
 21
338.0
 31
0.0
  0
LINE
  5
234
  8
0
 10
204.0
 20
335.0
 30
0.0
 11
201.5
 21
335.0
 31
0.0
  0
LINE
  5
235
  8
0
  6
CENTER
 10
100.0
 20
381.49999999999989
 30
0.0
 11
100.0
 21
478.5
 31
0.0
  0
LINE
  5
236
  8
0
 10
149.76760474990351
 20
406.21832400154312
 30
0.0
 11
148.64650339278819
 21
424.15594571538799
 31
0.0
  0
LINE
  5
237
  8
0
 10
50.232395250096431
 20
406.21832400154312
 30
0.0
 11
51.353496607211753
 21
424.15594571538799
 31
0.0
  0
LINE
  5
238
  8
0
 10
146.27442072521339
 20
402.5
 30
0.0
 11
53.725579274786583
 21
402.5
 31
0.0
  0
LINE
  5
239
  8
0
 10
113.5
 20
384.5
 30
0.0
 11
100.0
 21
384.5
 31
0.0
  0
ARC
  5
23A
  8
0
 10
146.27442072521339
 20
406.0
 30
0.0
 40
3.5
 50
270.0
 51
3.5763343749973759
  0
LINE
  5
23B
  8
0
 10
115.0
 20
386.0
 30
0.0
 11
115.0
 21
402.5
 31
0.0
  0
ARC
  5
23C
  8
0
 10
113.5
 20
386.0
 30
0.0
 40
1.5
 50
270.0
 51
0.0
  0
LINE
  5
23D
  8
0
 10
85.0
 20
386.0
 30
0.0
 11
85.0
 21
402.5
 31
0.0
  0
LINE
  5
23E
  8
0
 10
86.5
 20
384.5
 30
0.0
 11
100.0
 21
384.5
 31
0.0
  0
ARC
  5
23F
  8
0
 10
86.5
 20
386.0
 30
0.0
 40
1.5
 50
180.0
 51
270.0
  0
LINE
  5
240
  8
0
 62
     0
 10
85.957231537679775
 20
384.6016429653659
 30
0.0
 11
85.101642965365954
 21
385.45723153767972
 31
0.0
  0
ARC
  5
241
  8
0
 10
53.725579274786583
 20
406.0
 30
0.0
 40
3.5
 50
176.4236656250026
 51
270.0
  0
LINE
  5
242
  8
0
  6
DASHED
 10
92.5
 20
427.0
 30
0.0
 11
107.25
 21
427.0
 31
0.0
  0
LINE
  5
243
  8
0
  6
DASHED
 10
108.4999999999999
 20
446.49999999999989
 30
0.0
 11
91.5
 21
446.49999999999989
 31
0.0
  0
ARC
  5
244
  8
0
  6
DASHED
 10
100.0
 20
450.66666666666657
 30
0.0
 40
24.833333333333339
 50
69.984040397117354
 51
110.0159596028826
  0
LINE
  5
245
  8
0
  6
DASHED
 10
91.5
 20
474.0
 30
0.0
 11
108.4999999999999
 21
474.0
 31
0.0
  0
LINE
  5
246
  8
0
 10
146.15137194658101
 20
426.5
 30
0.0
 11
53.848628053418963
 21
426.49999999999989
 31
0.0
  0
ARC
  5
247
  8
0
 10
146.15137194658101
 20
424.0
 30
0.0
 40
2.5
 50
3.5763343749973759
 51
90.000000000000057
  0
LINE
  5
248
  8
0
  6
DASHED
 10
108.4999999999999
 20
446.49999999999989
 30
0.0
 11
108.4999999999999
 21
474.0
 31
0.0
  0
LINE
  5
249
  8
0
  6
DASHED
 10
107.25
 20
427.0
 30
0.0
 11
108.4999999999999
 21
446.49999999999989
 31
0.0
  0
LINE
  5
24A
  8
0
  6
DASHED
 10
104.2499999999999
 20
426.49999999999989
 30
0.0
 11
104.4999999999999
 21
427.0
 31
0.0
  0
LINE
  5
24B
  8
0
  6
DASHED
 10
95.750000000000014
 20
426.49999999999989
 30
0.0
 11
95.5
 21
427.0
 31
0.0
  0
LINE
  5
24C
  8
0
  6
DASHED
 10
91.5
 20
474.0
 30
0.0
 11
91.5
 21
446.49999999999989
 31
0.0
  0
LINE
  5
24D
  8
0
  6
DASHED
 10
91.5
 20
446.49999999999989
 30
0.0
 11
92.5
 21
427.0
 31
0.0
  0
ARC
  5
24E
  8
0
 10
53.848628053418963
 20
424.0
 30
0.0
 40
2.5
 50
89.999999999999915
 51
176.4236656250026
  0
CIRCLE
  5
24F
  8
0
  6
DASHED
 10
100.0
 20
336.5
 30
0.0
 40
8.5
  0
LINE
  5
250
  8
0
  6
CENTER
 10
88.499999999999986
 20
336.5
 30
0.0
 11
111.4999999999999
 21
336.5
 31
0.0
  0
ARC
  5
251
  8
0
 10
100.0
 20
420.0
 30
0.0
 40
8.5
 50
49.880833101594938
 51
130.1191668984051
  0
CIRCLE
  5
252
  8
0
 10
400.0
 20
300.0
 30
0.0
 40
75.0
  0
CIRCLE
  5
253
  8
0
 10
400.0
 20
300.0
 30
0.0
 40
72.0
  0
ARC
  5
254
  8
0
 10
400.0
 20
300.0
 30
0.0
 40
59.0
 50
72.140344371229887
 51
42.499555452172878
  0
ARC
  5
255
  8
0
 10
400.0
 20
300.0
 30
0.0
 40
57.0
 50
71.863991592801924
 51
41.568751919155062
  0
CIRCLE
  5
256
  8
0
 10
400.0
 20
300.0
 30
0.0
 40
14.0
  0
LINE
  5
257
  8
0
 10
419.0
 20
275.99999999999977
 30
0.0
 11
419.0
 21
321.0
 31
0.0
  0
LINE
  5
258
  8
0
 10
445.0
 20
276.0
 30
0.0
 11
445.0
 21
321.0
 31
0.0
  0
LINE
  5
259
  8
0
 10
441.5
 20
346.0
 30
0.0
 11
445.0
 21
321.0
 31
0.0
  0
LINE
  5
25A
  8
0
 10
422.49999999999989
 20
346.0
 30
0.0
 11
419.0
 21
321.0
 31
0.0
  0
POLYLINE
  5
25B
  8
0
 66
     1
 10
0.0
 20
0.0
 30
0.0
  0
VERTEX
  5
557
  8
0
 10
419.0
 20
275.99999999999977
 30
0.0
 42
0.0651476162929372
  0
VERTEX
  5
558
  8
0
 10
420.05556505224013
 20
267.93305089054292
 30
0.0
 42
0.0779272741154027
  0
VERTEX
  5
559
  8
0
 10
422.80761184457481
 20
261.69965035392482
 30
0.0
 42
0.1071771501097598
  0
VERTEX
  5
55A
  8
0
 10
427.3606429988547
 20
257.14155469751222
 30
0.0
 42
0.1440886443571227
  0
VERTEX
  5
55B
  8
0
 10
432.0
 20
255.7762515838433
 30
0.0
 42
0.1440886443571256
  0
VERTEX
  5
55C
  8
0
 10
436.63935700114519
 20
257.14155469751222
 30
0.0
 42
0.1071771501097614
  0
VERTEX
  5
55D
  8
0
 10
441.19238815542508
 20
261.69965035392482
 30
0.0
 42
0.0779272741154083
  0
VERTEX
  5
55E
  8
0
 10
443.9444349477597
 20
267.93305089054292
 30
0.0
 42
0.0651476162929404
  0
VERTEX
  5
55F
  8
0
 10
445.0
 20
276.0
 30
0.0
 42
0.0651476162929345
  0
SEQEND
  5
560
  8
0
  0
LINE
  5
266
  8
0
 10
436.04145188432727
 20
346.0
 30
0.0
 11
440.08290376865472
 21
353.0
 31
0.0
  0
LINE
  5
267
  8
0
 10
440.08290376865472
 20
353.0
 30
0.0
 11
436.04145188432727
 21
360.0
 31
0.0
  0
LINE
  5
268
  8
0
 10
436.04145188432727
 20
360.0
 30
0.0
 11
427.9585481156725
 21
360.0
 31
0.0
  0
LINE
  5
269
  8
0
 10
427.9585481156725
 20
360.0
 30
0.0
 11
423.91709623134523
 21
353.0
 31
0.0
  0
LINE
  5
26A
  8
0
 10
423.91709623134523
 20
353.0
 30
0.0
 11
427.9585481156725
 21
346.0
 31
0.0
  0
LINE
  5
26B
  8
0
 10
422.49999999999989
 20
346.0
 30
0.0
 11
441.5
 21
346.0
 31
0.0
  0
LINE
  5
26C
  8
0
 10
418.09450255394108
 20
356.1568248508176
 30
0.0
 11
423.38119784648302
 21
347.0
 31
0.0
  0
LINE
  5
26D
  8
0
 10
417.74260285840109
 20
354.16825679130773
 30
0.0
 11
422.45854811567261
 21
346.0
 31
0.0
  0
LINE
  5
26E
  8
0
 10
442.49999999999989
 20
347.0
 30
0.0
 11
443.49967213580419
 21
339.85948474425538
 31
0.0
  0
LINE
  5
26F
  8
0
 10
423.38119784648302
 20
347.0
 30
0.0
 11
427.38119784648302
 21
347.0
 31
0.0
  0
LINE
  5
270
  8
0
 10
436.61880215351698
 20
347.0
 30
0.0
 11
442.49999999999989
 21
347.0
 31
0.0
  0
ARC
  5
271
  8
0
 10
432.0
 20
353.0
 30
0.0
 40
5.0
 50
306.86989764584388
 51
53.130102354155973
  0
LINE
  5
272
  8
0
 10
429.0
 20
346.0
 30
0.0
 11
429.0
 21
357.5
 31
0.0
  0
LINE
  5
273
  8
0
 10
435.0
 20
346.0
 30
0.0
 11
435.0
 21
357.5
 31
0.0
  0
LINE
  5
274
  8
0
 10
441.0
 20
343.0
 30
0.0
 11
423.0
 21
343.0
 31
0.0
  0
LINE
  5
275
  8
0
 10
436.0
 20
346.0
 30
0.0
 11
437.5
 21
343.0
 31
0.0
  0
LINE
  5
276
  8
0
 10
428.0
 20
346.0
 30
0.0
 11
426.49999999999989
 21
343.0
 31
0.0
  0
LINE
  5
277
  8
0
 10
441.0
 20
343.0
 30
0.0
 11
443.5
 21
319.0
 31
0.0
  0
LINE
  5
278
  8
0
 10
443.5
 20
319.0
 30
0.0
 11
420.5
 21
319.0
 31
0.0
  0
LINE
  5
279
  8
0
 10
420.5
 20
319.0
 30
0.0
 11
423.0
 21
343.0
 31
0.0
  0
LINE
  5
27A
  8
0
 10
435.0
 20
357.5
 30
0.0
 11
429.0
 21
357.5
 31
0.0
  0
ARC
  5
27B
  8
0
 10
432.0
 20
353.0
 30
0.0
 40
5.0
 50
64.158067236832849
 51
115.84193276316709
  0
ARC
  5
27C
  8
0
 10
432.0
 20
353.0
 30
0.0
 40
5.0
 50
126.86989764584401
 51
233.13010235415589
  0
LINE
  5
27D
  8
0
 10
420.5
 20
319.0
 30
0.0
 11
420.5
 21
283.0
 31
0.0
  0
LINE
  5
27E
  8
0
 10
443.5
 20
283.0
 30
0.0
 11
443.5
 21
319.0
 31
0.0
  0
ARC
  5
27F
  8
0
 10
432.0
 20
315.0625
 30
0.0
 40
34.0625
 50
250.26838611383121
 51
289.73161388616859
  0
LINE
  5
280
  8
0
  6
CENTER
 10
322.0
 20
300.0
 30
0.0
 11
478.0
 21
300.0
 31
0.0
  0
LINE
  5
281
  8
0
  6
CENTER
 10
400.0
 20
222.0
 30
0.0
 11
400.0
 21
378.0
 31
0.0
  0
CIRCLE
  5
282
  8
0
  6
DASHED
 10
432.0
 20
353.0
 30
0.0
 40
11.5
  0
LINE
  5
283
  8
0
 10
550.0
 20
300.0
 30
0.0
 11
550.0
 21
317.0
 31
0.0
  0
LINE
  5
284
  8
0
 10
552.0
 20
319.0
 30
0.0
 11
575.0
 21
319.0
 31
0.0
  0
LINE
  5
285
  8
0
 10
589.0
 20
333.0
 30
0.0
 11
589.0
 21
356.0
 31
0.0
  0
LINE
  5
286
  8
0
 10
589.0
 20
356.0
 30
0.0
 11
576.0
 21
356.0
 31
0.0
  0
LINE
  5
287
  8
0
 10
603.0
 20
369.75354859994133
 30
0.0
 11
603.00000000000011
 21
300.0
 31
0.0
  0
LINE
  5
288
  8
0
 10
579.42613249453711
 20
374.52577151844241
 30
0.0
 11
600.76633280908561
 21
372.2393214847408
 31
0.0
  0
ARC
  5
289
  8
0
 10
579.0
 20
370.54853490276321
 30
0.0
 40
4.0
 50
83.884496433714602
 51
180.0
  0
ARC
  5
28A
  8
0
 10
600.49999999999989
 20
369.75354859994133
 30
0.0
 40
2.5
 50
0.0
 51
83.884496433714546
  0
LINE
  5
28B
  8
0
 10
600.44502135879065
 20
358.11675320381858
 30
0.0
 11
593.0
 21
357.0
 31
0.0
  0
ARC
  5
28C
  8
0
 10
600.0
 20
361.08356226242353
 30
0.0
 40
3.0
 50
278.53076560994799
 51
0.0
  0
LINE
  5
28D
  8
0
  6
CENTER
 10
547.0
 20
300.0
 30
0.0
 11
606.5
 21
300.0
 31
0.0
  0
LINE
  5
28E
  8
0
 10
588.0
 20
314.0
 30
0.0
 11
593.0
 21
314.0
 31
0.0
  0
LINE
  5
28F
  8
0
 10
550.0
 20
300.0
 30
0.0
 11
550.0
 21
283.0
 31
0.0
  0
LINE
  5
290
  8
0
 10
552.0
 20
281.0
 30
0.0
 11
574.99999999999989
 21
281.0
 31
0.0
  0
LINE
  5
291
  8
0
 10
603.0
 20
230.24645140005859
 30
0.0
 11
603.00000000000011
 21
300.0
 31
0.0
  0
ARC
  5
292
  8
0
 10
600.49999999999989
 20
230.24645140005859
 30
0.0
 40
2.5
 50
276.11550356628538
 51
0.0
  0
LINE
  5
293
  8
0
 10
579.42613249453711
 20
225.4742284815575
 30
0.0
 11
600.76633280908561
 21
227.76067851525909
 31
0.0
  0
ARC
  5
294
  8
0
 10
579.0
 20
229.45146509723671
 30
0.0
 40
4.0
 50
180.0
 51
276.11550356628538
  0
LINE
  5
295
  8
0
 10
574.99999999999989
 20
300.0
 30
0.0
 11
575.0
 21
229.45146509723671
 31
0.0
  0
LINE
  5
296
  8
0
 10
576.0
 20
363.0
 30
0.0
 11
599.5
 21
363.0
 31
0.0
  0
LINE
  5
297
  8
0
 10
599.5
 20
363.0
 30
0.0
 11
599.5
 21
366.5
 31
0.0
  0
LINE
  5
298
  8
0
 10
599.5
 20
366.5
 30
0.0
 11
576.40833490508078
 21
367.91377541397458
 31
0.0
  0
ARC
  5
299
  8
0
 10
576.49999999999989
 20
369.41097196432241
 30
0.0
 40
1.5
 50
180.0
 51
266.49646835521548
  0
ARC
  5
29A
  8
0
 10
576.0
 20
357.0
 30
0.0
 40
1.0
 50
180.0
 51
270.0
  0
ARC
  5
29B
  8
0
 10
576.0
 20
362.0
 30
0.0
 40
1.0
 50
90.0
 51
180.0
  0
LINE
  5
29C
  8
0
 10
575.0
 20
370.54853490276321
 30
0.0
 11
575.0
 21
319.0
 31
0.0
  0
LINE
  5
29D
  8
0
 10
575.0
 20
319.0
 30
0.0
 11
589.0
 21
333.0
 31
0.0
  0
LINE
  5
29E
  8
0
 10
593.0
 20
357.0
 30
0.0
 11
593.0
 21
300.0
 31
0.0
  0
LINE
  5
29F
  8
0
 10
588.0
 20
314.0
 30
0.0
 11
588.0
 21
300.0
 31
0.0
  0
LINE
  5
2A0
  8
0
 10
588.0
 20
313.0
 30
0.0
 11
581.5
 21
313.0
 31
0.0
  0
LINE
  5
2A1
  8
0
 10
581.5
 20
313.0
 30
0.0
 11
581.5
 21
300.0
 31
0.0
  0
ARC
  5
2A2
  8
0
 10
573.60050506338837
 20
300.96446609406718
 30
0.0
 40
19.423454858552471
 50
2.8461759419469481
 51
42.153824058053367
  0
LINE
  5
2A3
  8
0
 10
550.0
 20
315.0
 30
0.0
 11
574.0
 21
315.0
 31
0.0
  0
LINE
  5
2A4
  8
0
 10
574.0
 20
315.0
 30
0.0
 11
574.0
 21
314.0
 31
0.0
  0
LINE
  5
2A5
  8
0
 10
574.0
 20
314.0
 30
0.0
 11
575.49999999999989
 21
314.0
 31
0.0
  0
LINE
  5
2A6
  8
0
 10
575.49999999999989
 20
314.0
 30
0.0
 11
575.49999999999989
 21
315.0
 31
0.0
  0
LINE
  5
2A7
  8
0
 10
575.49999999999989
 20
315.0
 30
0.0
 11
580.0
 21
315.0
 31
0.0
  0
LINE
  5
2A8
  8
0
 10
550.0
 20
302.49999999999989
 30
0.0
 11
578.0
 21
302.49999999999989
 31
0.0
  0
LINE
  5
2A9
  8
0
 10
578.0
 20
302.49999999999989
 30
0.0
 11
579.0
 21
300.0
 31
0.0
  0
LINE
  5
2AA
  8
0
 10
580.0
 20
300.0
 30
0.0
 11
580.0
 21
315.0
 31
0.0
  0
LINE
  5
2AB
  8
0
 10
583.00000000000273
 20
352.49999999999989
 30
0.0
 11
576.0
 21
352.49999999999989
 31
0.0
  0
ARC
  5
2AC
  8
0
 10
576.0
 20
353.5
 30
0.0
 40
1.0
 50
180.0
 51
270.0
  0
LINE
  5
2AD
  8
0
 10
579.0
 20
343.5
 30
0.0
 11
576.0
 21
343.5
 31
0.0
  0
ARC
  5
2AE
  8
0
 10
576.0
 20
344.5
 30
0.0
 40
1.0
 50
180.0
 51
270.0
  0
LINE
  5
2AF
  8
0
 10
578.0
 20
322.0
 30
0.0
 11
579.0
 21
343.5
 31
0.0
  0
ARC
  5
2B0
  8
0
 10
569.43139157432279
 20
353.1416037447454
 30
0.0
 40
13.583769358121
 50
314.78228748642141
 51
357.29273456442218
  0
ARC
  5
2B1
  8
0
 10
582.91886116991577
 20
333.5131670194948
 30
0.0
 40
18.987006350116001
 50
71.320203380513277
 51
89.755152203435273
  0
LINE
  5
2B2
  8
0
 10
600.44502135879065
 20
347.11675320381858
 30
0.0
 11
593.0
 21
346.0
 31
0.0
  0
ARC
  5
2B3
  8
0
 10
600.0
 20
350.08356226242353
 30
0.0
 40
3.0
 50
278.53076560994799
 51
0.0
  0
LINE
  5
2B4
  8
0
 10
600.44502135879065
 20
341.11675320381858
 30
0.0
 11
599.21538461538455
 21
340.93230769230757
 31
0.0
  0
ARC
  5
2B5
  8
0
 10
600.0
 20
344.08356226242353
 30
0.0
 40
3.0
 50
278.53076560994799
 51
0.0
  0
LINE
  5
2B6
  8
0
 62
     0
 10
550.1686142824235
 20
315.0
 30
0.0
 11
554.1686142824235
 21
319.0
 31
0.0
  0
LINE
  5
2B7
  8
0
 62
     0
 10
599.5
 20
364.3313857175765
 30
0.0
 11
602.99999999999989
 21
367.83138571757638
 31
0.0
  0
LINE
  5
2B8
  8
0
 62
     0
 10
589.0
 20
353.8313857175765
 30
0.0
 11
598.16861428242339
 21
363.0
 31
0.0
  0
LINE
  5
2B9
  8
0
 62
     0
 10
586.92597359530419
 20
356.0
 30
0.0
 11
593.92597359530419
 21
363.0
 31
0.0
  0
LINE
  5
2BA
  8
0
 62
     0
 10
597.54562896480593
 20
366.61965536950157
 30
0.0
 11
602.35524770062125
 21
371.42927410531701
 31
0.0
  0
LINE
  5
2BB
  8
0
 62
     0
 10
582.68333290818475
 20
356.0
 30
0.0
 11
589.68333290818475
 21
363.0
 31
0.0
  0
LINE
  5
2BC
  8
0
 62
     0
 10
593.5477560096358
 20
366.86442310145083
 30
0.0
 11
599.10107488481231
 21
372.41774197662733
 31
0.0
  0
LINE
  5
2BD
  8
0
 62
     0
 10
578.44069222106555
 20
356.0
 30
0.0
 11
585.44069222106555
 21
363.0
 31
0.0
  0
LINE
  5
2BE
  8
0
 62
     0
 10
589.54988305446568
 20
367.10919083340008
 30
0.0
 11
595.26901232870455
 21
372.82832010763877
 31
0.0
  0
LINE
  5
2BF
  8
0
 62
     0
 10
575.0
 20
356.80194846605372
 30
0.0
 11
581.19805153394634
 21
363.0
 31
0.0
  0
LINE
  5
2C0
  8
0
 62
     0
 10
575.0
 20
361.04458915317298
 30
0.0
 11
576.95541084682691
 21
363.0
 31
0.0
  0
LINE
  5
2C1
  8
0
 62
     0
 10
577.55626418895542
 20
367.84349402924761
 30
0.0
 11
583.77282466038127
 21
374.0600545006734
 31
0.0
  0
LINE
  5
2C2
  8
0
 62
     0
 10
554.41125496954271
 20
315.0
 30
0.0
 11
558.41125496954282
 21
319.0
 31
0.0
  0
LINE
  5
2C3
  8
0
 62
     0
 10
597.01324114063846
 20
357.6019861710958
 30
0.0
 11
603.0
 21
363.58874503045712
 31
0.0
  0
LINE
  5
2C4
  8
0
 62
     0
 10
589.0
 20
349.58874503045718
 30
0.0
 11
593.0
 21
353.58874503045712
 31
0.0
  0
LINE
  5
2C5
  8
0
 62
     0
 10
558.65389565666203
 20
315.0
 30
0.0
 11
562.65389565666214
 21
319.0
 31
0.0
  0
LINE
  5
2C6
  8
0
 62
     0
 10
589.0
 20
345.34610434333791
 30
0.0
 11
593.0
 21
349.34610434333791
 31
0.0
  0
LINE
  5
2C7
  8
0
 62
     0
 10
562.89653634378135
 20
315.0
 30
0.0
 11
566.89653634378135
 21
319.0
 31
0.0
  0
LINE
  5
2C8
  8
0
 62
     0
 10
589.0
 20
341.10346365621859
 30
0.0
 11
593.0
 21
345.10346365621859
 31
0.0
  0
LINE
  5
2C9
  8
0
 62
     0
 10
567.13917703090056
 20
315.0
 30
0.0
 11
571.13917703090056
 21
319.0
 31
0.0
  0
LINE
  5
2CA
  8
0
 62
     0
 10
589.0
 20
336.86082296909927
 30
0.0
 11
593.0
 21
340.86082296909927
 31
0.0
  0
LINE
  5
2CB
  8
0
 62
     0
 10
571.38181771801987
 20
315.0
 30
0.0
 11
593.0
 21
336.61818228198013
 31
0.0
  0
LINE
  5
2CC
  8
0
 62
     0
 10
574.62445840513919
 20
314.0
 30
0.0
 11
575.49999999999989
 21
314.87554159486069
 31
0.0
  0
LINE
  5
2CD
  8
0
 62
     0
 10
575.62445840513908
 20
315.0
 30
0.0
 11
593.0
 21
332.37554159486081
 31
0.0
  0
LINE
  5
2CE
  8
0
 62
     0
 10
579.8670990922584
 20
315.0
 30
0.0
 11
593.0
 21
328.13290090774137
 31
0.0
  0
LINE
  5
2CF
  8
0
 62
     0
 10
580.0
 20
310.89026022062222
 30
0.0
 11
581.5
 21
312.39026022062222
 31
0.0
  0
LINE
  5
2D0
  8
0
 62
     0
 10
582.10973977937783
 20
313.0
 30
0.0
 11
593.0
 21
323.89026022062222
 31
0.0
  0
LINE
  5
2D1
  8
0
 62
     0
 10
580.0
 20
306.6476195335029
 30
0.0
 11
581.5
 21
308.1476195335029
 31
0.0
  0
LINE
  5
2D2
  8
0
 62
     0
 10
586.35238046649704
 20
313.0
 30
0.0
 11
593.0
 21
319.6476195335029
 31
0.0
  0
LINE
  5
2D3
  8
0
 62
     0
 10
580.0
 20
302.40497884638359
 30
0.0
 11
581.5
 21
303.90497884638359
 31
0.0
  0
LINE
  5
2D4
  8
0
 62
     0
 10
591.59502115361624
 20
314.0
 30
0.0
 11
593.0
 21
315.40497884638359
 31
0.0
  0
LINE
  5
2D5
  8
0
 62
     0
 10
592.99999999999977
 20
317.3443712397833
 30
0.0
 11
583.17218561989171
 21
327.17218561989159
 31
0.0
  0
LINE
  5
2D6
  8
0
 62
     0
 10
592.10173055266409
 20
314.0
 30
0.0
 11
581.05086527633205
 21
325.05086527633199
 31
0.0
  0
LINE
  5
2D7
  8
0
 62
     0
 10
588.0
 20
313.85908986554477
 30
0.0
 11
578.9295449327725
 21
322.92954493277227
 31
0.0
  0
LINE
  5
2D8
  8
0
 62
     0
 10
584.61644917842546
 20
313.0
 30
0.0
 11
576.80822458921284
 21
320.80822458921278
 31
0.0
  0
LINE
  5
2D9
  8
0
 62
     0
 10
581.5
 20
311.87380849130608
 30
0.0
 11
580.0
 21
313.37380849130608
 31
0.0
  0
LINE
  5
2DA
  8
0
 62
     0
 10
578.37380849130614
 20
315.0
 30
0.0
 11
574.37380849130625
 21
319.0
 31
0.0
  0
LINE
  5
2DB
  8
0
 62
     0
 10
581.5
 20
307.63116780418687
 30
0.0
 11
580.0
 21
309.13116780418687
 31
0.0
  0
LINE
  5
2DC
  8
0
 62
     0
 10
575.13116780418693
 20
314.0
 30
0.0
 11
570.13116780418704
 21
319.0
 31
0.0
  0
LINE
  5
2DD
  8
0
 62
     0
 10
581.5
 20
303.38852711706761
 30
0.0
 11
580.0
 21
304.88852711706761
 31
0.0
  0
LINE
  5
2DE
  8
0
 62
     0
 10
569.8885271170675
 20
315.0
 30
0.0
 11
565.88852711706772
 21
319.0
 31
0.0
  0
LINE
  5
2DF
  8
0
 62
     0
 10
580.6458864299484
 20
300.0
 30
0.0
 11
580.0
 21
300.6458864299484
 31
0.0
  0
LINE
  5
2E0
  8
0
 62
     0
 10
561.40324574282897
 20
315.0
 30
0.0
 11
557.40324574282897
 21
319.0
 31
0.0
  0
LINE
  5
2E1
  8
0
 62
     0
 10
557.16060505570977
 20
315.0
 30
0.0
 11
553.16060505570977
 21
319.0
 31
0.0
  0
LINE
  5
2E2
  8
0
 62
     0
 10
593.0
 20
321.58701192690268
 30
0.0
 11
585.29350596345125
 21
329.29350596345131
 31
0.0
  0
LINE
  5
2E3
  8
0
 62
     0
 10
593.0
 20
325.82965261402188
 30
0.0
 11
587.41482630701103
 21
331.41482630701103
 31
0.0
  0
LINE
  5
2E4
  8
0
 62
     0
 10
593.0
 20
330.07229330114109
 30
0.0
 11
589.0
 21
334.0722933011412
 31
0.0
  0
LINE
  5
2E5
  8
0
 62
     0
 10
593.0
 20
334.31493398826041
 30
0.0
 11
589.0
 21
338.31493398826041
 31
0.0
  0
LINE
  5
2E6
  8
0
 62
     0
 10
593.0
 20
338.55757467537973
 30
0.0
 11
589.0
 21
342.55757467537973
 31
0.0
  0
LINE
  5
2E7
  8
0
 62
     0
 10
593.0
 20
342.8002153624991
 30
0.0
 11
589.0
 21
346.8002153624991
 31
0.0
  0
LINE
  5
2E8
  8
0
 62
     0
 10
579.8002153624991
 20
356.0
 30
0.0
 11
575.0
 21
360.80021536249899
 31
0.0
  0
LINE
  5
2E9
  8
0
 62
     0
 10
593.0
 20
347.04285604961831
 30
0.0
 11
589.0
 21
351.04285604961842
 31
0.0
  0
LINE
  5
2EA
  8
0
 62
     0
 10
584.04285604961819
 20
356.0
 30
0.0
 11
577.04285604961831
 21
363.0
 31
0.0
  0
LINE
  5
2EB
  8
0
 62
     0
 10
593.0
 20
351.28549673673768
 30
0.0
 11
589.0
 21
355.28549673673763
 31
0.0
  0
LINE
  5
2EC
  8
0
 62
     0
 10
588.28549673673763
 20
356.0
 30
0.0
 11
581.28549673673763
 21
363.0
 31
0.0
  0
LINE
  5
2ED
  8
0
 62
     0
 10
593.0
 20
355.52813742385689
 30
0.0
 11
585.52813742385683
 21
363.0
 31
0.0
  0
LINE
  5
2EE
  8
0
 62
     0
 10
580.88866812541278
 20
367.63946929844411
 30
0.0
 11
575.70777012372037
 21
372.82036730013652
 31
0.0
  0
LINE
  5
2EF
  8
0
 62
     0
 10
595.40937227041411
 20
357.3614058405621
 30
0.0
 11
589.77077811097627
 21
363.0
 31
0.0
  0
LINE
  5
2F0
  8
0
 62
     0
 10
585.40800277038772
 20
367.36277534058843
 30
0.0
 11
578.28640932582493
 21
374.48436878515128
 31
0.0
  0
LINE
  5
2F1
  8
0
 62
     0
 10
599.09862504182206
 20
357.9147937562733
 30
0.0
 11
594.01341879809536
 21
363.0
 31
0.0
  0
LINE
  5
2F2
  8
0
 62
     0
 10
589.92733741536267
 20
367.08608138273291
 30
0.0
 11
582.85502905386704
 21
374.1583897442286
 31
0.0
  0
LINE
  5
2F3
  8
0
 62
     0
 10
602.2058148823653
 20
359.05024460284938
 30
0.0
 11
598.25605948521411
 21
363.0
 31
0.0
  0
LINE
  5
2F4
  8
0
 62
     0
 10
594.44667206033751
 20
366.80938742487717
 30
0.0
 11
587.60678662344048
 21
373.64927286177419
 31
0.0
  0
LINE
  5
2F5
  8
0
 62
     0
 10
603.0
 20
362.498700172334
 30
0.0
 11
599.5
 21
365.99870017233411
 31
0.0
  0
LINE
  5
2F6
  8
0
 62
     0
 10
598.96600670531245
 20
366.53269346702172
 30
0.0
 11
592.35854419301415
 21
373.1401559793199
 31
0.0
  0
LINE
  5
2F7
  8
0
 62
     0
 10
603.0
 20
366.74134085945337
 30
0.0
 11
597.11030176258771
 21
372.63103909686561
 31
0.0
  0
LINE
  5
2F8
  8
0
 62
     0
 10
581.55413714412543
 20
367.59872629729841
 30
0.0
 11
587.60488721648903
 21
373.6494763696619
 31
0.0
  0
LINE
  5
2F9
  8
0
 62
     0
 10
585.55201009929544
 20
367.35395856534922
 30
0.0
 11
591.43694977259668
 21
373.23889823865028
 31
0.0
  0
LINE
  5
2FA
  8
0
 10
575.0
 20
369.5
 30
0.0
 11
579.96774193548379
 21
374.4677419354839
 31
0.0
  0
LINE
  5
2FB
  8
0
 62
     0
 10
565.64588642994852
 20
315.0
 30
0.0
 11
561.6458864299484
 21
319.0
 31
0.0
  0
LINE
  5
2FC
  8
0
 10
552.5
 20
315.0
 30
0.0
 11
550.0
 21
317.5
 31
0.0
  0
LINE
  5
2FD
  8
0
 62
     0
 10
554.63917703090056
 20
302.49999999999989
 30
0.0
 11
567.13917703090056
 21
315.0
 31
0.0
  0
LINE
  5
2FE
  8
0
 62
     0
 10
550.39653634378135
 20
302.49999999999989
 30
0.0
 11
562.89653634378135
 21
315.0
 31
0.0
  0
LINE
  5
2FF
  8
0
 62
     0
 10
550.0
 20
306.34610434333791
 30
0.0
 11
558.65389565666203
 21
315.0
 31
0.0
  0
LINE
  5
300
  8
0
 62
     0
 10
550.0
 20
310.58874503045712
 30
0.0
 11
554.41125496954271
 21
315.0
 31
0.0
  0
LINE
  5
301
  8
0
 62
     0
 10
550.0
 20
314.83138571757638
 30
0.0
 11
550.1686142824235
 21
315.0
 31
0.0
  0
LINE
  5
302
  8
0
 62
     0
 10
558.88181771801999
 20
302.49999999999989
 30
0.0
 11
571.38181771801987
 21
315.0
 31
0.0
  0
LINE
  5
303
  8
0
 62
     0
 10
563.12445840513908
 20
302.49999999999989
 30
0.0
 11
574.62445840513919
 21
314.0
 31
0.0
  0
LINE
  5
304
  8
0
 62
     0
 10
575.49999999999989
 20
314.87554159486069
 30
0.0
 11
575.62445840513908
 21
315.0
 31
0.0
  0
LINE
  5
305
  8
0
 62
     0
 10
567.36709909225851
 20
302.49999999999989
 30
0.0
 11
579.8670990922584
 21
315.0
 31
0.0
  0
LINE
  5
306
  8
0
 62
     0
 10
571.60973977937783
 20
302.49999999999989
 30
0.0
 11
580.0
 21
310.89026022062222
 31
0.0
  0
LINE
  5
307
  8
0
 62
     0
 10
575.85238046649715
 20
302.49999999999989
 30
0.0
 11
580.0
 21
306.6476195335029
 31
0.0
  0
LINE
  5
308
  8
0
 62
     0
 10
578.59857747246178
 20
301.00355631884543
 30
0.0
 11
580.0
 21
302.40497884638359
 31
0.0
  0
ARC
  5
309
  8
0
 10
432.0
 20
353.25
 30
0.0
 40
3.75
 50
36.86989764584402
 51
143.13010235415589
  0
LINE
  5
30A
  8
0
  6
DASHED
 10
602.40893223496835
 20
348.29553388251588
 30
0.0
 11
604.0
 21
347.5
 31
0.0
  0
LINE
  5
30B
  8
0
  6
DASHED
 10
603.0
 20
358.0
 30
0.0
 11
604.0
 21
358.49999999999989
 31
0.0
  0
LINE
  5
30C
  8
0
  6
DASHED
 10
604.0
 20
362.0
 30
0.0
 11
604.0
 21
344.0
 31
0.0
  0
LINE
  5
30D
  8
0
  6
DASHED
 10
604.0
 20
362.0
 30
0.0
 11
628.0
 21
364.5
 31
0.0
  0
LINE
  5
30E
  8
0
  6
DASHED
 10
628.0
 20
341.5
 30
0.0
 11
604.0
 21
344.0
 31
0.0
  0
LINE
  5
30F
  8
0
  6
DASHED
 10
628.0
 20
364.5
 30
0.0
 11
628.0
 21
341.5
 31
0.0
  0
LINE
  5
310
  8
0
  6
DASHED
 10
628.0
 20
341.5
 30
0.0
 11
664.0
 21
341.5
 31
0.0
  0
LINE
  5
311
  8
0
  6
DASHED
 10
664.0
 20
364.5
 30
0.0
 11
628.0
 21
364.5
 31
0.0
  0
ARC
  5
312
  8
0
  6
DASHED
 10
631.93749999999989
 20
353.0
 30
0.0
 40
34.0625
 50
340.2683861138313
 51
19.731613886168699
  0
LINE
  5
313
  8
0
 10
599.0
 20
343.0
 30
0.0
 11
601.5
 21
319.0
 31
0.0
  0
LINE
  5
314
  8
0
 10
601.5
 20
300.0
 30
0.0
 11
601.5
 21
319.0
 31
0.0
  0
LINE
  5
315
  8
0
 10
601.5
 20
319.0
 30
0.0
 11
593.0
 21
319.0
 31
0.0
  0
LINE
  5
316
  8
0
 10
599.0
 20
343.0
 30
0.0
 11
593.0
 21
343.0
 31
0.0
  0
LINE
  5
317
  8
0
 10
594.0
 20
346.0
 30
0.0
 11
595.5
 21
343.0
 31
0.0
  0
LINE
  5
318
  8
0
  6
CENTER
 10
669.0
 20
353.0
 30
0.0
 11
572.0
 21
353.0
 31
0.0
  0
LINE
  5
319
  8
0
 10
329.45146509723668
 20
444.99999999999972
 30
0.0
 11
470.54853490276321
 21
445.0
 31
0.0
  0
LINE
  5
31A
  8
0
 10
469.75354859994121
 20
473.0
 30
0.0
 11
400.0
 21
473.00000000000011
 31
0.0
  0
LINE
  5
31B
  8
0
 10
400.0
 20
420.0
 30
0.0
 11
417.0
 21
420.0
 31
0.0
  0
LINE
  5
31C
  8
0
 10
419.0
 20
422.0
 30
0.0
 11
419.0
 21
444.99999999999989
 31
0.0
  0
ARC
  5
31D
  8
0
 10
469.75354859994121
 20
470.5
 30
0.0
 40
2.5
 50
6.115503566285482
 51
90.0
  0
LINE
  5
31E
  8
0
 10
474.52577151844253
 20
449.426132494537
 30
0.0
 11
472.23932148474091
 21
470.7663328090855
 31
0.0
  0
ARC
  5
31F
  8
0
 10
470.54853490276321
 20
449.0
 30
0.0
 40
4.0
 50
270.0
 51
6.115503566285402
  0
LINE
  5
320
  8
0
 10
381.0
 20
422.0
 30
0.0
 11
381.0
 21
445.0
 31
0.0
  0
LINE
  5
321
  8
0
  6
CENTER
 10
400.0
 20
417.0
 30
0.0
 11
400.0
 21
539.0
 31
0.0
  0
LINE
  5
322
  8
0
 10
400.0
 20
420.0
 30
0.0
 11
383.0
 21
420.0
 31
0.0
  0
LINE
  5
323
  8
0
  6
DASHED
 10
391.0
 20
474.0
 30
0.0
 11
409.0
 21
474.0
 31
0.0
  0
LINE
  5
324
  8
0
  6
DASHED
 10
388.5
 20
498.0
 30
0.0
 11
411.5
 21
498.0
 31
0.0
  0
ARC
  5
325
  8
0
  6
DASHED
 10
400.0
 20
501.9375
 30
0.0
 40
34.0625
 50
70.268386113831298
 51
109.7316138861686
  0
LINE
  5
326
  8
0
 10
330.24645140005862
 20
473.0
 30
0.0
 11
400.0
 21
473.00000000000011
 31
0.0
  0
LINE
  5
327
  8
0
  6
DASHED
 10
411.5
 20
498.0
 30
0.0
 11
409.0
 21
474.0
 31
0.0
  0
LINE
  5
328
  8
0
  6
DASHED
 10
405.0
 20
473.0
 30
0.0
 11
405.49999999999989
 21
474.0
 31
0.0
  0
LINE
  5
329
  8
0
  6
DASHED
 10
411.5
 20
498.0
 30
0.0
 11
411.5
 21
534.0
 31
0.0
  0
LINE
  5
32A
  8
0
  6
DASHED
 10
391.0
 20
474.0
 30
0.0
 11
388.5
 21
498.0
 31
0.0
  0
LINE
  5
32B
  8
0
 10
325.47422848155747
 20
449.426132494537
 30
0.0
 11
327.76067851525909
 21
470.7663328090855
 31
0.0
  0
ARC
  5
32C
  8
0
 10
329.45146509723668
 20
449.0
 30
0.0
 40
4.0
 50
173.8844964337145
 51
270.0
  0
LINE
  5
32D
  8
0
  6
DASHED
 10
395.0
 20
473.0
 30
0.0
 11
394.5
 21
474.0
 31
0.0
  0
ARC
  5
32E
  8
0
 10
330.24645140005862
 20
470.5
 30
0.0
 40
2.5
 50
90.0
 51
173.8844964337145
  0
LINE
  5
32F
  8
0
  6
DASHED
 10
388.5
 20
534.0
 30
0.0
 11
388.5
 21
498.0
 31
0.0
  0
LINE
  5
330
  8
0
  6
CENTER
 10
195.0
 20
336.5
 30
0.0
 11
274.0
 21
336.5
 31
0.0
  0
LINE
  5
331
  8
0
  6
CENTER
 10
417.49999999999989
 20
353.0
 30
0.0
 11
446.49999999999989
 21
353.0
 31
0.0
  0
LINE
  5
332
  8
0
  6
CENTER
 10
432.0
 20
338.5
 30
0.0
 11
432.0
 21
367.5
 31
0.0
  0
ARC
  5
333
  8
0
 10
552.0
 20
283.0
 30
0.0
 40
2.0
 50
180.0
 51
270.0
  0
ARC
  5
334
  8
0
 10
552.0
 20
317.0
 30
0.0
 40
2.0
 50
90.0
 51
180.0
  0
ARC
  5
335
  8
0
 10
417.0
 20
422.0
 30
0.0
 40
2.0
 50
270.0
 51
0.0
  0
ARC
  5
336
  8
0
 10
383.0
 20
422.0
 30
0.0
 40
2.0
 50
180.0
 51
270.0
  0
CIRCLE
  5
337
  8
0
 10
100.0
 20
-100.0
 30
0.0
 40
87.5
  0
CIRCLE
  5
338
  8
0
 10
100.0
 20
-100.0
 30
0.0
 40
82.5
  0
ARC
  5
339
  8
0
 10
100.0
 20
-100.0
 30
0.0
 40
69.0
 50
75.205878765524858
 51
48.153116003836011
  0
ARC
  5
33A
  8
0
 10
100.0
 20
-100.0
 30
0.0
 40
66.0
 50
74.737111312366196
 51
47.404330478935172
  0
CIRCLE
  5
33B
  8
0
 10
100.0
 20
-100.0
 30
0.0
 40
14.0
  0
LINE
  5
33C
  8
0
 10
118.5
 20
-131.0
 30
0.0
 11
118.5
 21
-78.5
 31
0.0
  0
LINE
  5
33D
  8
0
 10
147.5
 20
-131.0
 30
0.0
 11
147.5
 21
-78.5
 31
0.0
  0
LINE
  5
33E
  8
0
 10
118.5
 20
-78.5
 30
0.0
 11
122.0
 21
-45.0
 31
0.0
  0
LINE
  5
33F
  8
0
 10
144.0
 20
-45.0
 30
0.0
 11
147.5
 21
-78.5
 31
0.0
  0
POLYLINE
  5
340
  8
0
 66
     1
 10
0.0
 20
0.0
 30
0.0
  0
VERTEX
  5
561
  8
0
 10
118.5
 20
-131.0
 30
0.0
 42
0.0613813477494978
  0
VERTEX
  5
562
  8
0
 10
119.6843503144803
 20
-140.61112876115101
 30
0.0
 42
0.074703465473951
  0
VERTEX
  5
563
  8
0
 10
122.74695167279501
 20
-147.97056274847711
 30
0.0
 42
0.1069869707220152
  0
VERTEX
  5
564
  8
0
 10
127.8876710835856
 20
-153.41579110633811
 30
0.0
 42
0.1513890254669976
  0
VERTEX
  5
565
  8
0
 10
133.0
 20
-155.0
 30
0.0
 42
0.1513890254669976
  0
VERTEX
  5
566
  8
0
 10
138.1123289164143
 20
-153.41579110633811
 30
0.0
 42
0.1069869707220152
  0
VERTEX
  5
567
  8
0
 10
143.25304832720491
 20
-147.97056274847711
 30
0.0
 42
0.0747034654739505
  0
VERTEX
  5
568
  8
0
 10
146.31564968551959
 20
-140.61112876115101
 30
0.0
 42
0.0613813477494974
  0
VERTEX
  5
569
  8
0
 10
147.5
 20
-131.0
 30
0.0
 42
0.0613813477494984
  0
SEQEND
  5
56A
  8
0
  0
LINE
  5
34B
  8
0
 10
138.4848275573014
 20
-43.5
 30
0.0
 11
142.23760430703399
 21
-37.0
 31
0.0
  0
LINE
  5
34C
  8
0
 10
142.23760430703399
 20
-37.0
 30
0.0
 11
137.61880215351701
 21
-29.0
 31
0.0
  0
LINE
  5
34D
  8
0
 10
137.61880215351701
 20
-29.0
 30
0.0
 11
128.38119784648291
 21
-29.0
 31
0.0
  0
LINE
  5
34E
  8
0
 10
128.38119784648291
 20
-29.0
 30
0.0
 11
123.7623956929659
 21
-37.0
 31
0.0
  0
LINE
  5
34F
  8
0
 10
123.7623956929659
 20
-37.0
 30
0.0
 11
127.5151724426985
 21
-43.5
 31
0.0
  0
LINE
  5
350
  8
0
 10
121.9999999999999
 20
-44.999999999999993
 30
0.0
 11
144.0
 21
-45.0
 31
0.0
  0
LINE
  5
351
  8
0
 10
117.6189124208471
 20
-33.287378067516201
 30
0.0
 11
123.5151724426985
 21
-43.5
 31
0.0
  0
LINE
  5
352
  8
0
 10
117.3743836250934
 20
-36.327943384494908
 30
0.0
 11
122.381197846483
 21
-45.0
 31
0.0
  0
LINE
  5
353
  8
0
 10
123.5151724426985
 20
-43.5
 30
0.0
 11
129.0
 21
-43.5
 31
0.0
  0
LINE
  5
354
  8
0
 10
145.5
 20
-43.5
 30
0.0
 11
146.0328156093137
 21
-48.599806546288967
 31
0.0
  0
ARC
  5
355
  8
0
 10
133.0
 20
-37.0
 30
0.0
 40
6.0
 50
131.81031489577859
 51
228.1896851042213
  0
LINE
  5
356
  8
0
 10
137.0
 20
-45.0
 30
0.0
 11
137.0
 21
-34.0
 31
0.0
  0
LINE
  5
357
  8
0
 10
137.0
 20
-31.5
 30
0.0
 11
129.0
 21
-31.5
 31
0.0
  0
LINE
  5
358
  8
0
 10
129.0
 20
-31.5
 30
0.0
 11
129.0
 21
-41.47213595499958
 31
0.0
  0
ARC
  5
359
  8
0
 10
133.0
 20
-37.0
 30
0.0
 40
6.0
 50
66.443535690898855
 51
113.5564643091011
  0
ARC
  5
35A
  8
0
 10
133.0
 20
-38.583333333333329
 30
0.0
 40
6.0833333333333339
 50
48.887909560833101
 51
131.11209043916691
  0
LINE
  5
35B
  8
0
 10
137.0
 20
-41.472135954999573
 30
0.0
 11
137.0
 21
-31.5
 31
0.0
  0
LINE
  5
35C
  8
0
 10
129.0
 20
-34.0
 30
0.0
 11
129.0
 21
-44.999999999999993
 31
0.0
  0
ARC
  5
35D
  8
0
 10
133.0
 20
-37.0
 30
0.0
 40
6.0
 50
311.81031489577862
 51
48.189685104221397
  0
LINE
  5
35E
  8
0
 10
139.0
 20
-45.0
 30
0.0
 11
139.5
 21
-46.5
 31
0.0
  0
LINE
  5
35F
  8
0
 10
127.0
 20
-45.0
 30
0.0
 11
126.5
 21
-46.5
 31
0.0
  0
LINE
  5
360
  8
0
 10
137.0
 20
-43.5
 30
0.0
 11
145.5
 21
-43.5
 31
0.0
  0
LINE
  5
361
  8
0
 10
144.0
 20
-46.5
 30
0.0
 11
122.0
 21
-46.5
 31
0.0
  0
LINE
  5
362
  8
0
 10
122.0
 20
-46.5
 30
0.0
 11
119.5
 21
-82.0
 31
0.0
  0
LINE
  5
363
  8
0
 10
119.5
 20
-82.0
 30
0.0
 11
146.5
 21
-82.0
 31
0.0
  0
LINE
  5
364
  8
0
 10
146.5
 20
-82.0
 30
0.0
 11
144.0
 21
-46.5
 31
0.0
  0
LINE
  5
365
  8
0
 10
119.5
 20
-82.0
 30
0.0
 11
119.5
 21
-134.0
 31
0.0
  0
ARC
  5
366
  8
0
 10
133.0
 20
-89.437499999999986
 30
0.0
 40
46.5625
 50
253.1460619570386
 51
286.85393804296132
  0
LINE
  5
367
  8
0
 10
146.5
 20
-134.0
 30
0.0
 11
146.5
 21
-82.0
 31
0.0
  0
CIRCLE
  5
368
  8
0
  6
DASHED
 10
133.0
 20
-37.0
 30
0.0
 40
13.5
  0
LINE
  5
369
  8
0
  6
CENTER
 10
116.5
 20
-37.0
 30
0.0
 11
149.5
 21
-37.0
 31
0.0
  0
LINE
  5
36A
  8
0
  6
CENTER
 10
133.0
 20
-53.5
 30
0.0
 11
133.0
 21
-20.5
 31
0.0
  0
LINE
  5
36B
  8
0
  6
CENTER
 10
100.0
 20
-190.5
 30
0.0
 11
100.0
 21
-9.5
 31
0.0
  0
LINE
  5
36C
  8
0
  6
CENTER
 10
9.5
 20
-100.0
 30
0.0
 11
190.5
 21
-100.0
 31
0.0
  0
LINE
  5
36D
  8
0
 10
230.0
 20
-100.0
 30
0.0
 11
230.0
 21
-82.0
 31
0.0
  0
LINE
  5
36E
  8
0
 10
232.0
 20
-80.0
 30
0.0
 11
261.5
 21
-80.0
 31
0.0
  0
LINE
  5
36F
  8
0
 10
273.0
 20
-68.5
 30
0.0
 11
273.0
 21
-35.5
 31
0.0
  0
LINE
  5
370
  8
0
 10
287.0
 20
-19.219796274942869
 30
0.0
 11
286.99999999999977
 21
-53.59999999999809
 31
0.0
  0
LINE
  5
371
  8
0
 10
254.0
 20
-26.5
 30
0.0
 11
254.0
 21
-32.128118738099943
 31
0.0
  0
LINE
  5
372
  8
0
 10
256.36860291719302
 20
-34.62466331143122
 30
0.0
 11
273.0
 21
-35.5
 31
0.0
  0
LINE
  5
373
  8
0
 10
255.5
 20
-25.0
 30
0.0
 11
283.49999999999989
 21
-25.0
 31
0.0
  0
LINE
  5
374
  8
0
 10
283.49999999999989
 20
-25.0
 30
0.0
 11
283.49999999999989
 21
-21.499999999999989
 31
0.0
  0
LINE
  5
375
  8
0
 10
283.49999999999989
 20
-21.499999999999989
 30
0.0
 11
255.44918173150131
 21
-20.549124804457669
 31
0.0
  0
LINE
  5
376
  8
0
 10
259.74902689713991
 20
-13.371064681384841
 30
0.0
 11
285.29961075885598
 21
-17.24236526649333
 31
0.0
  0
LINE
  5
377
  8
0
 10
277.0
 20
-34.5
 30
0.0
 11
285.66070084945608
 21
-31.468754702690319
 31
0.0
  0
LINE
  5
378
  8
0
 10
277.0
 20
-34.5
 30
0.0
 11
277.0
 21
-100.0
 31
0.0
  0
LINE
  5
379
  8
0
  6
CENTER
 10
227.0
 20
-100.0
 30
0.0
 11
290.0
 21
-100.0
 31
0.0
  0
ARC
  5
37A
  8
0
 10
259.0
 20
-18.314642202508669
 30
0.0
 40
5.0
 50
81.384351815835899
 51
180.0
  0
ARC
  5
37B
  8
0
 10
256.49999999999989
 20
-32.128118738099943
 30
0.0
 40
2.5
 50
180.0
 51
266.98721249581661
  0
ARC
  5
37C
  8
0
 10
285.0
 20
-29.581037989958279
 30
0.0
 40
2.0
 50
289.2900462191887
 51
0.0
  0
ARC
  5
37D
  8
0
 10
285.0
 20
-19.219796274942869
 30
0.0
 40
2.0
 50
0.0
 51
81.384351815835899
  0
LINE
  5
37E
  8
0
 10
287.0
 20
-180.78020372505711
 30
0.0
 11
286.9999999999996
 21
-100.0
 31
0.0
  0
LINE
  5
37F
  8
0
 10
259.74902689713991
 20
-186.62893531861511
 30
0.0
 11
285.29961075885598
 21
-182.75763473350659
 31
0.0
  0
ARC
  5
380
  8
0
 10
285.0
 20
-180.78020372505711
 30
0.0
 40
2.0
 50
278.61564818416412
 51
0.0
  0
ARC
  5
381
  8
0
 10
259.0
 20
-181.68535779749129
 30
0.0
 40
5.0
 50
180.0
 51
278.61564818416412
  0
LINE
  5
382
  8
0
 10
254.0
 20
-181.68535779749129
 30
0.0
 11
254.0
 21
-100.0
 31
0.0
  0
LINE
  5
383
  8
0
 10
232.0
 20
-120.0
 30
0.0
 11
254.0
 21
-120.0
 31
0.0
  0
LINE
  5
384
  8
0
 10
230.0
 20
-100.0
 30
0.0
 11
230.0
 21
-118.0
 31
0.0
  0
ARC
  5
385
  8
0
 10
255.5
 20
-26.5
 30
0.0
 40
1.5
 50
90.0
 51
180.0
  0
LINE
  5
386
  8
0
 10
254.0
 20
-80.0
 30
0.0
 11
254.0
 21
-18.314642202508669
 31
0.0
  0
ARC
  5
387
  8
0
 10
255.5
 20
-19.049985883747919
 30
0.0
 40
1.5
 50
180.0
 51
268.05851360908559
  0
LINE
  5
388
  8
0
 10
261.5
 20
-80.0
 30
0.0
 11
273.0
 21
-68.5
 31
0.0
  0
LINE
  5
389
  8
0
 10
272.0
 20
-86.0
 30
0.0
 11
277.0
 21
-86.0
 31
0.0
  0
LINE
  5
38A
  8
0
 10
272.0
 20
-86.0
 30
0.0
 11
272.0
 21
-100.0
 31
0.0
  0
LINE
  5
38B
  8
0
 10
272.0
 20
-87.5
 30
0.0
 11
264.0
 21
-87.5
 31
0.0
  0
LINE
  5
38C
  8
0
 10
264.0
 20
-87.5
 30
0.0
 11
264.0
 21
-100.0
 31
0.0
  0
ARC
  5
38D
  8
0
 10
251.38057053587599
 20
-101.25693909432989
 30
0.0
 40
25.650244871230321
 50
2.808790295063412
 51
36.498857821043188
  0
LINE
  5
38E
  8
0
 10
230.0
 20
-97.5
 30
0.0
 11
256.0
 21
-97.5
 31
0.0
  0
LINE
  5
38F
  8
0
 10
256.0
 20
-97.5
 30
0.0
 11
257.0
 21
-100.0
 31
0.0
  0
LINE
  5
390
  8
0
 10
259.0
 20
-100.0
 30
0.0
 11
259.0
 21
-85.0
 31
0.0
  0
LINE
  5
391
  8
0
 10
259.0
 20
-85.0
 30
0.0
 11
255.5
 21
-85.0
 31
0.0
  0
ARC
  5
392
  8
0
 10
285.0
 20
-40.081037989958283
 30
0.0
 40
2.0
 50
289.2900462191887
 51
0.0
  0
LINE
  5
393
  8
0
 10
277.0
 20
-45.0
 30
0.0
 11
285.66070084945608
 21
-41.968754702690319
 31
0.0
  0
ARC
  5
394
  8
0
 10
285.0
 20
-43.58103798995829
 30
0.0
 40
2.0
 50
289.2900462191887
 51
0.0
  0
LINE
  5
395
  8
0
 10
282.71428571428572
 20
-46.500000000000007
 30
0.0
 11
285.66070084945608
 21
-45.468754702690319
 31
0.0
  0
ARC
  5
396
  8
0
 10
285.0
 20
-46.08103798995829
 30
0.0
 40
2.0
 50
321.2031008138369
 51
0.0
  0
LINE
  5
397
  8
0
 10
256.36860291719302
 20
-45.12466331143122
 30
0.0
 11
262.01399401969098
 21
-45.421789158931098
 31
0.0
  0
ARC
  5
398
  8
0
 10
256.49999999999989
 20
-42.628118738099943
 30
0.0
 40
2.5
 50
180.0
 51
266.98721249581661
  0
ARC
  5
399
  8
0
 10
256.49999999999989
 20
-47.628118738099943
 30
0.0
 40
2.5
 50
180.0
 51
266.98721249581661
  0
LINE
  5
39A
  8
0
 10
256.36860291719302
 20
-50.12466331143122
 30
0.0
 11
259.01998223801058
 21
-50.264209591474248
 31
0.0
  0
LINE
  5
39B
  8
0
 10
256.49999999999989
 20
-80.0
 30
0.0
 11
259.01998223801058
 21
-50.264209591474248
 31
0.0
  0
ARC
  5
39C
  8
0
 10
254.48844930219599
 20
-44.115624496304989
 30
0.0
 40
7.6380553428807998
 50
306.39036999185578
 51
350.15359826648478
  0
ARC
  5
39D
  8
0
 10
262.11135648772688
 20
-74.983765248884225
 30
0.0
 40
29.562136421326901
 50
68.387293674575076
 51
90.188703160926735
  0
ARC
  5
39E
  8
0
 10
275.49999999999989
 20
-89.437499999999986
 30
0.0
 40
46.5625
 50
284.29886788554512
 51
286.85393804296132
  0
LINE
  5
39F
  8
0
 10
289.0
 20
-134.0
 30
0.0
 11
289.0
 21
-82.0
 31
0.0
  0
LINE
  5
3A0
  8
0
 10
277.0
 20
-82.0
 30
0.0
 11
289.0
 21
-82.0
 31
0.0
  0
LINE
  5
3A1
  8
0
 10
289.0
 20
-82.0
 30
0.0
 11
286.5
 21
-46.5
 31
0.0
  0
LINE
  5
3A2
  8
0
 10
286.5
 20
-46.5
 30
0.0
 11
277.0
 21
-46.5
 31
0.0
  0
LINE
  5
3A3
  8
0
 10
281.49999999999989
 20
-45.0
 30
0.0
 11
282.0
 21
-46.5
 31
0.0
  0
LINE
  5
3A4
  8
0
 10
279.49999999999989
 20
-45.0
 30
0.0
 11
279.49999999999989
 21
-44.125
 31
0.0
  0
LINE
  5
3A5
  8
0
  6
DASHED
 10
324.0
 20
-23.5
 30
0.0
 11
288.5
 21
-26.0
 31
0.0
  0
LINE
  5
3A6
  8
0
  6
DASHED
 10
324.0
 20
-50.5
 30
0.0
 11
324.0
 21
-23.5
 31
0.0
  0
ARC
  5
3A7
  8
0
  6
DASHED
 10
331.4375
 20
-37.0
 30
0.0
 40
46.5625
 50
343.14606195703863
 51
16.853938042961321
  0
LINE
  5
3A8
  8
0
  6
DASHED
 10
288.5
 20
-48.0
 30
0.0
 11
324.0
 21
-50.5
 31
0.0
  0
LINE
  5
3A9
  8
0
  6
DASHED
 10
324.0
 20
-50.5
 30
0.0
 11
376.0
 21
-50.5
 31
0.0
  0
LINE
  5
3AA
  8
0
  6
DASHED
 10
288.5
 20
-26.0
 30
0.0
 11
288.5
 21
-48.0
 31
0.0
  0
LINE
  5
3AB
  8
0
  6
DASHED
 10
287.0
 20
-43.0
 30
0.0
 11
288.5
 21
-43.5
 31
0.0
  0
LINE
  5
3AC
  8
0
  6
DASHED
 10
287.0
 20
-31.0
 30
0.0
 11
288.5
 21
-30.5
 31
0.0
  0
LINE
  5
3AD
  8
0
  6
DASHED
 10
376.0
 20
-23.5
 30
0.0
 11
324.0
 21
-23.5
 31
0.0
  0
LINE
  5
3AE
  8
0
  6
CENTER
 10
251.0
 20
-37.0
 30
0.0
 11
381.0
 21
-37.0
 31
0.0
  0
LINE
  5
3AF
  8
0
 10
281.49999999999989
 20
-45.0
 30
0.0
 11
277.0
 21
-45.0
 31
0.0
  0
LINE
  5
3B0
  8
0
  6
DASHED
 10
86.5
 20
196.0
 30
0.0
 11
86.5
 21
144.0
 31
0.0
  0
LINE
  5
3B1
  8
0
  6
DASHED
 10
113.5
 20
144.0
 30
0.0
 11
113.5
 21
196.0
 31
0.0
  0
LINE
  5
3B2
  8
0
  6
CENTER
 10
100.0
 20
47.0
 30
0.0
 11
100.0
 21
201.0
 31
0.0
  0
LINE
  5
3B3
  8
0
 10
181.68535779749121
 20
74.0
 30
0.0
 11
18.314642202508701
 21
74.0
 31
0.0
  0
LINE
  5
3B4
  8
0
 10
180.78020372505711
 20
107.0
 30
0.0
 11
19.21979627494283
 21
106.9999999999993
 31
0.0
  0
LINE
  5
3B5
  8
0
 10
186.62893531861511
 20
79.74902689713997
 30
0.0
 11
182.75763473350659
 21
105.29961075885601
 31
0.0
  0
ARC
  5
3B6
  8
0
 10
181.68535779749121
 20
79.0
 30
0.0
 40
5.0
 50
270.0
 51
8.6156481841641064
  0
ARC
  5
3B7
  8
0
 10
180.78020372505711
 20
105.0
 30
0.0
 40
2.0
 50
8.6156481841641064
 51
90.0
  0
LINE
  5
3B8
  8
0
 10
82.0
 20
50.0
 30
0.0
 11
118.0
 21
50.0
 31
0.0
  0
LINE
  5
3B9
  8
0
 10
120.0
 20
52.0
 30
0.0
 11
120.0
 21
74.0
 31
0.0
  0
LINE
  5
3BA
  8
0
 10
80.0
 20
52.0
 30
0.0
 11
80.0
 21
74.0
 31
0.0
  0
LINE
  5
3BB
  8
0
 10
100.0
 20
50.0
 30
0.0
 11
82.0
 21
50.0
 31
0.0
  0
LINE
  5
3BC
  8
0
 10
13.37106468138483
 20
79.74902689713997
 30
0.0
 11
17.242365266493319
 21
105.29961075885601
 31
0.0
  0
ARC
  5
3BD
  8
0
 10
18.314642202508701
 20
79.0
 30
0.0
 40
5.0
 50
171.3843518158358
 51
270.0
  0
LINE
  5
3BE
  8
0
  6
DASHED
 10
111.0
 20
108.4999999999999
 30
0.0
 11
113.5
 21
144.0
 31
0.0
  0
LINE
  5
3BF
  8
0
  6
DASHED
 10
86.5
 20
144.0
 30
0.0
 11
89.0
 21
108.4999999999999
 31
0.0
  0
LINE
  5
3C0
  8
0
  6
DASHED
 10
89.0
 20
108.4999999999999
 30
0.0
 11
111.0
 21
108.4999999999999
 31
0.0
  0
LINE
  5
3C1
  8
0
  6
DASHED
 10
106.0
 20
107.0
 30
0.0
 11
106.4999999999999
 21
108.4999999999999
 31
0.0
  0
LINE
  5
3C2
  8
0
  6
DASHED
 10
94.0
 20
107.0
 30
0.0
 11
93.499999999999986
 21
108.4999999999999
 31
0.0
  0
LINE
  5
3C3
  8
0
  6
DASHED
 10
113.5
 20
144.0
 30
0.0
 11
86.5
 21
144.0
 31
0.0
  0
ARC
  5
3C4
  8
0
 10
19.21979627494283
 20
105.0
 30
0.0
 40
2.0
 50
90.0
 51
171.3843518158358
  0
ARC
  5
3C5
  8
0
  6
DASHED
 10
100.0
 20
151.4375
 30
0.0
 40
46.5625
 50
73.146061957038583
 51
106.8539380429613
  0
ARC
  5
3C6
  8
0
 10
232.0
 20
-118.0
 30
0.0
 40
2.0
 50
180.0
 51
270.0
  0
ARC
  5
3C7
  8
0
 10
232.0
 20
-82.0
 30
0.0
 40
2.0
 50
90.0
 51
180.0
  0
ARC
  5
3C8
  8
0
 10
118.0
 20
52.0
 30
0.0
 40
2.0
 50
270.0
 51
0.0
  0
ARC
  5
3C9
  8
0
 10
82.0
 20
52.0
 30
0.0
 40
2.0
 50
180.0
 51
270.0
  0
ARC
  5
3CA
  8
0
 10
100.0
 20
95.5
 30
0.0
 40
13.5
 50
58.413661903469539
 51
121.58633809653089
  0
LINE
  5
3CB
  8
0
 62
     0
 10
230.0
 20
-83.955410846827107
 30
0.0
 11
233.95541084682699
 21
-80.0
 31
0.0
  0
LINE
  5
3CC
  8
0
 62
     0
 10
273.0
 20
-40.955410846827057
 30
0.0
 11
277.0
 21
-36.955410846827093
 31
0.0
  0
LINE
  5
3CD
  8
0
 62
     0
 10
270.12162299895903
 20
-35.348506473629421
 30
0.0
 11
280.4701294725885
 21
-25.0
 31
0.0
  0
LINE
  5
3CE
  8
0
 62
     0
 10
266.09111434619581
 20
-35.136374439273467
 30
0.0
 11
276.22748878546918
 21
-25.0
 31
0.0
  0
LINE
  5
3CF
  8
0
 62
     0
 10
279.85117767774892
 20
-21.376311107720301
 30
0.0
 11
284.15808236632847
 21
-17.06940641914068
 31
0.0
  0
LINE
  5
3D0
  8
0
 62
     0
 10
262.06060569343242
 20
-34.9242424049175
 30
0.0
 11
271.98484809834991
 21
-25.0
 31
0.0
  0
LINE
  5
3D1
  8
0
 62
     0
 10
275.7476399639778
 20
-21.237208134372121
 30
0.0
 11
280.47368387488279
 21
-16.511164223467091
 31
0.0
  0
LINE
  5
3D2
  8
0
 62
     0
 10
258.03009704066909
 20
-34.712110370561533
 30
0.0
 11
267.74220741123059
 21
-25.0
 31
0.0
  0
LINE
  5
3D3
  8
0
 62
     0
 10
271.64410225020657
 20
-21.098105161023948
 30
0.0
 11
276.78928538343712
 21
-15.9529220277935
 31
0.0
  0
LINE
  5
3D4
  8
0
 62
     0
 10
254.669125964329
 20
-33.83044075978237
 30
0.0
 11
263.49956672411128
 21
-25.0
 31
0.0
  0
LINE
  5
3D5
  8
0
 62
     0
 10
267.54056453643551
 20
-20.959002187675779
 30
0.0
 11
273.10488689199138
 21
-15.394679832119911
 31
0.0
  0
LINE
  5
3D6
  8
0
 62
     0
 10
254.0
 20
-30.256926036992141
 30
0.0
 11
259.25692603699213
 21
-25.0
 31
0.0
  0
LINE
  5
3D7
  8
0
 62
     0
 10
254.1340015058494
 20
-25.880283844023332
 30
0.0
 11
254.8802838440233
 21
-25.134001505849469
 31
0.0
  0
LINE
  5
3D8
  8
0
 62
     0
 10
259.33348910889327
 20
-20.680796240979429
 30
0.0
 11
265.73608990909997
 21
-14.278195440772731
 31
0.0
  0
LINE
  5
3D9
  8
0
 62
     0
 10
255.24371494669671
 20
-20.5279297160568
 30
0.0
 11
262.0516914176543
 21
-13.719953245099139
 31
0.0
  0
LINE
  5
3DA
  8
0
 62
     0
 10
254.07454772316879
 20
-17.454456252465398
 30
0.0
 11
258.13981404995673
 21
-13.389189925677501
 31
0.0
  0
LINE
  5
3DB
  8
0
 62
     0
 10
233.19805153394631
 20
-85.0
 30
0.0
 11
238.19805153394631
 21
-80.0
 31
0.0
  0
LINE
  5
3DC
  8
0
 62
     0
 10
273.0
 20
-45.198051533946384
 30
0.0
 11
277.0
 21
-41.198051533946362
 31
0.0
  0
LINE
  5
3DD
  8
0
 62
     0
 10
237.4406922210656
 20
-85.0
 30
0.0
 11
242.4406922210656
 21
-80.0
 31
0.0
  0
LINE
  5
3DE
  8
0
 62
     0
 10
273.0
 20
-49.44069222106566
 30
0.0
 11
277.0
 21
-45.44069222106566
 31
0.0
  0
LINE
  5
3DF
  8
0
 62
     0
 10
241.68333290818489
 20
-85.0
 30
0.0
 11
246.68333290818489
 21
-80.0
 31
0.0
  0
LINE
  5
3E0
  8
0
 62
     0
 10
273.0
 20
-53.683332908184951
 30
0.0
 11
277.0
 21
-49.683332908184937
 31
0.0
  0
LINE
  5
3E1
  8
0
 62
     0
 10
245.92597359530421
 20
-85.0
 30
0.0
 11
250.92597359530421
 21
-80.0
 31
0.0
  0
LINE
  5
3E2
  8
0
 62
     0
 10
273.0
 20
-57.925973595304228
 30
0.0
 11
277.0
 21
-53.925973595304228
 31
0.0
  0
LINE
  5
3E3
  8
0
 62
     0
 10
250.16861428242339
 20
-85.0
 30
0.0
 11
255.1686142824235
 21
-80.0
 31
0.0
  0
LINE
  5
3E4
  8
0
 62
     0
 10
273.0
 20
-62.168614282423519
 30
0.0
 11
277.0
 21
-58.168614282423512
 31
0.0
  0
LINE
  5
3E5
  8
0
 62
     0
 10
253.5
 20
-85.911254969542796
 30
0.0
 11
259.41125496954282
 21
-80.0
 31
0.0
  0
LINE
  5
3E6
  8
0
 62
     0
 10
273.0
 20
-66.41125496954281
 30
0.0
 11
277.0
 21
-62.411254969542803
 31
0.0
  0
LINE
  5
3E7
  8
0
 62
     0
 10
258.65389565666197
 20
-85.0
 30
0.0
 11
277.0
 21
-66.653895656662044
 31
0.0
  0
LINE
  5
3E8
  8
0
 62
     0
 10
259.0
 20
-88.896536343781335
 30
0.0
 11
277.0
 21
-70.896536343781335
 31
0.0
  0
LINE
  5
3E9
  8
0
 62
     0
 10
259.0
 20
-93.139177030900626
 30
0.0
 11
264.0
 21
-88.139177030900626
 31
0.0
  0
LINE
  5
3EA
  8
0
 62
     0
 10
264.63917703090061
 20
-87.5
 30
0.0
 11
277.0
 21
-75.139177030900612
 31
0.0
  0
LINE
  5
3EB
  8
0
 62
     0
 10
259.0
 20
-97.381817718019903
 30
0.0
 11
264.0
 21
-92.381817718019917
 31
0.0
  0
LINE
  5
3EC
  8
0
 62
     0
 10
268.88181771801987
 20
-87.5
 30
0.0
 11
277.0
 21
-79.381817718019903
 31
0.0
  0
LINE
  5
3ED
  8
0
 62
     0
 10
260.62445840513908
 20
-100.0
 30
0.0
 11
264.0
 21
-96.624458405139208
 31
0.0
  0
LINE
  5
3EE
  8
0
 62
     0
 10
277.0
 20
-77.595887705393622
 30
0.0
 11
270.4520561473031
 21
-71.047943852696804
 31
0.0
  0
LINE
  5
3EF
  8
0
 62
     0
 10
277.0
 20
-81.838528392512899
 30
0.0
 11
268.33073580374349
 21
-73.169264196256435
 31
0.0
  0
LINE
  5
3F0
  8
0
 62
     0
 10
277.0
 20
-86.081169079632204
 30
0.0
 11
266.20941546018389
 21
-75.290584539816095
 31
0.0
  0
LINE
  5
3F1
  8
0
 62
     0
 10
272.67619023324852
 20
-86.0
 30
0.0
 11
264.08809511662417
 21
-77.411904883375726
 31
0.0
  0
LINE
  5
3F2
  8
0
 62
     0
 10
269.9335495461292
 20
-87.5
 30
0.0
 11
261.96677477306451
 21
-79.533225226935372
 31
0.0
  0
LINE
  5
3F3
  8
0
 62
     0
 10
265.69090885900988
 20
-87.5
 30
0.0
 11
258.19090885900988
 21
-80.0
 31
0.0
  0
LINE
  5
3F4
  8
0
 62
     0
 10
264.0
 20
-90.051731828109325
 30
0.0
 11
259.0
 21
-85.051731828109325
 31
0.0
  0
LINE
  5
3F5
  8
0
 62
     0
 10
258.94826817189062
 20
-85.0
 30
0.0
 11
253.94826817189059
 21
-80.0
 31
0.0
  0
LINE
  5
3F6
  8
0
 62
     0
 10
264.0
 20
-94.294372515228616
 30
0.0
 11
259.0
 21
-89.294372515228616
 31
0.0
  0
LINE
  5
3F7
  8
0
 62
     0
 10
255.5
 20
-85.794372515228616
 30
0.0
 11
249.70562748477141
 21
-80.0
 31
0.0
  0
LINE
  5
3F8
  8
0
 62
     0
 10
264.0
 20
-98.537013202347893
 30
0.0
 11
259.0
 21
-93.537013202347879
 31
0.0
  0
LINE
  5
3F9
  8
0
 62
     0
 10
250.46298679765209
 20
-85.0
 30
0.0
 11
245.46298679765209
 21
-80.0
 31
0.0
  0
LINE
  5
3FA
  8
0
 62
     0
 10
261.22034611053272
 20
-100.0
 30
0.0
 11
259.0
 21
-97.779653889467227
 31
0.0
  0
LINE
  5
3FB
  8
0
 62
     0
 10
241.97770542341351
 20
-85.0
 30
0.0
 11
236.97770542341351
 21
-80.0
 31
0.0
  0
LINE
  5
3FC
  8
0
 62
     0
 10
237.73506473629419
 20
-85.0
 30
0.0
 11
232.73506473629419
 21
-80.0
 31
0.0
  0
LINE
  5
3FD
  8
0
 62
     0
 10
233.4924240491749
 20
-85.0
 30
0.0
 11
230.04963202804581
 21
-81.557207978870906
 31
0.0
  0
LINE
  5
3FE
  8
0
 62
     0
 10
277.0
 20
-73.353247018274331
 30
0.0
 11
272.57337649086281
 21
-68.926623509137158
 31
0.0
  0
LINE
  5
3FF
  8
0
 62
     0
 10
277.0
 20
-69.110606331155054
 30
0.0
 11
273.0
 21
-65.110606331155054
 31
0.0
  0
LINE
  5
400
  8
0
 62
     0
 10
277.0
 20
-64.867965644035763
 30
0.0
 11
273.0
 21
-60.86796564403577
 31
0.0
  0
LINE
  5
401
  8
0
 62
     0
 10
277.0
 20
-60.625324956916479
 30
0.0
 11
273.0
 21
-56.625324956916479
 31
0.0
  0
LINE
  5
402
  8
0
 62
     0
 10
277.0
 20
-56.382684269797188
 30
0.0
 11
273.0
 21
-52.382684269797188
 31
0.0
  0
LINE
  5
403
  8
0
 62
     0
 10
277.0
 20
-52.140043582677897
 30
0.0
 11
273.0
 21
-48.140043582677883
 31
0.0
  0
LINE
  5
404
  8
0
 62
     0
 10
277.0
 20
-47.897402895558621
 30
0.0
 11
273.0
 21
-43.897402895558621
 31
0.0
  0
LINE
  5
405
  8
0
 62
     0
 10
264.1360747213547
 20
-35.033477616913402
 30
0.0
 11
254.49187962727169
 21
-25.389282522830321
 31
0.0
  0
LINE
  5
406
  8
0
 62
     0
 10
277.0
 20
-43.65476220843933
 30
0.0
 11
273.0
 21
-39.654762208439337
 31
0.0
  0
LINE
  5
407
  8
0
 62
     0
 10
268.61441766886952
 20
-35.269179877308922
 30
0.0
 11
258.34523779156069
 21
-25.0
 31
0.0
  0
LINE
  5
408
  8
0
 62
     0
 10
277.0
 20
-39.412121521320053
 30
0.0
 11
262.5878784786799
 21
-25.0
 31
0.0
  0
LINE
  5
409
  8
0
 62
     0
 10
258.23131281126513
 20
-20.643434332585251
 30
0.0
 11
254.2729895108221
 21
-16.685111032142199
 31
0.0
  0
LINE
  5
40A
  8
0
 62
     0
 10
277.0
 20
-35.169480834200762
 30
0.0
 11
266.83051916579922
 21
-25.0
 31
0.0
  0
LINE
  5
40B
  8
0
 62
     0
 10
262.62281808389741
 20
-20.792298918098211
 30
0.0
 11
256.08371964362362
 21
-14.253200477824389
 31
0.0
  0
LINE
  5
40C
  8
0
 62
     0
 10
279.64678507623591
 20
-33.573625223317407
 30
0.0
 11
271.07315985291848
 21
-25.0
 31
0.0
  0
LINE
  5
40D
  8
0
 62
     0
 10
267.0143233565297
 20
-20.941163503611168
 30
0.0
 11
259.40416365131421
 21
-13.33100379839572
 31
0.0
  0
LINE
  5
40E
  8
0
 62
     0
 10
282.78948188150952
 20
-32.473681341471668
 30
0.0
 11
275.3158005400378
 21
-25.0
 31
0.0
  0
LINE
  5
40F
  8
0
 62
     0
 10
271.40582862916187
 20
-21.090028089124129
 30
0.0
 11
264.39005063647312
 21
-14.074250096435319
 31
0.0
  0
LINE
  5
410
  8
0
 62
     0
 10
285.91691294393638
 20
-31.35847171677932
 30
0.0
 11
279.55844122715712
 21
-25.0
 31
0.0
  0
LINE
  5
411
  8
0
 62
     0
 10
275.7973339017941
 20
-21.238892674637089
 30
0.0
 11
269.3903057320066
 21
-14.831864504849481
 31
0.0
  0
LINE
  5
412
  8
0
 62
     0
 10
287.0
 20
-28.198918085723641
 30
0.0
 11
283.49999999999989
 21
-24.698918085723601
 31
0.0
  0
LINE
  5
413
  8
0
 62
     0
 10
283.49999999999989
 20
-21.970129472588489
 30
0.0
 11
286.89369595351548
 21
-18.576433519072921
 31
0.0
  0
LINE
  5
414
  8
0
 62
     0
 10
280.18883917442639
 20
-21.387757260150039
 30
0.0
 11
274.39056082754001
 21
-15.58947891326364
 31
0.0
  0
LINE
  5
415
  8
0
 62
     0
 10
280.77755514896478
 20
-33.177855697862299
 30
0.0
 11
287.0
 21
-26.955410846827149
 31
0.0
  0
LINE
  5
416
  8
0
 62
     0
 10
246.2203461105328
 20
-85.0
 30
0.0
 11
241.2203461105328
 21
-80.0
 31
0.0
  0
LINE
  5
417
  8
0
 62
     0
 10
274.62445840513919
 20
-86.0
 30
0.0
 11
277.0
 21
-83.624458405139194
 31
0.0
  0
LINE
  5
418
  8
0
 62
     0
 10
259.65773177383988
 20
-34.797775356517889
 30
0.0
 11
254.0
 21
-29.14004358267789
 31
0.0
  0
LINE
  5
419
  8
0
 10
273.0
 20
-37.0
 30
0.0
 11
287.0
 21
-23.0
 31
0.0
  0
LINE
  5
41A
  8
0
 10
287.0
 20
-24.0
 30
0.0
 11
279.33928571428572
 21
-16.339285714285712
 31
0.0
  0
LINE
  5
41B
  8
0
 10
287.0
 20
-19.5
 30
0.0
 11
284.64285714285711
 21
-17.142857142857132
 31
0.0
  0
LINE
  5
41C
  8
0
 62
     0
 10
263.43702682266439
 20
-20.819899214327599
 30
0.0
 11
269.42048840054571
 21
-14.83643763644632
 31
0.0
  0
CIRCLE
  5
41D
  8
0
 10
600.0
 20
-100.0
 30
0.0
 40
100.0
  0
CIRCLE
  5
41E
  8
0
 10
600.0
 20
-100.0
 30
0.0
 40
95.0
  0
ARC
  5
41F
  8
0
 10
600.0
 20
-100.0
 30
0.0
 40
77.5
 50
74.708534799628666
 51
48.353198287666181
  0
ARC
  5
420
  8
0
 10
600.0
 20
-100.0
 30
0.0
 40
75.0
 50
74.65998879390628
 51
48.131263161114532
  0
CIRCLE
  5
421
  8
0
 10
600.0
 20
-100.0
 30
0.0
 40
14.0
  0
LINE
  5
422
  8
0
 10
622.0
 20
-134.0
 30
0.0
 11
622.0
 21
-74.0
 31
0.0
  0
LINE
  5
423
  8
0
 10
653.0
 20
-134.0
 30
0.0
 11
653.0
 21
-74.0
 31
0.0
  0
POLYLINE
  5
424
  8
0
 66
     1
 10
0.0
 20
0.0
 30
0.0
  0
VERTEX
  5
56B
  8
0
 10
622.0
 20
-134.0
 30
0.0
 42
0.0554505440098943
  0
VERTEX
  5
56C
  8
0
 10
623.27710118736854
 20
-145.4802697326019
 30
0.0
 42
0.0692457210155518
  0
VERTEX
  5
56D
  8
0
 10
626.53984489160837
 20
-154.1525432638166
 30
0.0
 42
0.1058385718885196
  0
VERTEX
  5
56E
  8
0
 10
632.15241595445423
 20
-160.695476731821
 30
0.0
 42
0.1641755274867586
  0
VERTEX
  5
56F
  8
0
 10
637.5
 20
-162.5
 30
0.0
 42
0.1641755274867644
  0
VERTEX
  5
570
  8
0
 10
642.84758404554555
 20
-160.69547673182089
 30
0.0
 42
0.1058385718885257
  0
VERTEX
  5
571
  8
0
 10
648.46015510839152
 20
-154.1525432638166
 30
0.0
 42
0.0692457210155551
  0
VERTEX
  5
572
  8
0
 10
651.72289881263146
 20
-145.4802697326017
 30
0.0
 42
0.0554505440098963
  0
VERTEX
  5
573
  8
0
 10
653.0
 20
-134.0
 30
0.0
 42
0.0554505440098991
  0
SEQEND
  5
574
  8
0
  0
LINE
  5
42F
  8
0
 10
649.5
 20
-38.5
 30
0.0
 11
653.0
 21
-74.0
 31
0.0
  0
LINE
  5
430
  8
0
 10
622.0
 20
-74.0
 30
0.0
 11
625.49999999999989
 21
-38.5
 31
0.0
  0
LINE
  5
431
  8
0
 10
643.27350269189628
 20
-37.0
 30
0.0
 11
647.31495457622361
 21
-30.0
 31
0.0
  0
LINE
  5
432
  8
0
 10
647.31495457622361
 20
-30.0
 30
0.0
 11
642.40747728811186
 21
-21.499999999999989
 31
0.0
  0
LINE
  5
433
  8
0
 10
642.40747728811186
 20
-21.499999999999989
 30
0.0
 11
632.59252271188814
 21
-21.499999999999989
 31
0.0
  0
LINE
  5
434
  8
0
 10
632.59252271188814
 20
-21.499999999999989
 30
0.0
 11
627.68504542377639
 21
-30.0
 31
0.0
  0
LINE
  5
435
  8
0
 10
627.68504542377639
 20
-30.0
 30
0.0
 11
631.72649730810372
 21
-37.0
 31
0.0
  0
LINE
  5
436
  8
0
 10
625.49999999999989
 20
-38.5
 30
0.0
 11
649.49999999999989
 21
-38.499999999999993
 31
0.0
  0
LINE
  5
437
  8
0
 10
620.43902588230833
 20
-25.24375463560029
 30
0.0
 11
627.2264973081036
 21
-37.0
 31
0.0
  0
LINE
  5
438
  8
0
 10
619.84099217494895
 20
-27.672031484953148
 30
0.0
 11
626.09252271188814
 21
-38.5
 31
0.0
  0
LINE
  5
439
  8
0
 10
627.2264973081036
 20
-37.0
 30
0.0
 11
633.49999999999989
 21
-37.0
 31
0.0
  0
LINE
  5
43A
  8
0
 10
651.0
 20
-37.0
 30
0.0
 11
651.50160397257355
 21
-42.087697436104449
 31
0.0
  0
ARC
  5
43B
  8
0
 10
637.5
 20
-30.0
 30
0.0
 40
6.0
 50
311.81031489577862
 51
228.1896851042213
  0
LINE
  5
43C
  8
0
 10
641.5
 20
-38.5
 30
0.0
 11
641.5
 21
-25.0
 31
0.0
  0
LINE
  5
43D
  8
0
 10
641.5
 20
-25.0
 30
0.0
 11
633.49999999999989
 21
-25.0
 31
0.0
  0
LINE
  5
43E
  8
0
 10
633.49999999999989
 20
-25.0
 30
0.0
 11
633.49999999999989
 21
-38.5
 31
0.0
  0
ARC
  5
43F
  8
0
 10
637.5
 20
-82.937500000000014
 30
0.0
 40
46.5625
 50
255.04475168335659
 51
284.95524831664329
  0
LINE
  5
440
  8
0
 10
651.0
 20
-125.9905650041318
 30
0.0
 11
651.0
 21
-75.5
 31
0.0
  0
LINE
  5
441
  8
0
 10
624.0
 20
-75.5
 30
0.0
 11
624.0
 21
-125.9905650041318
 31
0.0
  0
LINE
  5
442
  8
0
 10
624.0
 20
-75.5
 30
0.0
 11
651.0
 21
-75.5
 31
0.0
  0
LINE
  5
443
  8
0
 10
626.5
 20
-40.0
 30
0.0
 11
624.0
 21
-75.5
 31
0.0
  0
LINE
  5
444
  8
0
 10
651.0
 20
-75.5
 30
0.0
 11
648.5
 21
-40.0
 31
0.0
  0
LINE
  5
445
  8
0
 10
648.5
 20
-40.0
 30
0.0
 11
626.5
 21
-40.0
 31
0.0
  0
LINE
  5
446
  8
0
 10
631.5
 20
-38.5
 30
0.0
 11
631.0
 21
-40.0
 31
0.0
  0
LINE
  5
447
  8
0
 10
643.5
 20
-38.5
 30
0.0
 11
644.0
 21
-40.0
 31
0.0
  0
ARC
  5
448
  8
0
 10
637.5
 20
-32.083333333333329
 30
0.0
 40
6.0833333333333339
 50
48.887909560833101
 51
131.11209043916691
  0
LINE
  5
449
  8
0
 10
641.5
 20
-37.0
 30
0.0
 11
651.0
 21
-37.0
 31
0.0
  0
CIRCLE
  5
44A
  8
0
  6
DASHED
 10
637.5
 20
-30.0
 30
0.0
 40
13.5
  0
LINE
  5
44B
  8
0
  6
CENTER
 10
600.0
 20
-203.0
 30
0.0
 11
600.0
 21
3.0
 31
0.0
  0
LINE
  5
44C
  8
0
  6
CENTER
 10
703.0
 20
-100.0
 30
0.0
 11
497.0
 21
-100.0
 31
0.0
  0
LINE
  5
44D
  8
0
  6
CENTER
 10
654.0
 20
-30.0
 30
0.0
 11
621.0
 21
-30.0
 31
0.0
  0
LINE
  5
44E
  8
0
  6
CENTER
 10
637.5
 20
-46.5
 30
0.0
 11
637.5
 21
-13.5
 31
0.0
  0
LINE
  5
44F
  8
0
 10
750.0
 20
-100.0
 30
0.0
 11
750.0
 21
-80.0
 31
0.0
  0
LINE
  5
450
  8
0
 10
752.0
 20
-78.0
 30
0.0
 11
796.0
 21
-78.0
 31
0.0
  0
LINE
  5
451
  8
0
 10
796.0
 20
-78.0
 30
0.0
 11
796.0
 21
-22.5
 31
0.0
  0
LINE
  5
452
  8
0
 10
812.0
 20
-8.5106258059508271
 30
0.0
 11
812.0
 21
-54.199999999999413
 31
0.0
  0
LINE
  5
453
  8
0
  6
CENTER
 10
747.0
 20
-100.0
 30
0.0
 11
815.0
 21
-100.0
 31
0.0
  0
LINE
  5
454
  8
0
 10
808.01580848593312
 20
-4.0402855945307374
 30
0.0
 11
779.13043259391804
 21
-0.7073576069905511
 31
0.0
  0
LINE
  5
455
  8
0
 10
796.0
 20
-22.5
 30
0.0
 11
774.46739900688613
 21
-22.031899978410571
 31
0.0
  0
LINE
  5
456
  8
0
 10
774.5
 20
-13.5
 30
0.0
 11
807.49999999999989
 21
-13.5
 31
0.0
  0
LINE
  5
457
  8
0
 10
807.49999999999989
 20
-13.5
 30
0.0
 11
807.49999999999989
 21
-9.0
 31
0.0
  0
LINE
  5
458
  8
0
 10
807.49999999999989
 20
-9.0
 30
0.0
 11
774.45653999196941
 21
-8.0422185504918655
 31
0.0
  0
LINE
  5
459
  8
0
 10
772.99999999999977
 20
-6.1711067542817988
 30
0.0
 11
773.0
 21
-78.0
 31
0.0
  0
ARC
  5
45A
  8
0
 10
774.5
 20
-15.0
 30
0.0
 40
1.5
 50
90.0
 51
180.0
  0
ARC
  5
45B
  8
0
 10
774.5
 20
-20.532254295174688
 30
0.0
 40
1.5
 50
180.0
 51
268.75463573323162
  0
ARC
  5
45C
  8
0
 10
778.49999999999989
 20
-6.1711067542817721
 30
0.0
 40
5.5
 50
83.418055344821965
 51
180.0000000000002
  0
ARC
  5
45D
  8
0
 10
774.49999999999989
 20
-6.5428482734415319
 30
0.0
 40
1.5
 50
180.0000000000004
 51
268.33971763101721
  0
LINE
  5
45E
  8
0
 10
808.97014250014536
 20
-22.757464374963661
 30
0.0
 11
800.0
 21
-25.0
 31
0.0
  0
ARC
  5
45F
  8
0
 10
807.49999999999989
 20
-8.5106258059508271
 30
0.0
 40
4.5
 50
0.0
 51
83.418055344821965
  0
ARC
  5
460
  8
0
 10
808.0
 20
-18.876894374382331
 30
0.0
 40
4.0
 50
284.0362434679264
 51
0.0
  0
LINE
  5
461
  8
0
 10
800.0
 20
-25.0
 30
0.0
 11
800.0
 21
-100.0
 31
0.0
  0
LINE
  5
462
  8
0
 10
750.0
 20
-100.0
 30
0.0
 11
750.0
 21
-119.9999999999999
 31
0.0
  0
LINE
  5
463
  8
0
 10
752.0
 20
-121.9999999999999
 30
0.0
 11
773.00000000000011
 21
-122.0
 31
0.0
  0
LINE
  5
464
  8
0
 10
772.99999999999977
 20
-193.82889324571821
 30
0.0
 11
773.0
 21
-100.0
 31
0.0
  0
ARC
  5
465
  8
0
 10
778.49999999999989
 20
-193.82889324571821
 30
0.0
 40
5.5
 50
179.99999999999969
 51
276.58194465517801
  0
LINE
  5
466
  8
0
 10
808.01580848593312
 20
-195.95971440546921
 30
0.0
 11
779.13043259391804
 21
-199.2926423930094
 31
0.0
  0
ARC
  5
467
  8
0
 10
807.49999999999989
 20
-191.48937419404911
 30
0.0
 40
4.5
 50
276.58194465517801
 51
0.0
  0
LINE
  5
468
  8
0
 10
812.0
 20
-191.48937419404911
 30
0.0
 11
811.99999999999989
 21
-100.0
 31
0.0
  0
LINE
  5
469
  8
0
 10
795.0
 20
-86.0
 30
0.0
 11
800.0
 21
-86.0
 31
0.0
  0
LINE
  5
46A
  8
0
 10
795.0
 20
-86.0
 30
0.0
 11
795.0
 21
-100.0
 31
0.0
  0
LINE
  5
46B
  8
0
 10
795.0
 20
-87.5
 30
0.0
 11
788.49999999999989
 21
-87.5
 31
0.0
  0
LINE
  5
46C
  8
0
 10
788.49999999999989
 20
-87.5
 30
0.0
 11
788.49999999999989
 21
-100.0
 31
0.0
  0
ARC
  5
46D
  8
0
 10
774.38057053587602
 20
-101.25693909432989
 30
0.0
 40
25.650244871230349
 50
2.8087902950633872
 51
36.498857821043167
  0
LINE
  5
46E
  8
0
 10
750.0
 20
-97.5
 30
0.0
 11
771.0
 21
-97.5
 31
0.0
  0
LINE
  5
46F
  8
0
 10
771.0
 20
-97.5
 30
0.0
 11
772.0
 21
-100.0
 31
0.0
  0
LINE
  5
470
  8
0
 10
779.0
 20
-85.0
 30
0.0
 11
775.49999999999989
 21
-85.0
 31
0.0
  0
LINE
  5
471
  8
0
 10
779.0
 20
-100.0
 30
0.0
 11
779.0
 21
-85.0
 31
0.0
  0
LINE
  5
472
  8
0
 10
775.49999999999989
 20
-85.0
 30
0.0
 11
775.49999999999989
 21
-86.0
 31
0.0
  0
LINE
  5
473
  8
0
 10
775.49999999999989
 20
-86.0
 30
0.0
 11
773.5
 21
-86.0
 31
0.0
  0
LINE
  5
474
  8
0
 10
773.5
 20
-86.0
 30
0.0
 11
773.5
 21
-85.0
 31
0.0
  0
LINE
  5
475
  8
0
 10
255.5
 20
-85.0
 30
0.0
 11
255.5
 21
-86.0
 31
0.0
  0
LINE
  5
476
  8
0
 10
255.5
 20
-86.0
 30
0.0
 11
253.5
 21
-86.0
 31
0.0
  0
LINE
  5
477
  8
0
 10
253.5
 20
-86.0
 30
0.0
 11
253.5
 21
-85.0
 31
0.0
  0
LINE
  5
478
  8
0
 62
     0
 10
237.66861428242339
 20
-97.5
 30
0.0
 11
250.16861428242339
 21
-85.0
 31
0.0
  0
LINE
  5
479
  8
0
 62
     0
 10
233.42597359530421
 20
-97.5
 30
0.0
 11
245.92597359530421
 21
-85.0
 31
0.0
  0
LINE
  5
47A
  8
0
 62
     0
 10
229.99999999999989
 20
-96.683332908184951
 30
0.0
 11
241.68333290818489
 21
-85.0
 31
0.0
  0
LINE
  5
47B
  8
0
 62
     0
 10
229.99999999999989
 20
-92.440692221065646
 30
0.0
 11
237.4406922210656
 21
-85.0
 31
0.0
  0
LINE
  5
47C
  8
0
 62
     0
 10
229.99999999999989
 20
-88.198051533946369
 30
0.0
 11
233.19805153394631
 21
-85.0
 31
0.0
  0
LINE
  5
47D
  8
0
 62
     0
 10
241.91125496954271
 20
-97.5
 30
0.0
 11
253.5
 21
-85.911254969542782
 31
0.0
  0
LINE
  5
47E
  8
0
 62
     0
 10
246.153895656662
 20
-97.5
 30
0.0
 11
258.65389565666197
 21
-85.0
 31
0.0
  0
LINE
  5
47F
  8
0
 62
     0
 10
250.39653634378129
 20
-97.5
 30
0.0
 11
259.0
 21
-88.896536343781335
 31
0.0
  0
LINE
  5
480
  8
0
 62
     0
 10
254.63917703090061
 20
-97.5
 30
0.0
 11
259.0
 21
-93.139177030900626
 31
0.0
  0
LINE
  5
481
  8
0
 62
     0
 10
256.82337649086281
 20
-99.558441227157104
 30
0.0
 11
259.0
 21
-97.381817718019903
 31
0.0
  0
LINE
  5
482
  8
0
 10
253.5
 20
-85.0
 30
0.0
 11
230.0
 21
-85.0
 31
0.0
  0
LINE
  5
483
  8
0
 10
773.5
 20
-85.0
 30
0.0
 11
750.0
 21
-85.0
 31
0.0
  0
LINE
  5
484
  8
0
 10
779.0
 20
-95.0
 30
0.0
 11
774.0
 21
-100.0
 31
0.0
  0
LINE
  5
485
  8
0
 10
779.0
 20
-99.0
 30
0.0
 11
778.0
 21
-100.0
 31
0.0
  0
LINE
  5
486
  8
0
 62
     0
 10
755.27077811097615
 20
-97.5
 30
0.0
 11
767.27077811097615
 21
-85.5
 31
0.0
  0
LINE
  5
487
  8
0
 62
     0
 10
751.02813742385695
 20
-97.5
 30
0.0
 11
770.52813742385695
 21
-78.0
 31
0.0
  0
LINE
  5
488
  8
0
 62
     0
 10
750.0
 20
-94.28549673673767
 30
0.0
 11
766.28549673673763
 21
-78.0
 31
0.0
  0
LINE
  5
489
  8
0
 62
     0
 10
750.0
 20
-90.042856049618379
 30
0.0
 11
762.04285604961819
 21
-78.0
 31
0.0
  0
LINE
  5
48A
  8
0
 62
     0
 10
750.0
 20
-85.800215362499074
 30
0.0
 11
750.3002153624991
 21
-85.5
 31
0.0
  0
LINE
  5
48B
  8
0
 62
     0
 10
759.51341879809547
 20
-97.5
 30
0.0
 11
771.51341879809547
 21
-85.5
 31
0.0
  0
LINE
  5
48C
  8
0
 62
     0
 10
763.75605948520968
 20
-97.500000000000014
 30
0.0
 11
783.2560594852182
 21
-78.0
 31
0.0
  0
LINE
  5
48D
  8
0
 62
     0
 10
767.99870017233411
 20
-97.5
 30
0.0
 11
779.0
 21
-86.498700172334097
 31
0.0
  0
LINE
  5
48E
  8
0
 62
     0
 10
771.35466881698665
 20
-98.386672042466699
 30
0.0
 11
779.0
 21
-90.741340859453359
 31
0.0
  0
LINE
  5
48F
  8
0
 10
782.97958141909135
 20
-35.716947422154163
 30
0.0
 11
774.46739900688613
 21
-35.531899978410571
 31
0.0
  0
ARC
  5
490
  8
0
 10
774.5
 20
-34.032254295174688
 30
0.0
 40
1.5
 50
180.0
 51
268.75463573323162
  0
LINE
  5
491
  8
0
 10
787.95092006372124
 20
-26.825020001385241
 30
0.0
 11
774.46739900688613
 21
-26.531899978410571
 31
0.0
  0
ARC
  5
492
  8
0
 10
774.5
 20
-25.032254295174688
 30
0.0
 40
1.5
 50
180.0
 51
268.75463573323162
  0
LINE
  5
493
  8
0
 10
779.0
 20
-78.0
 30
0.0
 11
782.97958141909135
 21
-35.716947422154163
 31
0.0
  0
ARC
  5
494
  8
0
 10
773.24326639292599
 20
-24.437861911456189
 30
0.0
 40
14.90012081314679
 50
310.80136689017093
 51
350.78087650013617
  0
ARC
  5
495
  8
0
 10
786.04238706481476
 20
-68.05641767216629
 30
0.0
 40
41.275545448776377
 50
76.039832667756642
 51
87.349765141776857
  0
ARC
  5
496
  8
0
 10
808.0
 20
-21.876894374382331
 30
0.0
 40
4.0
 50
284.0362434679264
 51
0.0
  0
LINE
  5
497
  8
0
 10
808.97014250014536
 20
-25.757464374963661
 30
0.0
 11
800.0
 21
-28.0
 31
0.0
  0
ARC
  5
498
  8
0
 10
808.0
 20
-37.876894374382331
 30
0.0
 40
4.0
 50
319.33326431129711
 51
0.0
  0
LINE
  5
499
  8
0
 62
     0
 10
750.0
 20
-81.557574675379811
 30
0.0
 11
753.55757467537967
 21
-78.0
 31
0.0
  0
LINE
  5
49A
  8
0
 62
     0
 10
808.74343290050626
 20
-22.814141774873391
 30
0.0
 11
811.92867512144994
 21
-19.628899553929969
 31
0.0
  0
LINE
  5
49B
  8
0
 62
     0
 10
796.0
 20
-35.557574675379797
 30
0.0
 11
800.0
 21
-31.557574675379801
 31
0.0
  0
LINE
  5
49C
  8
0
 62
     0
 10
796.0
 20
-31.31493398826052
 30
0.0
 11
800.0
 21
-27.314933988260488
 31
0.0
  0
LINE
  5
49D
  8
0
 62
     0
 10
796.0
 20
-22.829652614021938
 30
0.0
 11
805.32965261402182
 21
-13.5
 31
0.0
  0
LINE
  5
49E
  8
0
 62
     0
 10
807.49999999999989
 20
-11.32965261402194
 30
0.0
 11
811.76227907331906
 21
-7.0673735407027269
 31
0.0
  0
LINE
  5
49F
  8
0
 62
     0
 10
792.17026699228757
 20
-22.41674493461494
 30
0.0
 11
801.08701192690273
 21
-13.5
 31
0.0
  0
LINE
  5
4A0
  8
0
 62
     0
 10
805.6408989148772
 20
-8.9461130120254264
 30
0.0
 11
809.88953645985043
 21
-4.6974754670520928
 31
0.0
  0
LINE
  5
4A1
  8
0
 62
     0
 10
788.01789525595825
 20
-22.32647598382518
 30
0.0
 11
796.84437123978341
 21
-13.5
 31
0.0
  0
LINE
  5
4A2
  8
0
 62
     0
 10
801.51776923302884
 20
-8.8266020067544613
 30
0.0
 11
806.48116042187462
 21
-3.8632108179086222
 31
0.0
  0
LINE
  5
4A3
  8
0
 62
     0
 10
783.86552351962871
 20
-22.236207033035409
 30
0.0
 11
792.60173055266409
 21
-13.5
 31
0.0
  0
LINE
  5
4A4
  8
0
 62
     0
 10
797.39463955118049
 20
-8.7070910014834944
 30
0.0
 11
802.67741359894023
 21
-3.4243169537238689
 31
0.0
  0
LINE
  5
4A5
  8
0
 62
     0
 10
779.71315178329905
 20
-22.145938082245632
 30
0.0
 11
788.35908986554489
 21
-13.5
 31
0.0
  0
LINE
  5
4A6
  8
0
 62
     0
 10
793.27150986933225
 20
-8.5875799962125292
 30
0.0
 11
798.87366677600573
 21
-2.9854230895391161
 31
0.0
  0
LINE
  5
4A7
  8
0
 62
     0
 10
775.56078004696963
 20
-22.055669131455861
 30
0.0
 11
784.11644917842557
 21
-13.5
 31
0.0
  0
LINE
  5
4A8
  8
0
 62
     0
 10
789.14838018748389
 20
-8.4680689909415641
 30
0.0
 11
795.06991995307112
 21
-2.5465292253543619
 31
0.0
  0
LINE
  5
4A9
  8
0
 62
     0
 10
772.99999999999977
 20
-20.37380849130632
 30
0.0
 11
779.87380849130625
 21
-13.5
 31
0.0
  0
LINE
  5
4AA
  8
0
 62
     0
 10
772.99999999999977
 20
-16.13116780418715
 30
0.0
 11
775.63116780418704
 21
-13.5
 31
0.0
  0
LINE
  5
4AB
  8
0
 62
     0
 10
776.77899114193895
 20
-8.1095359751286651
 30
0.0
 11
783.65867948426762
 21
-1.229847632800102
 31
0.0
  0
LINE
  5
4AC
  8
0
 62
     0
 10
773.25959522129801
 20
-7.3862912086503689
 30
0.0
 11
779.85493266133301
 21
-0.7909537686153485
 31
0.0
  0
LINE
  5
4AD
  8
0
 62
     0
 10
750.0
 20
-85.800215362499074
 30
0.0
 11
757.80021536249944
 21
-78.0
 31
0.0
  0
LINE
  5
4AE
  8
0
 62
     0
 10
796.0
 20
-39.800215362499088
 30
0.0
 11
800.0
 21
-35.800215362499081
 31
0.0
  0
LINE
  5
4AF
  8
0
 62
     0
 10
796.0
 20
-44.042856049618372
 30
0.0
 11
800.0
 21
-40.042856049618372
 31
0.0
  0
LINE
  5
4B0
  8
0
 62
     0
 10
796.0
 20
-48.285496736737663
 30
0.0
 11
800.0
 21
-44.285496736737649
 31
0.0
  0
LINE
  5
4B1
  8
0
 62
     0
 10
796.0
 20
-52.528137423856933
 30
0.0
 11
800.0
 21
-48.528137423856947
 31
0.0
  0
LINE
  5
4B2
  8
0
 62
     0
 10
767.27077811097615
 20
-85.5
 30
0.0
 11
774.77077811097615
 21
-78.0
 31
0.0
  0
LINE
  5
4B3
  8
0
 62
     0
 10
796.0
 20
-56.770778110976231
 30
0.0
 11
800.0
 21
-52.770778110976231
 31
0.0
  0
LINE
  5
4B4
  8
0
 62
     0
 10
771.51341879809547
 20
-85.5
 30
0.0
 11
779.01341879809536
 21
-78.0
 31
0.0
  0
LINE
  5
4B5
  8
0
 62
     0
 10
796.0
 20
-61.013418798095522
 30
0.0
 11
800.0
 21
-57.013418798095508
 31
0.0
  0
LINE
  5
4B6
  8
0
 62
     0
 10
796.0
 20
-65.256059485214806
 30
0.0
 11
800.0
 21
-61.256059485214799
 31
0.0
  0
LINE
  5
4B7
  8
0
 62
     0
 10
779.0
 20
-86.498700172334097
 30
0.0
 11
787.498700172334
 21
-78.0
 31
0.0
  0
LINE
  5
4B8
  8
0
 62
     0
 10
796.0
 20
-69.498700172334082
 30
0.0
 11
800.0
 21
-65.498700172334082
 31
0.0
  0
LINE
  5
4B9
  8
0
 62
     0
 10
779.0
 20
-90.741340859453359
 30
0.0
 11
791.74134085945332
 21
-78.0
 31
0.0
  0
LINE
  5
4BA
  8
0
 62
     0
 10
796.0
 20
-73.741340859453373
 30
0.0
 11
800.0
 21
-69.741340859453373
 31
0.0
  0
LINE
  5
4BB
  8
0
 62
     0
 10
779.0
 20
-94.983981546572664
 30
0.0
 11
795.98398154657264
 21
-78.0
 31
0.0
  0
LINE
  5
4BC
  8
0
 62
     0
 10
796.0
 20
-77.98398154657265
 30
0.0
 11
800.0
 21
-73.983981546572664
 31
0.0
  0
LINE
  5
4BD
  8
0
 62
     0
 10
779.0
 20
-99.226622233691941
 30
0.0
 11
788.50000000000011
 21
-89.726622233691955
 31
0.0
  0
LINE
  5
4BE
  8
0
 62
     0
 10
790.72662223369196
 20
-87.5
 30
0.0
 11
800.0
 21
-78.226622233691941
 31
0.0
  0
LINE
  5
4BF
  8
0
 62
     0
 10
782.4692629208115
 20
-100.0
 30
0.0
 11
788.49999999999989
 21
-93.969262920811403
 31
0.0
  0
LINE
  5
4C0
  8
0
 62
     0
 10
796.46926292081116
 20
-86.0
 30
0.0
 11
800.0
 21
-82.469262920811232
 31
0.0
  0
LINE
  5
4C1
  8
0
 62
     0
 10
786.71190360793071
 20
-100.0
 30
0.0
 11
788.49999999999989
 21
-98.211903607930736
 31
0.0
  0
LINE
  5
4C2
  8
0
 62
     0
 10
800.0
 20
-70.265801815483059
 30
0.0
 11
796.0
 21
-66.265801815483044
 31
0.0
  0
LINE
  5
4C3
  8
0
 62
     0
 10
800.0
 20
-74.508442502602335
 30
0.0
 11
796.0
 21
-70.508442502602335
 31
0.0
  0
LINE
  5
4C4
  8
0
 62
     0
 10
800.0
 20
-78.751083189721626
 30
0.0
 11
796.0
 21
-74.751083189721626
 31
0.0
  0
LINE
  5
4C5
  8
0
 62
     0
 10
800.0
 20
-82.993723876840903
 30
0.0
 11
795.00627612315895
 21
-78.0
 31
0.0
  0
LINE
  5
4C6
  8
0
 62
     0
 10
798.76363543603975
 20
-86.0
 30
0.0
 11
790.76363543603975
 21
-78.0
 31
0.0
  0
LINE
  5
4C7
  8
0
 62
     0
 10
795.0
 20
-86.479005251079556
 30
0.0
 11
786.52099474892043
 21
-78.0
 31
0.0
  0
LINE
  5
4C8
  8
0
 62
     0
 10
791.77835406180122
 20
-87.5
 30
0.0
 11
782.27835406180122
 21
-78.0
 31
0.0
  0
LINE
  5
4C9
  8
0
 62
     0
 10
788.49999999999989
 20
-88.464286625318067
 30
0.0
 11
778.0357133746819
 21
-78.0
 31
0.0
  0
LINE
  5
4CA
  8
0
 62
     0
 10
788.50000000000011
 20
-92.706927312437344
 30
0.0
 11
773.79307268756247
 21
-78.0
 31
0.0
  0
LINE
  5
4CB
  8
0
 62
     0
 10
788.50000000000011
 20
-96.949567999556635
 30
0.0
 11
779.0
 21
-87.449567999556635
 31
0.0
  0
LINE
  5
4CC
  8
0
 62
     0
 10
787.30779131332395
 20
-100.0
 30
0.0
 11
779.0
 21
-91.692208686675897
 31
0.0
  0
LINE
  5
4CD
  8
0
 62
     0
 10
783.06515062620485
 20
-100.0
 30
0.0
 11
779.0
 21
-95.934849373795174
 31
0.0
  0
LINE
  5
4CE
  8
0
 62
     0
 10
763.82250993908553
 20
-85.0
 30
0.0
 11
756.82250993908553
 21
-78.0
 31
0.0
  0
LINE
  5
4CF
  8
0
 62
     0
 10
759.57986925196633
 20
-85.0
 30
0.0
 11
752.57986925196622
 21
-78.0
 31
0.0
  0
LINE
  5
4D0
  8
0
 62
     0
 10
755.33722856484701
 20
-85.0
 30
0.0
 11
750.0
 21
-79.662771435152976
 31
0.0
  0
LINE
  5
4D1
  8
0
 62
     0
 10
751.09458787772769
 20
-85.0
 30
0.0
 11
750.0
 21
-83.905412122272239
 31
0.0
  0
LINE
  5
4D2
  8
0
 62
     0
 10
800.0
 20
-66.023161128363753
 30
0.0
 11
796.0
 21
-62.023161128363768
 31
0.0
  0
LINE
  5
4D3
  8
0
 62
     0
 10
800.0
 20
-61.780520441244491
 30
0.0
 11
796.0
 21
-57.78052044124447
 31
0.0
  0
LINE
  5
4D4
  8
0
 62
     0
 10
800.0
 20
-57.537879754125193
 30
0.0
 11
796.0
 21
-53.537879754125193
 31
0.0
  0
LINE
  5
4D5
  8
0
 62
     0
 10
800.0
 20
-53.295239067005909
 30
0.0
 11
796.0
 21
-49.295239067005909
 31
0.0
  0
LINE
  5
4D6
  8
0
 62
     0
 10
800.0
 20
-49.052598379886618
 30
0.0
 11
796.0
 21
-45.052598379886632
 31
0.0
  0
LINE
  5
4D7
  8
0
 62
     0
 10
800.0
 20
-44.809957692767327
 30
0.0
 11
795.99999999999989
 21
-40.809957692767327
 31
0.0
  0
LINE
  5
4D8
  8
0
 62
     0
 10
800.0
 20
-40.56731700564805
 30
0.0
 11
796.0
 21
-36.56731700564805
 31
0.0
  0
LINE
  5
4D9
  8
0
 62
     0
 10
781.62007594978195
 20
-22.187392955430042
 30
0.0
 11
773.40621551164975
 21
-13.97353251729794
 31
0.0
  0
LINE
  5
4DA
  8
0
 62
     0
 10
800.0
 20
-36.324676318528759
 30
0.0
 11
796.0
 21
-32.324676318528759
 31
0.0
  0
LINE
  5
4DB
  8
0
 62
     0
 10
785.95699754105954
 20
-22.281673859588249
 30
0.0
 11
777.17532368147124
 21
-13.5
 31
0.0
  0
LINE
  5
4DC
  8
0
 62
     0
 10
800.0
 20
-32.082035631409482
 30
0.0
 11
796.0
 21
-28.082035631409479
 31
0.0
  0
LINE
  5
4DD
  8
0
 62
     0
 10
776.00506778257818
 20
-8.0871034139877764
 30
0.0
 11
773.09126744742343
 21
-5.1733030788328742
 31
0.0
  0
LINE
  5
4DE
  8
0
 62
     0
 10
790.29391913233701
 20
-22.375954763746449
 30
0.0
 11
781.41796436859045
 21
-13.5
 31
0.0
  0
LINE
  5
4DF
  8
0
 62
     0
 10
800.0
 20
-27.839394944290191
 30
0.0
 11
796.0
 21
-23.839394944290191
 31
0.0
  0
LINE
  5
4E0
  8
0
 62
     0
 10
780.37435446035784
 20
-8.2137494046480537
 30
0.0
 11
774.52767898369996
 21
-2.3670739279903028
 31
0.0
  0
LINE
  5
4E1
  8
0
 62
     0
 10
794.63084072361448
 20
-22.47023566790466
 30
0.0
 11
785.66060505570988
 21
-13.5
 31
0.0
  0
LINE
  5
4E2
  8
0
 62
     0
 10
801.1225965942632
 20
-24.719350851434179
 30
0.0
 11
789.90324574282897
 21
-13.5
 31
0.0
  0
LINE
  5
4E3
  8
0
 62
     0
 10
784.74364113813749
 20
-8.3403953953083292
 30
0.0
 11
777.22433563477068
 21
-0.8210898919415871
 31
0.0
  0
LINE
  5
4E4
  8
0
 62
     0
 10
804.51670914395868
 20
-23.87082271401032
 30
0.0
 11
794.1458864299484
 21
-13.5
 31
0.0
  0
LINE
  5
4E5
  8
0
 62
     0
 10
789.11292781591703
 20
-8.4670413859686082
 30
0.0
 11
781.64317596428953
 21
-0.9972895343410915
 31
0.0
  0
LINE
  5
4E6
  8
0
 62
     0
 10
807.91082169365416
 20
-23.022294576586471
 30
0.0
 11
798.38852711706772
 21
-13.5
 31
0.0
  0
LINE
  5
4E7
  8
0
 62
     0
 10
793.48221449369657
 20
-8.5936873766288855
 30
0.0
 11
786.43920456711987
 21
-1.550677450052302
 31
0.0
  0
LINE
  5
4E8
  8
0
 62
     0
 10
810.83245534146147
 20
-21.701287537274482
 30
0.0
 11
802.63116780418704
 21
-13.5
 31
0.0
  0
LINE
  5
4E9
  8
0
 62
     0
 10
797.85150117147612
 20
-8.7203333672891628
 30
0.0
 11
791.23523316995045
 21
-2.1040653657635131
 31
0.0
  0
LINE
  5
4EA
  8
0
 62
     0
 10
812.0
 20
-18.62619150869374
 30
0.0
 11
806.87380849130625
 21
-13.5
 31
0.0
  0
LINE
  5
4EB
  8
0
 62
     0
 10
812.0
 20
-14.38355082157444
 30
0.0
 11
807.49999999999989
 21
-9.8835508215744294
 31
0.0
  0
LINE
  5
4EC
  8
0
 62
     0
 10
785.02525050563565
 20
-8.3485579856705971
 30
0.0
 11
791.26617313013662
 21
-2.107635361169609
 31
0.0
  0
LINE
  5
4ED
  8
0
 62
     0
 10
780.9021208237873
 20
-8.229046980399632
 30
0.0
 11
787.46242630720212
 21
-1.6687414969848551
 31
0.0
  0
LINE
  5
4EE
  8
0
 62
     0
 10
806.59007452703531
 20
-8.9736253486097191
 30
0.0
 11
800.82729037561148
 21
-3.2108411971859341
 31
0.0
  0
LINE
  5
4EF
  8
0
 62
     0
 10
802.22078784925554
 20
-8.8469793579494418
 30
0.0
 11
796.03126177278102
 21
-2.6574532814747238
 31
0.0
  0
LINE
  5
4F0
  8
0
 62
     0
 10
777.28315435850459
 20
-22.093112051271842
 30
0.0
 11
772.99999999999966
 21
-17.809957692767121
 31
0.0
  0
LINE
  5
4F1
  8
0
 62
     0
 10
768.06515062620485
 20
-85.0
 30
0.0
 11
761.06515062620474
 21
-78.0
 31
0.0
  0
LINE
  5
4F2
  8
0
 62
     0
 10
776.55043200044315
 20
-85.0
 30
0.0
 11
769.55043200044315
 21
-78.0
 31
0.0
  0
LINE
  5
4F3
  8
0
 62
     0
 10
772.30779131332395
 20
-85.0
 30
0.0
 11
765.30779131332395
 21
-78.0
 31
0.0
  0
LINE
  5
4F4
  8
0
 62
     0
 10
803.08657865101395
 20
-24.228355337246509
 30
0.0
 11
812.0
 21
-15.31493398826033
 31
0.0
  0
LINE
  5
4F5
  8
0
 10
796.0
 20
-27.0
 30
0.0
 11
812.0
 21
-11.0
 31
0.0
  0
LINE
  5
4F6
  8
0
 10
812.0
 20
-10.0
 30
0.0
 11
805.78260869565202
 21
-3.7826086956521712
 31
0.0
  0
ARC
  5
4F7
  8
0
 10
752.0
 20
-119.9999999999999
 30
0.0
 40
2.0
 50
180.0
 51
270.0
  0
ARC
  5
4F8
  8
0
 10
752.0
 20
-80.0
 30
0.0
 40
2.0
 50
90.0
 51
180.0
  0
ARC
  5
4F9
  8
0
 10
626.0
 20
-125.9905650041318
 30
0.0
 40
2.0
 50
180.0
 51
255.04475168335699
  0
ARC
  5
4FA
  8
0
 10
649.0
 20
-125.9905650041318
 30
0.0
 40
2.0
 50
284.95524831664289
 51
0.0
  0
ARC
  5
4FB
  8
0
 10
800.0
 20
-82.937500000000014
 30
0.0
 40
46.5625
 50
284.9347064767631
 51
286.85393804296132
  0
LINE
  5
4FC
  8
0
 10
813.49999999999989
 20
-127.5
 30
0.0
 11
813.49999999999989
 21
-75.5
 31
0.0
  0
LINE
  5
4FD
  8
0
 10
800.0
 20
-75.5
 30
0.0
 11
813.49999999999989
 21
-75.5
 31
0.0
  0
LINE
  5
4FE
  8
0
 10
813.49999999999989
 20
-75.5
 30
0.0
 11
811.0
 21
-40.0
 31
0.0
  0
LINE
  5
4FF
  8
0
 10
811.0
 20
-40.0
 30
0.0
 11
800.0
 21
-40.0
 31
0.0
  0
LINE
  5
500
  8
0
 10
805.66666666666663
 20
-37.5
 30
0.0
 11
806.49999999999989
 21
-40.0
 31
0.0
  0
LINE
  5
501
  8
0
  6
DASHED
 10
849.5
 20
-43.5
 30
0.0
 11
901.5
 21
-43.5
 31
0.0
  0
LINE
  5
502
  8
0
  6
DASHED
 10
901.5
 20
-16.5
 30
0.0
 11
849.5
 21
-16.5
 31
0.0
  0
ARC
  5
503
  8
0
  6
DASHED
 10
856.9375
 20
-30.0
 30
0.0
 40
46.5625
 50
343.14606195703863
 51
16.853938042961339
  0
LINE
  5
504
  8
0
  6
DASHED
 10
814.0
 20
-19.0
 30
0.0
 11
814.0
 21
-41.0
 31
0.0
  0
LINE
  5
505
  8
0
  6
DASHED
 10
849.5
 20
-43.5
 30
0.0
 11
849.5
 21
-16.5
 31
0.0
  0
LINE
  5
506
  8
0
  6
DASHED
 10
814.0
 20
-41.0
 30
0.0
 11
849.5
 21
-43.5
 31
0.0
  0
LINE
  5
507
  8
0
  6
DASHED
 10
811.99999999999989
 20
-35.833333333333329
 30
0.0
 11
814.0
 21
-36.5
 31
0.0
  0
LINE
  5
508
  8
0
  6
DASHED
 10
849.5
 20
-16.5
 30
0.0
 11
814.0
 21
-19.0
 31
0.0
  0
LINE
  5
509
  8
0
  6
DASHED
 10
812.0
 20
-24.166666666666661
 30
0.0
 11
814.0
 21
-23.5
 31
0.0
  0
LINE
  5
50A
  8
0
  6
CENTER
 10
906.49999999999989
 20
-30.0
 30
0.0
 11
770.0
 21
-30.0
 31
0.0
  0
ARC
  5
50B
  8
0
 10
808.0
 20
-30.876894374382331
 30
0.0
 40
4.0
 50
284.0362434679264
 51
0.0
  0
LINE
  5
50C
  8
0
 10
808.97014250014536
 20
-34.757464374963661
 30
0.0
 11
800.0
 21
-37.0
 31
0.0
  0
LINE
  5
50D
  8
0
 10
805.66666666666663
 20
-37.5
 30
0.0
 11
800.0
 21
-37.5
 31
0.0
  0
LINE
  5
50E
  8
0
 10
804.0
 20
-37.5
 30
0.0
 11
804.0
 21
-36.0
 31
0.0
  0
LINE
  5
50F
  8
0
 10
504.04028559453059
 20
108.01580848593311
 30
0.0
 11
500.70735760699051
 21
79.130432593918158
 31
0.0
  0
LINE
  5
510
  8
0
  6
CENTER
 10
600.0
 20
47.0
 30
0.0
 11
600.0
 21
206.49999999999989
 31
0.0
  0
LINE
  5
511
  8
0
 10
695.9597144054693
 20
108.01580848593311
 30
0.0
 11
699.29264239300949
 21
79.130432593918158
 31
0.0
  0
LINE
  5
512
  8
0
 10
693.82889324571806
 20
72.999999999999886
 30
0.0
 11
506.17110675428171
 21
73.000000000000114
 31
0.0
  0
ARC
  5
513
  8
0
 10
693.82889324571829
 20
78.499999999999886
 30
0.0
 40
5.5
 50
269.99999999999972
 51
6.5819446551780292
  0
ARC
  5
514
  8
0
 10
620.0
 20
52.0
 30
0.0
 40
2.0
 50
270.0
 51
0.0
  0
LINE
  5
515
  8
0
 10
622.0
 20
52.0
 30
0.0
 11
622.0
 21
73.000000000000114
 31
0.0
  0
LINE
  5
516
  8
0
 10
600.0
 20
50.0
 30
0.0
 11
580.0
 21
50.0
 31
0.0
  0
LINE
  5
517
  8
0
 10
600.0
 20
50.0
 30
0.0
 11
620.0
 21
50.0
 31
0.0
  0
LINE
  5
518
  8
0
 10
578.0
 20
52.0
 30
0.0
 11
578.0
 21
73.0
 31
0.0
  0
ARC
  5
519
  8
0
 10
580.0
 20
52.0
 30
0.0
 40
2.0
 50
180.0
 51
270.0
  0
ARC
  5
51A
  8
0
 10
506.17110675428171
 20
78.499999999999886
 30
0.0
 40
5.5
 50
173.41805534482191
 51
270.00000000000023
  0
LINE
  5
51B
  8
0
 10
691.48937419404911
 20
112.0
 30
0.0
 11
508.51062580595089
 21
111.9999999999997
 31
0.0
  0
ARC
  5
51C
  8
0
 10
691.48937419404911
 20
107.4999999999999
 30
0.0
 40
4.5
 50
6.5819446551780292
 51
90.0
  0
ARC
  5
51D
  8
0
 10
508.51062580595089
 20
107.4999999999999
 30
0.0
 40
4.5
 50
90.0
 51
173.41805534482191
  0
LINE
  5
51E
  8
0
  6
DASHED
 10
613.49999999999989
 20
149.5
 30
0.0
 11
613.49999999999989
 21
201.5
 31
0.0
  0
LINE
  5
51F
  8
0
  6
DASHED
 10
586.5
 20
201.5
 30
0.0
 11
586.5
 21
149.5
 31
0.0
  0
LINE
  5
520
  8
0
  6
DASHED
 10
613.49999999999989
 20
149.5
 30
0.0
 11
586.5
 21
149.5
 31
0.0
  0
LINE
  5
521
  8
0
  6
DASHED
 10
589.0
 20
114.0
 30
0.0
 11
611.0
 21
114.0
 31
0.0
  0
LINE
  5
522
  8
0
  6
DASHED
 10
611.0
 20
114.0
 30
0.0
 11
613.49999999999989
 21
149.5
 31
0.0
  0
LINE
  5
523
  8
0
  6
DASHED
 10
605.83333333333314
 20
111.9999999999998
 30
0.0
 11
606.5
 21
114.0
 31
0.0
  0
LINE
  5
524
  8
0
  6
DASHED
 10
586.5
 20
149.5
 30
0.0
 11
589.0
 21
114.0
 31
0.0
  0
LINE
  5
525
  8
0
  6
DASHED
 10
594.16666666666663
 20
112.0
 30
0.0
 11
593.5
 21
114.0
 31
0.0
  0
ARC
  5
526
  8
0
  6
DASHED
 10
600.0
 20
156.93749999999989
 30
0.0
 40
46.5625
 50
73.146061957038683
 51
106.8539380429613
  0
ARC
  5
527
  8
0
 10
600.0
 20
100.0
 30
0.0
 40
13.5
 50
62.733955549266142
 51
117.2660444507339
  0
ARC
  5
528
  8
0
 10
600.0
 20
358.08356226242353
 30
0.0
 40
3.0
 50
278.53076560994799
 51
0.0
  0
LINE
  5
529
  8
0
 10
600.44502135879065
 20
355.11675320381858
 30
0.0
 11
593.0
 21
354.0
 31
0.0
  0
ARC
  5
52A
  8
0
 10
285.0
 20
-31.58103798995829
 30
0.0
 40
2.0
 50
289.2900462191887
 51
0.0
  0
LINE
  5
52B
  8
0
 10
277.0
 20
-36.5
 30
0.0
 11
285.66070084945608
 21
-33.468754702690319
 31
0.0
  0
ENDSEC
  0
EOF
