  0
SECTION
  2
HEADER
  9
$ACADVER
  1
AC1009
  9
$INSBASE
 10
0.0
 20
0.0
 30
0.0
  9
$EXTMIN
 10
-65.061667
 20
-107.557731
 30
0.0
  9
$EXTMAX
 10
22.272086
 20
10.973482
 30
0.0
  9
$LIMMIN
 10
0.0
 20
0.0
  9
$LIMMAX
 10
12.0
 20
9.0
  9
$ORTHOMODE
 70
     1
  9
$REGENMODE
 70
     1
  9
$FILLMODE
 70
     1
  9
$QTEXTMODE
 70
     0
  9
$MIRRTEXT
 70
     1
  9
$DRAGMODE
 70
     2
  9
$LTSCALE
 40
8.0
  9
$OSMODE
 70
     0
  9
$ATTMODE
 70
     1
  9
$TEXTSIZE
 40
0.2
  9
$TRACEWID
 40
0.05
  9
$TEXTSTYLE
  7
STANDARD
  9
$CLAYER
  8
0
  9
$CELTYPE
  6
BYLAYER
  9
$CECOLOR
 62
   256
  9
$DIMSCALE
 40
1.0
  9
$DIMASZ
 40
2.5
  9
$DIMEXO
 40
0.0
  9
$DIMDLI
 40
5.0
  9
$DIMRND
 40
0.0
  9
$DIMDLE
 40
0.0
  9
$DIMEXE
 40
1.0
  9
$DIMTP
 40
0.0
  9
$DIMTM
 40
0.0
  9
$DIMTXT
 40
2.5
  9
$DIMCEN
 40
0.09
  9
$DIMTSZ
 40
0.0
  9
$DIMTOL
 70
     0
  9
$DIMLIM
 70
     0
  9
$DIMTIH
 70
     0
  9
$DIMTOH
 70
     0
  9
$DIMSE1
 70
     0
  9
$DIMSE2
 70
     0
  9
$DIMTAD
 70
     1
  9
$DIMZIN
 70
     0
  9
$DIMBLK
  1

  9
$DIMASO
 70
     0
  9
$DIMSHO
 70
     0
  9
$DIMPOST
  1

  9
$DIMAPOST
  1

  9
$DIMALT
 70
     0
  9
$DIMALTD
 70
     2
  9
$DIMALTF
 40
25.4
  9
$DIMLFAC
 40
1.0
  9
$DIMTOFL
 70
     1
  9
$DIMTVP
 40
0.0
  9
$DIMTIX
 70
     0
  9
$DIMSOXD
 70
     0
  9
$DIMSAH
 70
     0
  9
$DIMBLK1
  1

  9
$DIMBLK2
  1

  9
$DIMSTYLE
  2
*UNNAMED
  9
$DIMCLRD
 70
     0
  9
$DIMCLRE
 70
     0
  9
$DIMCLRT
 70
     0
  9
$DIMTFAC
 40
1.0
  9
$DIMGAP
 40
0.09
  9
$LUNITS
 70
     2
  9
$LUPREC
 70
     4
  9
$SKETCHINC
 40
0.1
  9
$FILLETRAD
 40
1.5
  9
$AUNITS
 70
     0
  9
$AUPREC
 70
     0
  9
$MENU
  1
wiberger
  9
$ELEVATION
 40
0.0
  9
$PELEVATION
 40
0.0
  9
$THICKNESS
 40
0.0
  9
$LIMCHECK
 70
     0
  9
$BLIPMODE
 70
     1
  9
$CHAMFERA
 40
0.0
  9
$CHAMFERB
 40
0.0
  9
$SKPOLY
 70
     0
  9
$TDCREATE
 40
2450190.429805324
  9
$TDUPDATE
 40
2450207.557688194
  9
$TDINDWG
 40
0.0005950231
  9
$TDUSRTIMER
 40
0.0005950231
  9
$USRTIMER
 70
     1
  9
$ANGBASE
 50
0.0
  9
$ANGDIR
 70
     0
  9
$PDMODE
 70
     0
  9
$PDSIZE
 40
0.0
  9
$PLINEWID
 40
0.0
  9
$COORDS
 70
     0
  9
$SPLFRAME
 70
     0
  9
$SPLINETYPE
 70
     6
  9
$SPLINESEGS
 70
     8
  9
$ATTDIA
 70
     0
  9
$ATTREQ
 70
     1
  9
$HANDLING
 70
     0
  9
$HANDSEED
  5
0
  9
$SURFTAB1
 70
     6
  9
$SURFTAB2
 70
     6
  9
$SURFTYPE
 70
     6
  9
$SURFU
 70
     6
  9
$SURFV
 70
     6
  9
$UCSNAME
  2

  9
$UCSORG
 10
0.0
 20
0.0
 30
0.0
  9
$UCSXDIR
 10
1.0
 20
0.0
 30
0.0
  9
$UCSYDIR
 10
0.0
 20
1.0
 30
0.0
  9
$PUCSNAME
  2

  9
$PUCSORG
 10
0.0
 20
0.0
 30
0.0
  9
$PUCSXDIR
 10
1.0
 20
0.0
 30
0.0
  9
$PUCSYDIR
 10
0.0
 20
1.0
 30
0.0
  9
$USERI1
 70
     0
  9
$USERI2
 70
     0
  9
$USERI3
 70
     0
  9
$USERI4
 70
     0
  9
$USERI5
 70
     0
  9
$USERR1
 40
0.0
  9
$USERR2
 40
0.0
  9
$USERR3
 40
0.0
  9
$USERR4
 40
0.0
  9
$USERR5
 40
0.0
  9
$WORLDVIEW
 70
     1
  9
$SHADEDGE
 70
     3
  9
$SHADEDIF
 70
    70
  9
$TILEMODE
 70
     1
  9
$MAXACTVP
 70
    16
  9
$PINSBASE
 10
0.0
 20
0.0
 30
0.0
  9
$PLIMCHECK
 70
     0
  9
$PEXTMIN
 10
1.000000E+20
 20
1.000000E+20
 30
1.000000E+20
  9
$PEXTMAX
 10
-1.000000E+20
 20
-1.000000E+20
 30
-1.000000E+20
  9
$PLIMMIN
 10
0.0
 20
0.0
  9
$PLIMMAX
 10
12.0
 20
9.0
  9
$UNITMODE
 70
     0
  9
$VISRETAIN
 70
     0
  9
$PLINEGEN
 70
     0
  9
$PSLTSCALE
 70
     0
  9
$TREEDEPTH
 70
  3020
  9
$DWGCODEPAGE
  3
undefined
  0
ENDSEC
  0
SECTION
  2
TABLES
  0
TABLE
  2
VPORT
 70
     2
  0
VPORT
  2
*ACTIVE
 70
     0
 10
0.0
 20
0.0
 11
1.0
 21
1.0
 12
13.543626
 22
-48.292125
 13
0.0
 23
0.0
 14
1.0
 24
1.0
 15
0.0
 25
0.0
 16
0.0
 26
0.0
 36
1.0
 17
0.0
 27
0.0
 37
0.0
 40
131.701348
 41
1.767507
 42
50.0
 43
0.0
 44
0.0
 50
0.0
 51
0.0
 71
     0
 72
   100
 73
     1
 74
     0
 75
     0
 76
     0
 77
     0
 78
     0
  0
ENDTAB
  0
TABLE
  2
LTYPE
 70
     2
  0
LTYPE
  2
CONTINUOUS
 70
    64
  3
Solid line
 72
    65
 73
     0
 40
0.0
  0
LTYPE
  2
CENTER
 70
    64
  3
____ _ ____ _ ____ _ ____ _ ____ _ ____ _ ____
 72
    65
 73
     4
 40
2.0
 49
1.25
 49
-0.25
 49
0.25
 49
-0.25
  0
ENDTAB
  0
TABLE
  2
LAYER
 70
     1
  0
LAYER
  2
0
 70
    64
 62
     7
  6
CONTINUOUS
  0
ENDTAB
  0
TABLE
  2
STYLE
 70
     1
  0
STYLE
  2
STANDARD
 70
     0
 40
0.0
 41
1.0
 50
0.0
 71
     0
 42
0.2
  3
txt
  4

  0
ENDTAB
  0
TABLE
  2
VIEW
 70
     0
  0
ENDTAB
  0
TABLE
  2
UCS
 70
     0
  0
ENDTAB
  0
TABLE
  2
APPID
 70
     1
  0
APPID
  2
ACAD
 70
    64
  0
ENDTAB
  0
TABLE
  2
DIMSTYLE
 70
     0
  0
ENDTAB
  0
ENDSEC
  0
SECTION
  2
BLOCKS
  0
BLOCK
  8
0
  2
*X0
 70
    65
 10
0.0
 20
0.0
 30
0.0
  3
*X
  0
LINE
  8
0
 62
     0
 10
-61.039342
 20
-6.842909
 30
0.0
 11
-64.343273
 21
-3.538978
 31
0.0
  0
LINE
  8
0
 62
     0
 10
-61.039342
 20
-8.964229
 30
0.0
 11
-64.256885
 21
-5.746687
 31
0.0
  0
LINE
  8
0
 62
     0
 10
-61.039342
 20
-11.08555
 30
0.0
 11
-64.170496
 21
-7.954396
 31
0.0
  0
LINE
  8
0
 62
     0
 10
-61.039342
 20
-13.20687
 30
0.0
 11
-64.084108
 21
-10.162104
 31
0.0
  0
LINE
  8
0
 62
     0
 10
-61.039342
 20
-15.32819
 30
0.0
 11
-63.997719
 21
-12.369813
 31
0.0
  0
LINE
  8
0
 62
     0
 10
-61.039342
 20
-17.449511
 30
0.0
 11
-63.868535
 21
-14.620318
 31
0.0
  0
LINE
  8
0
 62
     0
 10
-61.039342
 20
-19.570831
 30
0.0
 11
-63.650163
 21
-16.96001
 31
0.0
  0
LINE
  8
0
 62
     0
 10
-61.039342
 20
-21.692151
 30
0.0
 11
-63.431792
 21
-19.299701
 31
0.0
  0
LINE
  8
0
 62
     0
 10
-61.039342
 20
-23.813472
 30
0.0
 11
-63.213421
 21
-21.639393
 31
0.0
  0
LINE
  8
0
 62
     0
 10
-61.039342
 20
-25.934792
 30
0.0
 11
-62.99505
 21
-23.979084
 31
0.0
  0
LINE
  8
0
 62
     0
 10
-61.039342
 20
-28.056112
 30
0.0
 11
-62.776679
 21
-26.318776
 31
0.0
  0
LINE
  8
0
 62
     0
 10
-61.039342
 20
-4.721589
 30
0.0
 11
-64.429662
 21
-1.331269
 31
0.0
  0
LINE
  8
0
 62
     0
 10
-61.039342
 20
-2.600268
 30
0.0
 11
-64.516051
 21
0.87644
 31
0.0
  0
LINE
  8
0
 62
     0
 10
-61.039342
 20
-0.478948
 30
0.0
 11
-64.602439
 21
3.084149
 31
0.0
  0
LINE
  8
0
 62
     0
 10
-61.039342
 20
1.642372
 30
0.0
 11
-64.688828
 21
5.291858
 31
0.0
  0
LINE
  8
0
 62
     0
 10
-61.039342
 20
3.763693
 30
0.0
 11
-64.775216
 21
7.499567
 31
0.0
  0
LINE
  8
0
 62
     0
 10
-60.292663
 20
5.138334
 30
0.0
 11
-64.574383
 21
9.420054
 31
0.0
  0
LINE
  8
0
 62
     0
 10
-58.171342
 20
5.138334
 30
0.0
 11
-63.237275
 21
10.204267
 31
0.0
  0
LINE
  8
0
 62
     0
 10
-57.039342
 20
6.127654
 30
0.0
 11
-61.55868
 21
10.646992
 31
0.0
  0
LINE
  8
0
 62
     0
 10
-57.039342
 20
8.248974
 30
0.0
 11
-59.752898
 21
10.96253
 31
0.0
  0
LINE
  8
0
 62
     0
 10
-57.039342
 20
10.370295
 30
0.0
 11
-57.793842
 21
11.124795
 31
0.0
  0
LINE
  8
0
 62
     0
 10
-63.970748
 20
-13.05906
 30
0.0
 11
-61.039342
 21
-10.127654
 31
0.0
  0
LINE
  8
0
 62
     0
 10
-63.82945
 20
-15.039082
 30
0.0
 11
-61.039342
 21
-12.248974
 31
0.0
  0
LINE
  8
0
 62
     0
 10
-63.648362
 20
-16.979314
 30
0.0
 11
-61.039342
 21
-14.370295
 31
0.0
  0
LINE
  8
0
 62
     0
 10
-63.467273
 20
-18.919546
 30
0.0
 11
-61.039342
 21
-16.491615
 31
0.0
  0
LINE
  8
0
 62
     0
 10
-63.286185
 20
-20.859778
 30
0.0
 11
-61.039342
 21
-18.612935
 31
0.0
  0
LINE
  8
0
 62
     0
 10
-63.105097
 20
-22.80001
 30
0.0
 11
-61.039342
 21
-20.734256
 31
0.0
  0
LINE
  8
0
 62
     0
 10
-62.924008
 20
-24.740242
 30
0.0
 11
-61.039342
 21
-22.855576
 31
0.0
  0
LINE
  8
0
 62
     0
 10
-62.74292
 20
-26.680474
 30
0.0
 11
-61.039342
 21
-24.976896
 31
0.0
  0
LINE
  8
0
 62
     0
 10
-62.417266
 20
-28.476141
 30
0.0
 11
-61.039342
 21
-27.098217
 31
0.0
  0
LINE
  8
0
 62
     0
 10
-64.050631
 20
-11.017622
 30
0.0
 11
-61.039342
 21
-8.006334
 31
0.0
  0
LINE
  8
0
 62
     0
 10
-64.130513
 20
-8.976184
 30
0.0
 11
-61.039342
 21
-5.885013
 31
0.0
  0
LINE
  8
0
 62
     0
 10
-64.210395
 20
-6.934746
 30
0.0
 11
-61.039342
 21
-3.763693
 31
0.0
  0
LINE
  8
0
 62
     0
 10
-64.290278
 20
-4.893308
 30
0.0
 11
-61.039342
 21
-1.642372
 31
0.0
  0
LINE
  8
0
 62
     0
 10
-64.37016
 20
-2.85187
 30
0.0
 11
-61.039342
 21
0.478948
 31
0.0
  0
LINE
  8
0
 62
     0
 10
-64.450043
 20
-0.810432
 30
0.0
 11
-61.039342
 21
2.600268
 31
0.0
  0
LINE
  8
0
 62
     0
 10
-58.501276
 20
5.138334
 30
0.0
 11
-57.039342
 21
6.600268
 31
0.0
  0
LINE
  8
0
 62
     0
 10
-64.529925
 20
1.231006
 30
0.0
 11
-61.039342
 21
4.721589
 31
0.0
  0
LINE
  8
0
 62
     0
 10
-60.622597
 20
5.138334
 30
0.0
 11
-57.039342
 21
8.721589
 31
0.0
  0
LINE
  8
0
 62
     0
 10
-64.609807
 20
3.272444
 30
0.0
 11
-57.039342
 21
10.842909
 31
0.0
  0
LINE
  8
0
 62
     0
 10
-64.68969
 20
5.313882
 30
0.0
 11
-58.952435
 21
11.051136
 31
0.0
  0
LINE
  8
0
 62
     0
 10
-64.769572
 20
7.35532
 30
0.0
 11
-61.455458
 21
10.669434
 31
0.0
  0
ENDBLK
  8
0
  0
BLOCK
  8
0
  2
*X1
 70
    65
 10
0.0
 20
0.0
 30
0.0
  3
*X
  0
LINE
  8
0
 62
     0
 10
-37.12913
 20
37.12913
 30
0.0
 11
-42.92913
 21
42.92913
 31
0.0
  0
LINE
  8
0
 62
     0
 10
-37.12913
 20
35.00781
 30
0.0
 11
-42.92913
 21
40.80781
 31
0.0
  0
LINE
  8
0
 62
     0
 10
-37.12913
 20
32.88649
 30
0.0
 11
-42.92913
 21
38.68649
 31
0.0
  0
LINE
  8
0
 62
     0
 10
-37.12913
 20
30.765169
 30
0.0
 11
-42.92913
 21
36.565169
 31
0.0
  0
LINE
  8
0
 62
     0
 10
-37.12913
 20
28.643849
 30
0.0
 11
-42.92913
 21
34.443849
 31
0.0
  0
LINE
  8
0
 62
     0
 10
-37.12913
 20
26.522529
 30
0.0
 11
-42.92913
 21
32.322529
 31
0.0
  0
LINE
  8
0
 62
     0
 10
-37.12913
 20
24.401208
 30
0.0
 11
-42.92913
 21
30.201208
 31
0.0
  0
LINE
  8
0
 62
     0
 10
-37.12913
 20
22.279888
 30
0.0
 11
-42.92913
 21
28.079888
 31
0.0
  0
LINE
  8
0
 62
     0
 10
-37.12913
 20
20.158568
 30
0.0
 11
-42.92913
 21
25.958568
 31
0.0
  0
LINE
  8
0
 62
     0
 10
-37.12913
 20
18.037247
 30
0.0
 11
-42.784359
 21
23.692476
 31
0.0
  0
LINE
  8
0
 62
     0
 10
-37.12913
 20
15.915927
 30
0.0
 11
-42.490315
 21
21.277112
 31
0.0
  0
LINE
  8
0
 62
     0
 10
-37.12913
 20
13.794607
 30
0.0
 11
-42.196271
 21
18.861747
 31
0.0
  0
LINE
  8
0
 62
     0
 10
-37.12913
 20
11.673286
 30
0.0
 11
-41.902226
 21
16.446382
 31
0.0
  0
LINE
  8
0
 62
     0
 10
-37.12913
 20
9.551966
 30
0.0
 11
-41.608182
 21
14.031017
 31
0.0
  0
LINE
  8
0
 62
     0
 10
-37.12913
 20
7.430645
 30
0.0
 11
-41.314137
 21
11.615653
 31
0.0
  0
LINE
  8
0
 62
     0
 10
-37.12913
 20
5.309325
 30
0.0
 11
-41.020093
 21
9.200288
 31
0.0
  0
LINE
  8
0
 62
     0
 10
-37.12913
 20
3.188005
 30
0.0
 11
-40.726049
 21
6.784923
 31
0.0
  0
LINE
  8
0
 62
     0
 10
-37.944112
 20
1.881666
 30
0.0
 11
-40.432004
 21
4.369558
 31
0.0
  0
LINE
  8
0
 62
     0
 10
-37.12913
 20
39.250451
 30
0.0
 11
-42.92913
 21
45.050451
 31
0.0
  0
LINE
  8
0
 62
     0
 10
-37.12913
 20
41.371771
 30
0.0
 11
-42.92913
 21
47.171771
 31
0.0
  0
LINE
  8
0
 62
     0
 10
-37.12913
 20
43.493091
 30
0.0
 11
-42.92913
 21
49.293091
 31
0.0
  0
LINE
  8
0
 62
     0
 10
-37.12913
 20
45.614412
 30
0.0
 11
-42.92913
 21
51.414412
 31
0.0
  0
LINE
  8
0
 62
     0
 10
-37.12913
 20
47.735732
 30
0.0
 11
-42.92913
 21
53.535732
 31
0.0
  0
LINE
  8
0
 62
     0
 10
-37.12913
 20
49.857052
 30
0.0
 11
-42.92913
 21
55.657052
 31
0.0
  0
LINE
  8
0
 62
     0
 10
-37.12913
 20
51.978373
 30
0.0
 11
-42.92913
 21
57.778373
 31
0.0
  0
LINE
  8
0
 62
     0
 10
-37.12913
 20
54.099693
 30
0.0
 11
-42.92913
 21
59.899693
 31
0.0
  0
LINE
  8
0
 62
     0
 10
-37.12913
 20
56.221013
 30
0.0
 11
-42.92913
 21
62.021013
 31
0.0
  0
LINE
  8
0
 62
     0
 10
-37.12913
 20
58.342334
 30
0.0
 11
-42.92913
 21
64.142334
 31
0.0
  0
LINE
  8
0
 62
     0
 10
-37.12913
 20
60.463654
 30
0.0
 11
-42.92913
 21
66.263654
 31
0.0
  0
LINE
  8
0
 62
     0
 10
-37.12913
 20
62.584974
 30
0.0
 11
-42.92913
 21
68.384974
 31
0.0
  0
LINE
  8
0
 62
     0
 10
-37.12913
 20
64.706295
 30
0.0
 11
-42.581029
 21
70.158194
 31
0.0
  0
LINE
  8
0
 62
     0
 10
-37.12913
 20
66.827615
 30
0.0
 11
-41.646237
 21
71.344722
 31
0.0
  0
LINE
  8
0
 62
     0
 10
-35.061861
 20
66.881666
 30
0.0
 11
-40.22501
 21
72.044815
 31
0.0
  0
LINE
  8
0
 62
     0
 10
-32.94054
 20
66.881666
 30
0.0
 11
-38.435545
 21
72.376671
 31
0.0
  0
LINE
  8
0
 62
     0
 10
-32.12913
 20
68.191576
 30
0.0
 11
-36.569655
 21
72.632101
 31
0.0
  0
LINE
  8
0
 62
     0
 10
-32.12913
 20
70.312896
 30
0.0
 11
-34.61957
 21
72.803336
 31
0.0
  0
LINE
  8
0
 62
     0
 10
-32.12913
 20
72.434217
 30
0.0
 11
-32.574081
 21
72.879168
 31
0.0
  0
LINE
  8
0
 62
     0
 10
-42.92913
 20
31.317082
 30
0.0
 11
-37.12913
 21
37.117082
 31
0.0
  0
LINE
  8
0
 62
     0
 10
-42.92913
 20
29.195761
 30
0.0
 11
-37.12913
 21
34.995761
 31
0.0
  0
LINE
  8
0
 62
     0
 10
-42.92913
 20
27.074441
 30
0.0
 11
-37.12913
 21
32.874441
 31
0.0
  0
LINE
  8
0
 62
     0
 10
-42.92913
 20
24.953121
 30
0.0
 11
-37.12913
 21
30.753121
 31
0.0
  0
LINE
  8
0
 62
     0
 10
-42.706664
 20
23.054266
 30
0.0
 11
-37.12913
 21
28.6318
 31
0.0
  0
LINE
  8
0
 62
     0
 10
-42.476443
 20
21.163167
 30
0.0
 11
-37.12913
 21
26.51048
 31
0.0
  0
LINE
  8
0
 62
     0
 10
-42.246223
 20
19.272067
 30
0.0
 11
-37.12913
 21
24.38916
 31
0.0
  0
LINE
  8
0
 62
     0
 10
-42.016002
 20
17.380968
 30
0.0
 11
-37.12913
 21
22.267839
 31
0.0
  0
LINE
  8
0
 62
     0
 10
-41.785781
 20
15.489868
 30
0.0
 11
-37.12913
 21
20.146519
 31
0.0
  0
LINE
  8
0
 62
     0
 10
-41.55556
 20
13.598769
 30
0.0
 11
-37.12913
 21
18.025199
 31
0.0
  0
LINE
  8
0
 62
     0
 10
-41.325339
 20
11.707669
 30
0.0
 11
-37.12913
 21
15.903878
 31
0.0
  0
LINE
  8
0
 62
     0
 10
-41.095119
 20
9.81657
 30
0.0
 11
-37.12913
 21
13.782558
 31
0.0
  0
LINE
  8
0
 62
     0
 10
-40.864898
 20
7.92547
 30
0.0
 11
-37.12913
 21
11.661238
 31
0.0
  0
LINE
  8
0
 62
     0
 10
-40.634677
 20
6.034371
 30
0.0
 11
-37.12913
 21
9.539917
 31
0.0
  0
LINE
  8
0
 62
     0
 10
-40.404456
 20
4.143271
 30
0.0
 11
-37.12913
 21
7.418597
 31
0.0
  0
LINE
  8
0
 62
     0
 10
-39.976319
 20
2.450088
 30
0.0
 11
-37.12913
 21
5.297277
 31
0.0
  0
LINE
  8
0
 62
     0
 10
-38.423421
 20
1.881666
 30
0.0
 11
-37.12913
 21
3.175956
 31
0.0
  0
LINE
  8
0
 62
     0
 10
-42.92913
 20
33.438402
 30
0.0
 11
-37.12913
 21
39.238402
 31
0.0
  0
LINE
  8
0
 62
     0
 10
-42.92913
 20
35.559722
 30
0.0
 11
-37.12913
 21
41.359722
 31
0.0
  0
LINE
  8
0
 62
     0
 10
-42.92913
 20
37.681043
 30
0.0
 11
-37.12913
 21
43.481043
 31
0.0
  0
LINE
  8
0
 62
     0
 10
-42.92913
 20
39.802363
 30
0.0
 11
-37.12913
 21
45.602363
 31
0.0
  0
LINE
  8
0
 62
     0
 10
-42.92913
 20
41.923683
 30
0.0
 11
-37.12913
 21
47.723683
 31
0.0
  0
LINE
  8
0
 62
     0
 10
-42.92913
 20
44.045004
 30
0.0
 11
-37.12913
 21
49.845004
 31
0.0
  0
LINE
  8
0
 62
     0
 10
-42.92913
 20
46.166324
 30
0.0
 11
-37.12913
 21
51.966324
 31
0.0
  0
LINE
  8
0
 62
     0
 10
-42.92913
 20
48.287644
 30
0.0
 11
-37.12913
 21
54.087644
 31
0.0
  0
LINE
  8
0
 62
     0
 10
-42.92913
 20
50.408965
 30
0.0
 11
-37.12913
 21
56.208965
 31
0.0
  0
LINE
  8
0
 62
     0
 10
-42.92913
 20
52.530285
 30
0.0
 11
-37.12913
 21
58.330285
 31
0.0
  0
LINE
  8
0
 62
     0
 10
-42.92913
 20
54.651606
 30
0.0
 11
-37.12913
 21
60.451606
 31
0.0
  0
LINE
  8
0
 62
     0
 10
-42.92913
 20
56.772926
 30
0.0
 11
-37.12913
 21
62.572926
 31
0.0
  0
LINE
  8
0
 62
     0
 10
-32.82039
 20
66.881666
 30
0.0
 11
-32.12913
 21
67.572926
 31
0.0
  0
LINE
  8
0
 62
     0
 10
-42.92913
 20
58.894246
 30
0.0
 11
-37.12913
 21
64.694246
 31
0.0
  0
LINE
  8
0
 62
     0
 10
-34.941711
 20
66.881666
 30
0.0
 11
-32.12913
 21
69.694246
 31
0.0
  0
LINE
  8
0
 62
     0
 10
-42.92913
 20
61.015567
 30
0.0
 11
-37.12913
 21
66.815567
 31
0.0
  0
LINE
  8
0
 62
     0
 10
-37.063031
 20
66.881666
 30
0.0
 11
-32.12913
 21
71.815567
 31
0.0
  0
LINE
  8
0
 62
     0
 10
-42.92913
 20
63.136887
 30
0.0
 11
-33.19879
 21
72.867227
 31
0.0
  0
LINE
  8
0
 62
     0
 10
-42.92913
 20
65.258207
 30
0.0
 11
-35.444603
 21
72.742735
 31
0.0
  0
LINE
  8
0
 62
     0
 10
-42.92913
 20
67.379528
 30
0.0
 11
-37.84074
 21
72.467918
 31
0.0
  0
LINE
  8
0
 62
     0
 10
-42.778833
 20
69.651146
 30
0.0
 11
-40.44377
 21
71.986208
 31
0.0
  0
ENDBLK
  8
0
  0
BLOCK
  8
0
  2
*X2
 70
    65
 10
0.0
 20
0.0
 30
0.0
  3
*X
  0
LINE
  8
0
 62
     0
 10
-2.37233
 20
53.284019
 30
0.0
 11
-9.17233
 21
60.084019
 31
0.0
  0
LINE
  8
0
 62
     0
 10
-2.37233
 20
51.162698
 30
0.0
 11
-9.17233
 21
57.962698
 31
0.0
  0
LINE
  8
0
 62
     0
 10
-2.37233
 20
49.041378
 30
0.0
 11
-9.17233
 21
55.841378
 31
0.0
  0
LINE
  8
0
 62
     0
 10
-2.37233
 20
46.920058
 30
0.0
 11
-9.17233
 21
53.720058
 31
0.0
  0
LINE
  8
0
 62
     0
 10
-2.37233
 20
44.798737
 30
0.0
 11
-9.17233
 21
51.598737
 31
0.0
  0
LINE
  8
0
 62
     0
 10
-2.37233
 20
42.677417
 30
0.0
 11
-9.17233
 21
49.477417
 31
0.0
  0
LINE
  8
0
 62
     0
 10
-2.37233
 20
40.556096
 30
0.0
 11
-9.17233
 21
47.356096
 31
0.0
  0
LINE
  8
0
 62
     0
 10
-2.37233
 20
38.434776
 30
0.0
 11
-9.17233
 21
45.234776
 31
0.0
  0
LINE
  8
0
 62
     0
 10
-2.37233
 20
36.313456
 30
0.0
 11
-9.17233
 21
43.113456
 31
0.0
  0
LINE
  8
0
 62
     0
 10
-2.37233
 20
34.192135
 30
0.0
 11
-9.02997
 21
40.849775
 31
0.0
  0
LINE
  8
0
 62
     0
 10
-2.37233
 20
32.070815
 30
0.0
 11
-8.829846
 21
38.528331
 31
0.0
  0
LINE
  8
0
 62
     0
 10
-2.37233
 20
29.949495
 30
0.0
 11
-8.629721
 21
36.206886
 31
0.0
  0
LINE
  8
0
 62
     0
 10
-2.37233
 20
27.828174
 30
0.0
 11
-8.429597
 21
33.885441
 31
0.0
  0
LINE
  8
0
 62
     0
 10
-2.37233
 20
25.706854
 30
0.0
 11
-8.229472
 21
31.563996
 31
0.0
  0
LINE
  8
0
 62
     0
 10
-2.37233
 20
23.585534
 30
0.0
 11
-8.029347
 21
29.242551
 31
0.0
  0
LINE
  8
0
 62
     0
 10
-2.37233
 20
21.464213
 30
0.0
 11
-7.829223
 21
26.921106
 31
0.0
  0
LINE
  8
0
 62
     0
 10
-2.37233
 20
19.342893
 30
0.0
 11
-7.629098
 21
24.599661
 31
0.0
  0
LINE
  8
0
 62
     0
 10
-2.37233
 20
17.221573
 30
0.0
 11
-7.428974
 21
22.278216
 31
0.0
  0
LINE
  8
0
 62
     0
 10
-2.37233
 20
15.100252
 30
0.0
 11
-7.228849
 21
19.956771
 31
0.0
  0
LINE
  8
0
 62
     0
 10
-2.89455
 20
13.501152
 30
0.0
 11
-7.028725
 21
17.635326
 31
0.0
  0
LINE
  8
0
 62
     0
 10
-5.01587
 20
13.501152
 30
0.0
 11
-6.8286
 21
15.313881
 31
0.0
  0
LINE
  8
0
 62
     0
 10
-2.37233
 20
55.405339
 30
0.0
 11
-9.17233
 21
62.205339
 31
0.0
  0
LINE
  8
0
 62
     0
 10
-2.37233
 20
57.526659
 30
0.0
 11
-9.17233
 21
64.326659
 31
0.0
  0
LINE
  8
0
 62
     0
 10
-2.37233
 20
59.64798
 30
0.0
 11
-9.17233
 21
66.44798
 31
0.0
  0
LINE
  8
0
 62
     0
 10
-2.37233
 20
61.7693
 30
0.0
 11
-9.17233
 21
68.5693
 31
0.0
  0
LINE
  8
0
 62
     0
 10
-2.37233
 20
63.89062
 30
0.0
 11
-9.17233
 21
70.69062
 31
0.0
  0
LINE
  8
0
 62
     0
 10
-2.37233
 20
66.011941
 30
0.0
 11
-9.17233
 21
72.811941
 31
0.0
  0
LINE
  8
0
 62
     0
 10
-2.37233
 20
68.133261
 30
0.0
 11
-9.17233
 21
74.933261
 31
0.0
  0
LINE
  8
0
 62
     0
 10
-2.37233
 20
70.254581
 30
0.0
 11
-9.17233
 21
77.054581
 31
0.0
  0
LINE
  8
0
 62
     0
 10
-2.37233
 20
72.375902
 30
0.0
 11
-9.17233
 21
79.175902
 31
0.0
  0
LINE
  8
0
 62
     0
 10
-2.37233
 20
74.497222
 30
0.0
 11
-9.17233
 21
81.297222
 31
0.0
  0
LINE
  8
0
 62
     0
 10
-2.37233
 20
76.618542
 30
0.0
 11
-9.17233
 21
83.418542
 31
0.0
  0
LINE
  8
0
 62
     0
 10
-2.37233
 20
78.739863
 30
0.0
 11
-9.17233
 21
85.539863
 31
0.0
  0
LINE
  8
0
 62
     0
 10
-2.37233
 20
80.861183
 30
0.0
 11
-9.17233
 21
87.661183
 31
0.0
  0
LINE
  8
0
 62
     0
 10
-2.37233
 20
82.982503
 30
0.0
 11
-9.17233
 21
89.782503
 31
0.0
  0
LINE
  8
0
 62
     0
 10
-2.37233
 20
85.103824
 30
0.0
 11
-9.17233
 21
91.903824
 31
0.0
  0
LINE
  8
0
 62
     0
 10
-2.37233
 20
87.225144
 30
0.0
 11
-9.172058
 21
94.024872
 31
0.0
  0
LINE
  8
0
 62
     0
 10
-1.527018
 20
88.501152
 30
0.0
 11
-8.6026
 21
95.576735
 31
0.0
  0
LINE
  8
0
 62
     0
 10
0.594303
 20
88.501152
 30
0.0
 11
-7.309889
 21
96.405344
 31
0.0
  0
LINE
  8
0
 62
     0
 10
2.715623
 20
88.501152
 30
0.0
 11
-5.522924
 21
96.739698
 31
0.0
  0
LINE
  8
0
 62
     0
 10
3.62767
 20
89.710425
 30
0.0
 11
-3.678809
 21
97.016904
 31
0.0
  0
LINE
  8
0
 62
     0
 10
3.62767
 20
91.831746
 30
0.0
 11
-1.777271
 21
97.236687
 31
0.0
  0
LINE
  8
0
 62
     0
 10
3.62767
 20
93.953066
 30
0.0
 11
0.186625
 21
97.394111
 31
0.0
  0
LINE
  8
0
 62
     0
 10
3.62767
 20
96.074386
 30
0.0
 11
2.218833
 21
97.483223
 31
0.0
  0
LINE
  8
0
 62
     0
 10
-9.17233
 20
48.103319
 30
0.0
 11
-2.37233
 21
54.903319
 31
0.0
  0
LINE
  8
0
 62
     0
 10
-9.17233
 20
45.981999
 30
0.0
 11
-2.37233
 21
52.781999
 31
0.0
  0
LINE
  8
0
 62
     0
 10
-9.17233
 20
43.860678
 30
0.0
 11
-2.37233
 21
50.660678
 31
0.0
  0
LINE
  8
0
 62
     0
 10
-9.11187
 20
41.799818
 30
0.0
 11
-2.37233
 21
48.539358
 31
0.0
  0
LINE
  8
0
 62
     0
 10
-8.943512
 20
39.846856
 30
0.0
 11
-2.37233
 21
46.418038
 31
0.0
  0
LINE
  8
0
 62
     0
 10
-8.775153
 20
37.893895
 30
0.0
 11
-2.37233
 21
44.296717
 31
0.0
  0
LINE
  8
0
 62
     0
 10
-8.606794
 20
35.940933
 30
0.0
 11
-2.37233
 21
42.175397
 31
0.0
  0
LINE
  8
0
 62
     0
 10
-8.438435
 20
33.987971
 30
0.0
 11
-2.37233
 21
40.054077
 31
0.0
  0
LINE
  8
0
 62
     0
 10
-8.270077
 20
32.03501
 30
0.0
 11
-2.37233
 21
37.932756
 31
0.0
  0
LINE
  8
0
 62
     0
 10
-8.101718
 20
30.082048
 30
0.0
 11
-2.37233
 21
35.811436
 31
0.0
  0
LINE
  8
0
 62
     0
 10
-7.933359
 20
28.129087
 30
0.0
 11
-2.37233
 21
33.690116
 31
0.0
  0
LINE
  8
0
 62
     0
 10
-7.765
 20
26.176125
 30
0.0
 11
-2.37233
 21
31.568795
 31
0.0
  0
LINE
  8
0
 62
     0
 10
-7.596642
 20
24.223163
 30
0.0
 11
-2.37233
 21
29.447475
 31
0.0
  0
LINE
  8
0
 62
     0
 10
-7.428283
 20
22.270202
 30
0.0
 11
-2.37233
 21
27.326155
 31
0.0
  0
LINE
  8
0
 62
     0
 10
-7.259924
 20
20.31724
 30
0.0
 11
-2.37233
 21
25.204834
 31
0.0
  0
LINE
  8
0
 62
     0
 10
-7.091565
 20
18.364279
 30
0.0
 11
-2.37233
 21
23.083514
 31
0.0
  0
LINE
  8
0
 62
     0
 10
-6.923207
 20
16.411317
 30
0.0
 11
-2.37233
 21
20.962193
 31
0.0
  0
LINE
  8
0
 62
     0
 10
-6.71075
 20
14.502453
 30
0.0
 11
-2.37233
 21
18.840873
 31
0.0
  0
LINE
  8
0
 62
     0
 10
-5.566208
 20
13.525676
 30
0.0
 11
-2.37233
 21
16.719553
 31
0.0
  0
LINE
  8
0
 62
     0
 10
-3.469411
 20
13.501152
 30
0.0
 11
-2.37233
 21
14.598232
 31
0.0
  0
LINE
  8
0
 62
     0
 10
-9.17233
 20
50.224639
 30
0.0
 11
-2.37233
 21
57.024639
 31
0.0
  0
LINE
  8
0
 62
     0
 10
-9.17233
 20
52.34596
 30
0.0
 11
-2.37233
 21
59.14596
 31
0.0
  0
LINE
  8
0
 62
     0
 10
-9.17233
 20
54.46728
 30
0.0
 11
-2.37233
 21
61.26728
 31
0.0
  0
LINE
  8
0
 62
     0
 10
-9.17233
 20
56.5886
 30
0.0
 11
-2.37233
 21
63.3886
 31
0.0
  0
LINE
  8
0
 62
     0
 10
-9.17233
 20
58.709921
 30
0.0
 11
-2.37233
 21
65.509921
 31
0.0
  0
LINE
  8
0
 62
     0
 10
-9.17233
 20
60.831241
 30
0.0
 11
-2.37233
 21
67.631241
 31
0.0
  0
LINE
  8
0
 62
     0
 10
-9.17233
 20
62.952561
 30
0.0
 11
-2.37233
 21
69.752561
 31
0.0
  0
LINE
  8
0
 62
     0
 10
-9.17233
 20
65.073882
 30
0.0
 11
-2.37233
 21
71.873882
 31
0.0
  0
LINE
  8
0
 62
     0
 10
-9.17233
 20
67.195202
 30
0.0
 11
-2.37233
 21
73.995202
 31
0.0
  0
LINE
  8
0
 62
     0
 10
-9.17233
 20
69.316522
 30
0.0
 11
-2.37233
 21
76.116522
 31
0.0
  0
LINE
  8
0
 62
     0
 10
-9.17233
 20
71.437843
 30
0.0
 11
-2.37233
 21
78.237843
 31
0.0
  0
LINE
  8
0
 62
     0
 10
-9.17233
 20
73.559163
 30
0.0
 11
-2.37233
 21
80.359163
 31
0.0
  0
LINE
  8
0
 62
     0
 10
-9.17233
 20
75.680483
 30
0.0
 11
-2.37233
 21
82.480483
 31
0.0
  0
LINE
  8
0
 62
     0
 10
-9.17233
 20
77.801804
 30
0.0
 11
-2.37233
 21
84.601804
 31
0.0
  0
LINE
  8
0
 62
     0
 10
1.527018
 20
88.501152
 30
0.0
 11
3.62767
 21
90.601804
 31
0.0
  0
LINE
  8
0
 62
     0
 10
-9.17233
 20
79.923124
 30
0.0
 11
-2.37233
 21
86.723124
 31
0.0
  0
LINE
  8
0
 62
     0
 10
-0.594303
 20
88.501152
 30
0.0
 11
3.62767
 21
92.723124
 31
0.0
  0
LINE
  8
0
 62
     0
 10
-9.17233
 20
82.044444
 30
0.0
 11
3.62767
 21
94.844444
 31
0.0
  0
LINE
  8
0
 62
     0
 10
-9.17233
 20
84.165765
 30
0.0
 11
3.62767
 21
96.965765
 31
0.0
  0
LINE
  8
0
 62
     0
 10
-9.17233
 20
86.287085
 30
0.0
 11
2.018341
 21
97.477756
 31
0.0
  0
LINE
  8
0
 62
     0
 10
-9.17233
 20
88.408406
 30
0.0
 11
-0.21296
 21
97.367776
 31
0.0
  0
LINE
  8
0
 62
     0
 10
-9.17233
 20
90.529726
 30
0.0
 11
-2.546225
 21
97.155831
 31
0.0
  0
LINE
  8
0
 62
     0
 10
-9.17233
 20
92.651046
 30
0.0
 11
-4.998353
 21
96.825024
 31
0.0
  0
LINE
  8
0
 62
     0
 10
-8.968914
 20
94.975782
 30
0.0
 11
-7.660106
 21
96.284591
 31
0.0
  0
ENDBLK
  8
0
  0
ENDSEC
  0
SECTION
  2
ENTITIES
  0
LINE
  8
0
 10
-61.628329
 20
-74.336957
 30
0.0
 11
-52.450355
 21
-74.336957
 31
0.0
  0
LINE
  8
0
 10
-51.454682
 20
-73.429886
 30
0.0
 11
-50.139342
 21
-59.336957
 31
0.0
  0
LINE
  8
0
 10
-62.624002
 20
-73.429886
 30
0.0
 11
-63.939342
 21
-59.336957
 31
0.0
  0
LINE
  8
0
 10
-63.939342
 20
-59.336957
 30
0.0
 11
-64.816053
 21
-36.932111
 31
0.0
  0
LINE
  8
0
 10
-50.139342
 20
-59.336957
 30
0.0
 11
-49.262631
 21
-36.932111
 31
0.0
  0
ARC
  8
0
 10
-57.039342
 20
-55.366957
 30
0.0
 40
21.03
 50
71.249549
 51
108.750451
  0
ARC
  8
0
 10
-63.317201
 20
-36.873461
 30
0.0
 40
1.5
 50
108.750451
 51
182.240865
  0
ARC
  8
0
 10
-50.761484
 20
-36.873461
 30
0.0
 40
1.5
 50
357.759135
 51
71.249549
  0
ARC
  8
0
 10
-61.628329
 20
-73.336957
 30
0.0
 40
1.0
 50
185.332159
 51
270.0
  0
ARC
  8
0
 10
-52.450355
 20
-73.336957
 30
0.0
 40
1.0
 50
270.0
 51
354.667841
  0
LINE
  8
0
 10
-61.039342
 20
-40.336957
 30
0.0
 11
-57.039342
 21
-40.336957
 31
0.0
  0
LINE
  8
0
 10
-61.039342
 20
-74.336957
 30
0.0
 11
-61.039342
 21
-40.336957
 31
0.0
  0
CIRCLE
  8
0
 10
-57.039342
 20
-87.790778
 30
0.0
 40
7.776711
  0
LINE
  8
0
  6
CENTER
 10
-57.039342
 20
-75.250215
 30
0.0
 11
-57.039342
 21
-32.47029
 31
0.0
  0
LINE
  8
0
  6
CENTER
 10
-26.723487
 20
-75.250215
 30
0.0
 11
-26.723487
 21
-1.791512
 31
0.0
  0
LINE
  8
0
 10
-33.395021
 20
-74.309391
 30
0.0
 11
-20.051953
 21
-74.309391
 31
0.0
  0
LINE
  8
0
 10
-34.884028
 20
-72.990661
 30
0.0
 11
-37.523487
 21
-51.309391
 31
0.0
  0
LINE
  8
0
 10
-37.523487
 20
-51.309391
 30
0.0
 11
-37.523487
 21
-7.554551
 31
0.0
  0
LINE
  8
0
 10
-15.923487
 20
-51.309391
 30
0.0
 11
-15.923487
 21
-7.554551
 31
0.0
  0
LINE
  8
0
 10
-18.562946
 20
-72.990661
 30
0.0
 11
-15.923487
 21
-51.309391
 31
0.0
  0
ARC
  8
0
 10
-26.723487
 20
-42.939391
 30
0.0
 40
39.63
 50
78.343245
 51
101.656755
  0
ARC
  8
0
 10
-34.023487
 20
-7.554551
 30
0.0
 40
3.5
 50
101.656755
 51
180.0
  0
ARC
  8
0
 10
-19.423487
 20
-7.554551
 30
0.0
 40
3.5
 50
0.0
 51
78.343245
  0
ARC
  8
0
 10
-33.395021
 20
-72.809391
 30
0.0
 40
1.5
 50
186.940983
 51
270.0
  0
ARC
  8
0
 10
-20.051953
 20
-72.809391
 30
0.0
 40
1.5
 50
270.0
 51
353.059017
  0
LINE
  8
0
 10
-31.723487
 20
-9.309391
 30
0.0
 11
-26.723487
 21
-9.309391
 31
0.0
  0
LINE
  8
0
 10
-31.723487
 20
-74.309391
 30
0.0
 11
-31.723487
 21
-9.309391
 31
0.0
  0
LINE
  8
0
  6
CENTER
 10
9.033313
 20
-75.250215
 30
0.0
 11
9.033313
 21
10.973482
 31
0.0
  0
CIRCLE
  8
0
 10
-26.723487
 20
-90.651448
 30
0.0
 40
10.8
  0
LINE
  8
0
 10
0.109566
 20
-74.524118
 30
0.0
 11
17.95706
 21
-74.524118
 31
0.0
  0
LINE
  8
0
 10
-1.384891
 20
-73.152951
 30
0.0
 11
-3.766687
 21
-45.524118
 31
0.0
  0
LINE
  8
0
 10
19.451517
 20
-73.152951
 30
0.0
 11
21.833313
 21
-45.524118
 31
0.0
  0
LINE
  8
0
 10
21.833313
 20
-45.524118
 30
0.0
 11
21.833313
 21
5.962737
 31
0.0
  0
LINE
  8
0
 10
-3.766687
 20
-45.524118
 30
0.0
 11
-3.766687
 21
5.962737
 31
0.0
  0
ARC
  8
0
 10
9.033313
 20
-45.887452
 30
0.0
 40
55.363333
 50
78.764504
 51
101.235496
  0
ARC
  8
0
 10
-1.266687
 20
5.962737
 30
0.0
 40
2.5
 50
101.235496
 51
180.0
  0
ARC
  8
0
 10
19.333313
 20
5.962737
 30
0.0
 40
2.5
 50
0.0
 51
78.764504
  0
ARC
  8
0
 10
0.109566
 20
-73.024118
 30
0.0
 40
1.5
 50
184.92711
 51
270.0
  0
ARC
  8
0
 10
17.95706
 20
-73.024118
 30
0.0
 40
1.5
 50
270.0
 51
355.07289
  0
LINE
  8
0
 10
3.033313
 20
0.475882
 30
0.0
 11
9.033313
 21
0.475882
 31
0.0
  0
LINE
  8
0
 10
3.033313
 20
0.475882
 30
0.0
 11
3.033313
 21
-74.524118
 31
0.0
  0
LINE
  8
0
  6
CENTER
 10
9.033313
 20
-75.78209
 30
0.0
 11
9.033313
 21
10.441607
 31
0.0
  0
INSERT
  8
0
  2
*X0
 10
0.0
 20
-45.47529
 30
0.0
  0
INSERT
  8
0
  2
*X1
 10
5.405643
 20
-76.191057
 30
0.0
  0
INSERT
  8
0
  2
*X2
 10
5.405643
 20
-88.02527
 30
0.0
  0
CIRCLE
  8
0
 10
9.033313
 20
-94.757731
 30
0.0
 40
12.8
  0
ENDSEC
  0
EOF
