  0
SECTION
  2
HEADER
  9
$ACADVER
  1
AC1009
  9
$INSBASE
 10
0.0
 20
0.0
 30
0.0
  9
$EXTMIN
 10
-44.486064
 20
-37.382762
 30
0.0
  9
$EXTMAX
 10
127.152798
 20
91.080614
 30
0.0
  9
$LIMMIN
 10
0.0
 20
0.0
  9
$LIMMAX
 10
12.0
 20
9.0
  9
$ORTHOMODE
 70
     1
  9
$REGENMODE
 70
     1
  9
$FILLMODE
 70
     1
  9
$QTEXTMODE
 70
     0
  9
$MIRRTEXT
 70
     1
  9
$DRAGMODE
 70
     2
  9
$LTSCALE
 40
7.0
  9
$OSMODE
 70
     0
  9
$ATTMODE
 70
     1
  9
$TEXTSIZE
 40
0.2
  9
$TRACEWID
 40
0.05
  9
$TEXTSTYLE
  7
STANDARD
  9
$CLAYER
  8
0
  9
$CELTYPE
  6
BYLAYER
  9
$CECOLOR
 62
   256
  9
$DIMSCALE
 40
1.0
  9
$DIMASZ
 40
2.5
  9
$DIMEXO
 40
0.0
  9
$DIMDLI
 40
5.0
  9
$DIMRND
 40
0.0
  9
$DIMDLE
 40
0.0
  9
$DIMEXE
 40
1.0
  9
$DIMTP
 40
0.0
  9
$DIMTM
 40
0.0
  9
$DIMTXT
 40
2.5
  9
$DIMCEN
 40
0.09
  9
$DIMTSZ
 40
0.0
  9
$DIMTOL
 70
     0
  9
$DIMLIM
 70
     0
  9
$DIMTIH
 70
     0
  9
$DIMTOH
 70
     0
  9
$DIMSE1
 70
     0
  9
$DIMSE2
 70
     0
  9
$DIMTAD
 70
     1
  9
$DIMZIN
 70
     0
  9
$DIMBLK
  1

  9
$DIMASO
 70
     0
  9
$DIMSHO
 70
     0
  9
$DIMPOST
  1

  9
$DIMAPOST
  1

  9
$DIMALT
 70
     0
  9
$DIMALTD
 70
     2
  9
$DIMALTF
 40
25.4
  9
$DIMLFAC
 40
1.0
  9
$DIMTOFL
 70
     1
  9
$DIMTVP
 40
0.0
  9
$DIMTIX
 70
     0
  9
$DIMSOXD
 70
     0
  9
$DIMSAH
 70
     0
  9
$DIMBLK1
  1

  9
$DIMBLK2
  1

  9
$DIMSTYLE
  2
*UNNAMED
  9
$DIMCLRD
 70
     0
  9
$DIMCLRE
 70
     0
  9
$DIMCLRT
 70
     0
  9
$DIMTFAC
 40
1.0
  9
$DIMGAP
 40
0.09
  9
$LUNITS
 70
     2
  9
$LUPREC
 70
     4
  9
$SKETCHINC
 40
0.1
  9
$FILLETRAD
 40
1.5
  9
$AUNITS
 70
     0
  9
$AUPREC
 70
     0
  9
$MENU
  1
wiberger
  9
$ELEVATION
 40
0.0
  9
$PELEVATION
 40
0.0
  9
$THICKNESS
 40
0.0
  9
$LIMCHECK
 70
     0
  9
$BLIPMODE
 70
     1
  9
$CHAMFERA
 40
0.0
  9
$CHAMFERB
 40
0.0
  9
$SKPOLY
 70
     0
  9
$TDCREATE
 40
2450190.417353588
  9
$TDUPDATE
 40
2450198.619232754
  9
$TDINDWG
 40
0.0079089120
  9
$TDUSRTIMER
 40
0.0079089120
  9
$USRTIMER
 70
     1
  9
$ANGBASE
 50
0.0
  9
$ANGDIR
 70
     0
  9
$PDMODE
 70
     0
  9
$PDSIZE
 40
0.0
  9
$PLINEWID
 40
0.0
  9
$COORDS
 70
     0
  9
$SPLFRAME
 70
     0
  9
$SPLINETYPE
 70
     6
  9
$SPLINESEGS
 70
     8
  9
$ATTDIA
 70
     0
  9
$ATTREQ
 70
     1
  9
$HANDLING
 70
     0
  9
$HANDSEED
  5
0
  9
$SURFTAB1
 70
     6
  9
$SURFTAB2
 70
     6
  9
$SURFTYPE
 70
     6
  9
$SURFU
 70
     6
  9
$SURFV
 70
     6
  9
$UCSNAME
  2

  9
$UCSORG
 10
0.0
 20
0.0
 30
0.0
  9
$UCSXDIR
 10
1.0
 20
0.0
 30
0.0
  9
$UCSYDIR
 10
0.0
 20
1.0
 30
0.0
  9
$PUCSNAME
  2

  9
$PUCSORG
 10
0.0
 20
0.0
 30
0.0
  9
$PUCSXDIR
 10
1.0
 20
0.0
 30
0.0
  9
$PUCSYDIR
 10
0.0
 20
1.0
 30
0.0
  9
$USERI1
 70
     0
  9
$USERI2
 70
     0
  9
$USERI3
 70
     0
  9
$USERI4
 70
     0
  9
$USERI5
 70
     0
  9
$USERR1
 40
0.0
  9
$USERR2
 40
0.0
  9
$USERR3
 40
0.0
  9
$USERR4
 40
0.0
  9
$USERR5
 40
0.0
  9
$WORLDVIEW
 70
     1
  9
$SHADEDGE
 70
     3
  9
$SHADEDIF
 70
    70
  9
$TILEMODE
 70
     1
  9
$MAXACTVP
 70
    16
  9
$PINSBASE
 10
0.0
 20
0.0
 30
0.0
  9
$PLIMCHECK
 70
     0
  9
$PEXTMIN
 10
1.000000E+20
 20
1.000000E+20
 30
1.000000E+20
  9
$PEXTMAX
 10
-1.000000E+20
 20
-1.000000E+20
 30
-1.000000E+20
  9
$PLIMMIN
 10
0.0
 20
0.0
  9
$PLIMMAX
 10
12.0
 20
9.0
  9
$UNITMODE
 70
     0
  9
$VISRETAIN
 70
     0
  9
$PLINEGEN
 70
     0
  9
$PSLTSCALE
 70
     0
  9
$TREEDEPTH
 70
  3020
  9
$DWGCODEPAGE
  3
undefined
  0
ENDSEC
  0
SECTION
  2
TABLES
  0
TABLE
  2
VPORT
 70
     2
  0
VPORT
  2
*ACTIVE
 70
     0
 10
0.0
 20
0.0
 11
1.0
 21
1.0
 12
71.756596
 22
26.848926
 13
0.0
 23
0.0
 14
1.0
 24
1.0
 15
0.0
 25
0.0
 16
0.0
 26
0.0
 36
1.0
 17
0.0
 27
0.0
 37
0.0
 40
142.737084
 41
1.767507
 42
50.0
 43
0.0
 44
0.0
 50
0.0
 51
0.0
 71
     0
 72
   100
 73
     1
 74
     0
 75
     0
 76
     0
 77
     0
 78
     0
  0
ENDTAB
  0
TABLE
  2
LTYPE
 70
     3
  0
LTYPE
  2
CONTINUOUS
 70
    64
  3
Solid line
 72
    65
 73
     0
 40
0.0
  0
LTYPE
  2
CENTER
 70
    64
  3
____ _ ____ _ ____ _ ____ _ ____ _ ____ _ ____
 72
    65
 73
     4
 40
2.0
 49
1.25
 49
-0.25
 49
0.25
 49
-0.25
  0
LTYPE
  2
DASHED
 70
     0
  3
__ __ __ __ __ __ __ __ __ __ __ __ __ __ __
 72
    65
 73
     2
 40
0.75
 49
0.5
 49
-0.25
  0
ENDTAB
  0
TABLE
  2
LAYER
 70
     1
  0
LAYER
  2
0
 70
    64
 62
     7
  6
CONTINUOUS
  0
ENDTAB
  0
TABLE
  2
STYLE
 70
     1
  0
STYLE
  2
STANDARD
 70
     0
 40
0.0
 41
1.0
 50
0.0
 71
     0
 42
0.2
  3
txt
  4

  0
ENDTAB
  0
TABLE
  2
VIEW
 70
     0
  0
ENDTAB
  0
TABLE
  2
UCS
 70
     0
  0
ENDTAB
  0
TABLE
  2
APPID
 70
     1
  0
APPID
  2
ACAD
 70
    64
  0
ENDTAB
  0
TABLE
  2
DIMSTYLE
 70
     0
  0
ENDTAB
  0
ENDSEC
  0
SECTION
  2
BLOCKS
  0
BLOCK
  8
0
  2
*X6
 70
    65
 10
0.0
 20
0.0
 30
0.0
  3
*X
  0
LINE
  8
0
 62
     0
 10
-44.307304
 20
16.680656
 30
0.0
 11
-37.708267
 21
23.279693
 31
0.0
  0
LINE
  8
0
 62
     0
 10
-36.935194
 20
24.052765
 30
0.0
 11
-34.308267
 21
26.679693
 31
0.0
  0
LINE
  8
0
 62
     0
 10
-44.308267
 20
19.331343
 30
0.0
 11
-34.308267
 21
29.331343
 31
0.0
  0
LINE
  8
0
 62
     0
 10
-44.308267
 20
21.982993
 30
0.0
 11
-34.308267
 21
31.982993
 31
0.0
  0
LINE
  8
0
 62
     0
 10
-44.308267
 20
24.634644
 30
0.0
 11
-34.308267
 21
34.634644
 31
0.0
  0
LINE
  8
0
 62
     0
 10
-44.308267
 20
27.286294
 30
0.0
 11
-34.308267
 21
37.286294
 31
0.0
  0
LINE
  8
0
 62
     0
 10
-44.308267
 20
29.937945
 30
0.0
 11
-34.308267
 21
39.937945
 31
0.0
  0
LINE
  8
0
 62
     0
 10
-44.308267
 20
32.589595
 30
0.0
 11
-34.308267
 21
42.589595
 31
0.0
  0
LINE
  8
0
 62
     0
 10
-44.308267
 20
35.241246
 30
0.0
 11
-34.308267
 21
45.241246
 31
0.0
  0
LINE
  8
0
 62
     0
 10
-44.308267
 20
37.892896
 30
0.0
 11
-35.528838
 21
46.672326
 31
0.0
  0
LINE
  8
0
 62
     0
 10
-44.308267
 20
40.544546
 30
0.0
 11
-38.325797
 21
46.527017
 31
0.0
  0
LINE
  8
0
 62
     0
 10
-44.308267
 20
43.196197
 30
0.0
 11
-41.304338
 21
46.200127
 31
0.0
  0
LINE
  8
0
 62
     0
 10
-43.961437
 20
14.374873
 30
0.0
 11
-37.708267
 21
20.628042
 31
0.0
  0
LINE
  8
0
 62
     0
 10
-43.615569
 20
12.06909
 30
0.0
 11
-37.708267
 21
17.976392
 31
0.0
  0
LINE
  8
0
 62
     0
 10
-43.269702
 20
9.763307
 30
0.0
 11
-37.708267
 21
15.324741
 31
0.0
  0
LINE
  8
0
 62
     0
 10
-42.923834
 20
7.457524
 30
0.0
 11
-37.708267
 21
12.673091
 31
0.0
  0
LINE
  8
0
 62
     0
 10
-42.577967
 20
5.151741
 30
0.0
 11
-37.708267
 21
10.02144
 31
0.0
  0
LINE
  8
0
 62
     0
 10
-42.232099
 20
2.845958
 30
0.0
 11
-37.708267
 21
7.36979
 31
0.0
  0
LINE
  8
0
 62
     0
 10
-41.886232
 20
0.540175
 30
0.0
 11
-37.708267
 21
4.71814
 31
0.0
  0
LINE
  8
0
 62
     0
 10
-41.540364
 20
-1.765608
 30
0.0
 11
-37.708267
 21
2.066489
 31
0.0
  0
LINE
  8
0
 62
     0
 10
-40.436028
 20
-3.312922
 30
0.0
 11
-37.708267
 21
-0.585161
 31
0.0
  0
LINE
  8
0
 62
     0
 10
-37.708267
 20
21.798365
 30
0.0
 11
-44.308267
 21
28.398365
 31
0.0
  0
LINE
  8
0
 62
     0
 10
-37.708267
 20
19.146714
 30
0.0
 11
-44.308267
 21
25.746714
 31
0.0
  0
LINE
  8
0
 62
     0
 10
-37.708267
 20
16.495064
 30
0.0
 11
-44.308267
 21
23.095064
 31
0.0
  0
LINE
  8
0
 62
     0
 10
-37.708267
 20
13.843414
 30
0.0
 11
-44.308267
 21
20.443414
 31
0.0
  0
LINE
  8
0
 62
     0
 10
-37.708267
 20
11.191763
 30
0.0
 11
-44.308267
 21
17.791763
 31
0.0
  0
LINE
  8
0
 62
     0
 10
-37.708267
 20
8.540113
 30
0.0
 11
-44.035273
 21
14.867119
 31
0.0
  0
LINE
  8
0
 62
     0
 10
-37.708267
 20
5.888462
 30
0.0
 11
-43.567335
 21
11.74753
 31
0.0
  0
LINE
  8
0
 62
     0
 10
-37.708267
 20
3.236812
 30
0.0
 11
-43.099397
 21
8.627941
 31
0.0
  0
LINE
  8
0
 62
     0
 10
-37.708267
 20
0.585161
 30
0.0
 11
-42.631459
 21
5.508353
 31
0.0
  0
LINE
  8
0
 62
     0
 10
-38.135051
 20
-1.639705
 30
0.0
 11
-42.16352
 21
2.388764
 31
0.0
  0
LINE
  8
0
 62
     0
 10
-39.460876
 20
-2.965531
 30
0.0
 11
-41.695582
 21
-0.730825
 31
0.0
  0
LINE
  8
0
 62
     0
 10
-37.173457
 20
23.915205
 30
0.0
 11
-44.308267
 21
31.050015
 31
0.0
  0
LINE
  8
0
 62
     0
 10
-35.492378
 20
24.885776
 30
0.0
 11
-44.308267
 21
33.701666
 31
0.0
  0
LINE
  8
0
 62
     0
 10
-34.308267
 20
26.353316
 30
0.0
 11
-44.308267
 21
36.353316
 31
0.0
  0
LINE
  8
0
 62
     0
 10
-34.308267
 20
29.004967
 30
0.0
 11
-44.308267
 21
39.004967
 31
0.0
  0
LINE
  8
0
 62
     0
 10
-34.308267
 20
31.656617
 30
0.0
 11
-44.308267
 21
41.656617
 31
0.0
  0
LINE
  8
0
 62
     0
 10
-34.308267
 20
34.308267
 30
0.0
 11
-44.308267
 21
44.308267
 31
0.0
  0
LINE
  8
0
 62
     0
 10
-34.308267
 20
36.959918
 30
0.0
 11
-43.2394
 21
45.891051
 31
0.0
  0
LINE
  8
0
 62
     0
 10
-34.308267
 20
39.611568
 30
0.0
 11
-40.945686
 21
46.248987
 31
0.0
  0
LINE
  8
0
 62
     0
 10
-34.308267
 20
42.263219
 30
0.0
 11
-38.553385
 21
46.508336
 31
0.0
  0
LINE
  8
0
 62
     0
 10
-34.308267
 20
44.914869
 30
0.0
 11
-36.050417
 21
46.657019
 31
0.0
  0
ENDBLK
  8
0
  0
BLOCK
  8
0
  2
*X7
 70
    65
 10
0.0
 20
0.0
 30
0.0
  3
*X
  0
LINE
  8
0
 62
     0
 10
-16.299646
 20
20.82346
 30
0.0
 11
-9.049646
 21
28.07346
 31
0.0
  0
LINE
  8
0
 62
     0
 10
-5.043423
 20
32.079684
 30
0.0
 11
-4.799646
 21
32.32346
 31
0.0
  0
LINE
  8
0
 62
     0
 10
-16.299646
 20
23.47511
 30
0.0
 11
-4.799646
 21
34.97511
 31
0.0
  0
LINE
  8
0
 62
     0
 10
-16.299646
 20
26.126761
 30
0.0
 11
-4.799646
 21
37.626761
 31
0.0
  0
LINE
  8
0
 62
     0
 10
-16.299646
 20
28.778411
 30
0.0
 11
-4.799646
 21
40.278411
 31
0.0
  0
LINE
  8
0
 62
     0
 10
-16.299646
 20
31.430062
 30
0.0
 11
-4.799646
 21
42.930062
 31
0.0
  0
LINE
  8
0
 62
     0
 10
-16.299646
 20
34.081712
 30
0.0
 11
-4.799646
 21
45.581712
 31
0.0
  0
LINE
  8
0
 62
     0
 10
-16.299646
 20
36.733362
 30
0.0
 11
-4.799646
 21
48.233362
 31
0.0
  0
LINE
  8
0
 62
     0
 10
-16.299646
 20
39.385013
 30
0.0
 11
-4.799646
 21
50.885013
 31
0.0
  0
LINE
  8
0
 62
     0
 10
-16.299646
 20
42.036663
 30
0.0
 11
-4.799646
 21
53.536663
 31
0.0
  0
LINE
  8
0
 62
     0
 10
-16.299646
 20
44.688314
 30
0.0
 11
-4.799646
 21
56.188314
 31
0.0
  0
LINE
  8
0
 62
     0
 10
-16.299646
 20
47.339964
 30
0.0
 11
-6.996198
 21
56.643413
 31
0.0
  0
LINE
  8
0
 62
     0
 10
-16.299646
 20
49.991615
 30
0.0
 11
-9.833937
 21
56.457324
 31
0.0
  0
LINE
  8
0
 62
     0
 10
-16.299646
 20
52.643265
 30
0.0
 11
-12.844451
 21
56.09846
 31
0.0
  0
LINE
  8
0
 62
     0
 10
-15.971568
 20
18.499888
 30
0.0
 11
-9.049646
 21
25.421809
 31
0.0
  0
LINE
  8
0
 62
     0
 10
-15.6257
 20
16.194105
 30
0.0
 11
-9.049646
 21
22.770159
 31
0.0
  0
LINE
  8
0
 62
     0
 10
-15.279833
 20
13.888322
 30
0.0
 11
-9.049646
 21
20.118509
 31
0.0
  0
LINE
  8
0
 62
     0
 10
-14.933965
 20
11.582539
 30
0.0
 11
-9.049646
 21
17.466858
 31
0.0
  0
LINE
  8
0
 62
     0
 10
-14.588098
 20
9.276756
 30
0.0
 11
-9.049646
 21
14.815208
 31
0.0
  0
LINE
  8
0
 62
     0
 10
-14.24223
 20
6.970973
 30
0.0
 11
-9.049646
 21
12.163557
 31
0.0
  0
LINE
  8
0
 62
     0
 10
-13.896363
 20
4.66519
 30
0.0
 11
-9.049646
 21
9.511907
 31
0.0
  0
LINE
  8
0
 62
     0
 10
-13.550496
 20
2.359407
 30
0.0
 11
-9.049646
 21
6.860256
 31
0.0
  0
LINE
  8
0
 62
     0
 10
-13.204628
 20
0.053624
 30
0.0
 11
-9.049646
 21
4.208606
 31
0.0
  0
LINE
  8
0
 62
     0
 10
-12.858761
 20
-2.252159
 30
0.0
 11
-9.049646
 21
1.556956
 31
0.0
  0
LINE
  8
0
 62
     0
 10
-11.267873
 20
-3.312922
 30
0.0
 11
-9.049646
 21
-1.094695
 31
0.0
  0
LINE
  8
0
 62
     0
 10
-9.049646
 20
24.959549
 30
0.0
 11
-16.299646
 21
32.209549
 31
0.0
  0
LINE
  8
0
 62
     0
 10
-9.049646
 20
22.307898
 30
0.0
 11
-16.299646
 21
29.557898
 31
0.0
  0
LINE
  8
0
 62
     0
 10
-9.049646
 20
19.656248
 30
0.0
 11
-16.299646
 21
26.906248
 31
0.0
  0
LINE
  8
0
 62
     0
 10
-9.049646
 20
17.004597
 30
0.0
 11
-16.299646
 21
24.254597
 31
0.0
  0
LINE
  8
0
 62
     0
 10
-9.049646
 20
14.352947
 30
0.0
 11
-16.299646
 21
21.602947
 31
0.0
  0
LINE
  8
0
 62
     0
 10
-9.049646
 20
11.701297
 30
0.0
 11
-15.993332
 21
18.644982
 31
0.0
  0
LINE
  8
0
 62
     0
 10
-9.049646
 20
9.049646
 30
0.0
 11
-15.525393
 21
15.525393
 31
0.0
  0
LINE
  8
0
 62
     0
 10
-9.049646
 20
6.397996
 30
0.0
 11
-15.057455
 21
12.405805
 31
0.0
  0
LINE
  8
0
 62
     0
 10
-9.049646
 20
3.746345
 30
0.0
 11
-14.589517
 21
9.286216
 31
0.0
  0
LINE
  8
0
 62
     0
 10
-9.049646
 20
1.094695
 30
0.0
 11
-14.121579
 21
6.166627
 31
0.0
  0
LINE
  8
0
 62
     0
 10
-9.246663
 20
-1.359939
 30
0.0
 11
-13.65364
 21
3.047039
 31
0.0
  0
LINE
  8
0
 62
     0
 10
-10.572488
 20
-2.685764
 30
0.0
 11
-13.185702
 21
-0.07255
 31
0.0
  0
LINE
  8
0
 62
     0
 10
-9.049646
 20
27.611199
 30
0.0
 11
-16.299646
 21
34.861199
 31
0.0
  0
LINE
  8
0
 62
     0
 10
-8.735093
 20
29.948297
 30
0.0
 11
-16.299646
 21
37.51285
 31
0.0
  0
LINE
  8
0
 62
     0
 10
-7.054014
 20
30.918868
 30
0.0
 11
-16.299646
 21
40.1645
 31
0.0
  0
LINE
  8
0
 62
     0
 10
-5.372935
 20
31.889439
 30
0.0
 11
-16.299646
 21
42.81615
 31
0.0
  0
LINE
  8
0
 62
     0
 10
-4.799646
 20
33.967801
 30
0.0
 11
-16.299646
 21
45.467801
 31
0.0
  0
LINE
  8
0
 62
     0
 10
-4.799646
 20
36.619451
 30
0.0
 11
-16.299646
 21
48.119451
 31
0.0
  0
LINE
  8
0
 62
     0
 10
-4.799646
 20
39.271102
 30
0.0
 11
-16.299646
 21
50.771102
 31
0.0
  0
LINE
  8
0
 62
     0
 10
-4.799646
 20
41.922752
 30
0.0
 11
-16.299646
 21
53.422752
 31
0.0
  0
LINE
  8
0
 62
     0
 10
-4.799646
 20
44.574403
 30
0.0
 11
-15.73823
 21
55.512987
 31
0.0
  0
LINE
  8
0
 62
     0
 10
-4.799646
 20
47.226053
 30
0.0
 11
-13.561712
 21
55.988119
 31
0.0
  0
LINE
  8
0
 62
     0
 10
-4.799646
 20
49.877703
 30
0.0
 11
-11.23329
 21
56.311348
 31
0.0
  0
LINE
  8
0
 62
     0
 10
-4.799646
 20
52.529354
 30
0.0
 11
-8.811569
 21
56.541277
 31
0.0
  0
LINE
  8
0
 62
     0
 10
-4.799646
 20
55.181004
 30
0.0
 11
-6.285737
 21
56.667096
 31
0.0
  0
ENDBLK
  8
0
  0
BLOCK
  8
0
  2
*X9
 70
    65
 10
0.0
 20
0.0
 30
0.0
  3
*X
  0
LINE
  8
0
 62
     0
 10
16.913111
 20
23.984179
 30
0.0
 11
29.333938
 21
36.405006
 31
0.0
  0
LINE
  8
0
 62
     0
 10
16.833914
 20
27.440516
 30
0.0
 11
29.333938
 21
39.94054
 31
0.0
  0
LINE
  8
0
 62
     0
 10
16.833914
 20
30.97605
 30
0.0
 11
29.333938
 21
43.476074
 31
0.0
  0
LINE
  8
0
 62
     0
 10
16.833914
 20
34.511584
 30
0.0
 11
29.333938
 21
47.011608
 31
0.0
  0
LINE
  8
0
 62
     0
 10
16.833914
 20
38.047118
 30
0.0
 11
29.333938
 21
50.547142
 31
0.0
  0
LINE
  8
0
 62
     0
 10
16.833914
 20
41.582652
 30
0.0
 11
29.333938
 21
54.082676
 31
0.0
  0
LINE
  8
0
 62
     0
 10
16.833914
 20
45.118186
 30
0.0
 11
29.333938
 21
57.61821
 31
0.0
  0
LINE
  8
0
 62
     0
 10
16.833914
 20
48.653719
 30
0.0
 11
29.333938
 21
61.153743
 31
0.0
  0
LINE
  8
0
 62
     0
 10
16.833914
 20
52.189253
 30
0.0
 11
29.333938
 21
64.689277
 31
0.0
  0
LINE
  8
0
 62
     0
 10
16.833914
 20
55.724787
 30
0.0
 11
27.77379
 21
66.664663
 31
0.0
  0
LINE
  8
0
 62
     0
 10
16.833914
 20
59.260321
 30
0.0
 11
24.002652
 21
66.429059
 31
0.0
  0
LINE
  8
0
 62
     0
 10
16.833914
 20
62.795855
 30
0.0
 11
19.916922
 21
65.878862
 31
0.0
  0
LINE
  8
0
 62
     0
 10
17.2712
 20
20.806734
 30
0.0
 11
25.083938
 21
28.619472
 31
0.0
  0
LINE
  8
0
 62
     0
 10
27.798283
 20
31.333817
 30
0.0
 11
29.333938
 21
32.869472
 31
0.0
  0
LINE
  8
0
 62
     0
 10
17.629288
 20
17.629288
 30
0.0
 11
25.083938
 21
25.083938
 31
0.0
  0
LINE
  8
0
 62
     0
 10
17.987377
 20
14.451843
 30
0.0
 11
25.083938
 21
21.548404
 31
0.0
  0
LINE
  8
0
 62
     0
 10
18.345466
 20
11.274398
 30
0.0
 11
25.083938
 21
18.01287
 31
0.0
  0
LINE
  8
0
 62
     0
 10
18.703554
 20
8.096953
 30
0.0
 11
25.083938
 21
14.477337
 31
0.0
  0
LINE
  8
0
 62
     0
 10
19.061643
 20
4.919507
 30
0.0
 11
25.083938
 21
10.941803
 31
0.0
  0
LINE
  8
0
 62
     0
 10
19.419732
 20
1.742062
 30
0.0
 11
25.083938
 21
7.406269
 31
0.0
  0
LINE
  8
0
 62
     0
 10
19.77782
 20
-1.435383
 30
0.0
 11
25.083938
 21
3.870735
 31
0.0
  0
LINE
  8
0
 62
     0
 10
21.435816
 20
-3.312922
 30
0.0
 11
25.083938
 21
0.335201
 31
0.0
  0
LINE
  8
0
 62
     0
 10
25.083938
 20
27.94907
 30
0.0
 11
16.833914
 21
36.199094
 31
0.0
  0
LINE
  8
0
 62
     0
 10
25.083938
 20
24.413536
 30
0.0
 11
16.833914
 21
32.66356
 31
0.0
  0
LINE
  8
0
 62
     0
 10
25.083938
 20
20.878002
 30
0.0
 11
16.833914
 21
29.128026
 31
0.0
  0
LINE
  8
0
 62
     0
 10
25.083938
 20
17.342469
 30
0.0
 11
16.833914
 21
25.592493
 31
0.0
  0
LINE
  8
0
 62
     0
 10
25.083938
 20
13.806935
 30
0.0
 11
17.167948
 21
21.722925
 31
0.0
  0
LINE
  8
0
 62
     0
 10
25.083938
 20
10.271401
 30
0.0
 11
17.616998
 21
17.738341
 31
0.0
  0
LINE
  8
0
 62
     0
 10
25.083938
 20
6.735867
 30
0.0
 11
18.066049
 21
13.753756
 31
0.0
  0
LINE
  8
0
 62
     0
 10
25.083938
 20
3.200333
 30
0.0
 11
18.5151
 21
9.769171
 31
0.0
  0
LINE
  8
0
 62
     0
 10
25.083938
 20
-0.335201
 30
0.0
 11
18.964151
 21
5.784586
 31
0.0
  0
LINE
  8
0
 62
     0
 10
23.730032
 20
-2.516828
 30
0.0
 11
19.413202
 21
1.800001
 31
0.0
  0
LINE
  8
0
 62
     0
 10
20.963007
 20
-3.285338
 30
0.0
 11
19.867138
 21
-2.189468
 31
0.0
  0
LINE
  8
0
 62
     0
 10
26.173053
 20
30.39549
 30
0.0
 11
16.833914
 21
39.734628
 31
0.0
  0
LINE
  8
0
 62
     0
 10
28.414491
 20
31.689585
 30
0.0
 11
16.833914
 21
43.270162
 31
0.0
  0
LINE
  8
0
 62
     0
 10
29.333938
 20
34.305672
 30
0.0
 11
16.833914
 21
46.805696
 31
0.0
  0
LINE
  8
0
 62
     0
 10
29.333938
 20
37.841206
 30
0.0
 11
16.833914
 21
50.34123
 31
0.0
  0
LINE
  8
0
 62
     0
 10
29.333938
 20
41.37674
 30
0.0
 11
16.833914
 21
53.876764
 31
0.0
  0
LINE
  8
0
 62
     0
 10
29.333938
 20
44.912274
 30
0.0
 11
16.833914
 21
57.412298
 31
0.0
  0
LINE
  8
0
 62
     0
 10
29.333938
 20
48.447808
 30
0.0
 11
16.833914
 21
60.947832
 31
0.0
  0
LINE
  8
0
 62
     0
 10
29.333938
 20
51.983342
 30
0.0
 11
16.869973
 21
64.447307
 31
0.0
  0
LINE
  8
0
 62
     0
 10
29.333938
 20
55.518875
 30
0.0
 11
19.118069
 21
65.734744
 31
0.0
  0
LINE
  8
0
 62
     0
 10
29.333938
 20
59.054409
 30
0.0
 11
22.16799
 21
66.220358
 31
0.0
  0
LINE
  8
0
 62
     0
 10
29.333938
 20
62.589943
 30
0.0
 11
25.378839
 21
66.545042
 31
0.0
  0
LINE
  8
0
 62
     0
 10
29.333938
 20
66.125477
 30
0.0
 11
28.775557
 21
66.683859
 31
0.0
  0
ENDBLK
  8
0
  0
BLOCK
  8
0
  2
*X10
 70
    65
 10
0.0
 20
0.0
 30
0.0
  3
*X
  0
LINE
  8
0
 62
     0
 10
55.042392
 20
33.829188
 30
0.0
 11
68.542392
 21
47.329188
 31
0.0
  0
LINE
  8
0
 62
     0
 10
55.042392
 20
37.364722
 30
0.0
 11
68.542392
 21
50.864722
 31
0.0
  0
LINE
  8
0
 62
     0
 10
55.042392
 20
40.900256
 30
0.0
 11
68.542392
 21
54.400256
 31
0.0
  0
LINE
  8
0
 62
     0
 10
55.042392
 20
44.43579
 30
0.0
 11
68.542392
 21
57.93579
 31
0.0
  0
LINE
  8
0
 62
     0
 10
55.042392
 20
47.971324
 30
0.0
 11
68.542392
 21
61.471324
 31
0.0
  0
LINE
  8
0
 62
     0
 10
55.042392
 20
51.506858
 30
0.0
 11
68.542392
 21
65.006858
 31
0.0
  0
LINE
  8
0
 62
     0
 10
55.042392
 20
55.042392
 30
0.0
 11
68.542392
 21
68.542392
 31
0.0
  0
LINE
  8
0
 62
     0
 10
55.042392
 20
58.577926
 30
0.0
 11
68.542392
 21
72.077926
 31
0.0
  0
LINE
  8
0
 62
     0
 10
55.042392
 20
62.113459
 30
0.0
 11
68.542392
 21
75.613459
 31
0.0
  0
LINE
  8
0
 62
     0
 10
55.042392
 20
65.648993
 30
0.0
 11
68.078531
 21
78.685132
 31
0.0
  0
LINE
  8
0
 62
     0
 10
55.042392
 20
69.184527
 30
0.0
 11
64.388706
 21
78.530842
 31
0.0
  0
LINE
  8
0
 62
     0
 10
55.042392
 20
72.720061
 30
0.0
 11
60.407754
 21
78.085424
 31
0.0
  0
LINE
  8
0
 62
     0
 10
55.133713
 20
76.346916
 30
0.0
 11
56.027005
 21
77.240208
 31
0.0
  0
LINE
  8
0
 62
     0
 10
55.042392
 20
30.293654
 30
0.0
 11
68.542392
 21
43.793654
 31
0.0
  0
LINE
  8
0
 62
     0
 10
55.232571
 20
26.948299
 30
0.0
 11
68.542392
 21
40.25812
 31
0.0
  0
LINE
  8
0
 62
     0
 10
55.581144
 20
23.761339
 30
0.0
 11
68.542392
 21
36.722587
 31
0.0
  0
LINE
  8
0
 62
     0
 10
55.929718
 20
20.574379
 30
0.0
 11
64.292392
 21
28.937053
 31
0.0
  0
LINE
  8
0
 62
     0
 10
66.255333
 20
30.899994
 30
0.0
 11
68.542392
 21
33.187053
 31
0.0
  0
LINE
  8
0
 62
     0
 10
56.278292
 20
17.387419
 30
0.0
 11
64.292392
 21
25.401519
 31
0.0
  0
LINE
  8
0
 62
     0
 10
56.626866
 20
14.200459
 30
0.0
 11
64.292392
 21
21.865985
 31
0.0
  0
LINE
  8
0
 62
     0
 10
56.975439
 20
11.013499
 30
0.0
 11
64.292392
 21
18.330451
 31
0.0
  0
LINE
  8
0
 62
     0
 10
57.324013
 20
7.826539
 30
0.0
 11
64.292392
 21
14.794917
 31
0.0
  0
LINE
  8
0
 62
     0
 10
57.672587
 20
4.639578
 30
0.0
 11
64.292392
 21
11.259383
 31
0.0
  0
LINE
  8
0
 62
     0
 10
58.021161
 20
1.452618
 30
0.0
 11
64.292392
 21
7.723849
 31
0.0
  0
LINE
  8
0
 62
     0
 10
58.369735
 20
-1.734342
 30
0.0
 11
64.292392
 21
4.188315
 31
0.0
  0
LINE
  8
0
 62
     0
 10
60.326689
 20
-3.312922
 30
0.0
 11
64.292392
 21
0.652781
 31
0.0
  0
LINE
  8
0
 62
     0
 10
67.421607
 20
31.573342
 30
0.0
 11
55.042392
 21
43.952558
 31
0.0
  0
LINE
  8
0
 62
     0
 10
65.180168
 20
30.279247
 30
0.0
 11
55.042392
 21
40.417024
 31
0.0
  0
LINE
  8
0
 62
     0
 10
64.292392
 20
27.63149
 30
0.0
 11
55.042392
 21
36.88149
 31
0.0
  0
LINE
  8
0
 62
     0
 10
64.292392
 20
24.095956
 30
0.0
 11
55.042392
 21
33.345956
 31
0.0
  0
LINE
  8
0
 62
     0
 10
64.292392
 20
20.560422
 30
0.0
 11
55.042392
 21
29.810422
 31
0.0
  0
LINE
  8
0
 62
     0
 10
64.292392
 20
17.024888
 30
0.0
 11
55.338626
 21
25.978654
 31
0.0
  0
LINE
  8
0
 62
     0
 10
64.292392
 20
13.489354
 30
0.0
 11
55.772814
 21
22.008932
 31
0.0
  0
LINE
  8
0
 62
     0
 10
64.292392
 20
9.95382
 30
0.0
 11
56.207002
 21
18.03921
 31
0.0
  0
LINE
  8
0
 62
     0
 10
64.292392
 20
6.418286
 30
0.0
 11
56.641191
 21
14.069487
 31
0.0
  0
LINE
  8
0
 62
     0
 10
64.292392
 20
2.882753
 30
0.0
 11
57.075379
 21
10.099765
 31
0.0
  0
LINE
  8
0
 62
     0
 10
64.292392
 20
-0.652781
 30
0.0
 11
57.509567
 21
6.130043
 31
0.0
  0
LINE
  8
0
 62
     0
 10
62.779695
 20
-2.675619
 30
0.0
 11
57.943756
 21
2.160321
 31
0.0
  0
LINE
  8
0
 62
     0
 10
59.881453
 20
-3.312911
 30
0.0
 11
58.377944
 21
-1.809402
 31
0.0
  0
LINE
  8
0
 62
     0
 10
68.542392
 20
33.988092
 30
0.0
 11
55.042392
 21
47.488092
 31
0.0
  0
LINE
  8
0
 62
     0
 10
68.542392
 20
37.523625
 30
0.0
 11
55.042392
 21
51.023625
 31
0.0
  0
LINE
  8
0
 62
     0
 10
68.542392
 20
41.059159
 30
0.0
 11
55.042392
 21
54.559159
 31
0.0
  0
LINE
  8
0
 62
     0
 10
68.542392
 20
44.594693
 30
0.0
 11
55.042392
 21
58.094693
 31
0.0
  0
LINE
  8
0
 62
     0
 10
68.542392
 20
48.130227
 30
0.0
 11
55.042392
 21
61.630227
 31
0.0
  0
LINE
  8
0
 62
     0
 10
68.542392
 20
51.665761
 30
0.0
 11
55.042392
 21
65.165761
 31
0.0
  0
LINE
  8
0
 62
     0
 10
68.542392
 20
55.201295
 30
0.0
 11
55.042392
 21
68.701295
 31
0.0
  0
LINE
  8
0
 62
     0
 10
68.542392
 20
58.736829
 30
0.0
 11
55.042392
 21
72.236829
 31
0.0
  0
LINE
  8
0
 62
     0
 10
68.542392
 20
62.272363
 30
0.0
 11
55.042392
 21
75.772363
 31
0.0
  0
LINE
  8
0
 62
     0
 10
68.542392
 20
65.807897
 30
0.0
 11
56.902312
 21
77.447976
 31
0.0
  0
LINE
  8
0
 62
     0
 10
68.542392
 20
69.343431
 30
0.0
 11
59.881297
 21
78.004526
 31
0.0
  0
LINE
  8
0
 62
     0
 10
68.542392
 20
72.878965
 30
0.0
 11
63.01159
 21
78.409767
 31
0.0
  0
LINE
  8
0
 62
     0
 10
68.542392
 20
76.414498
 30
0.0
 11
66.314706
 21
78.642184
 31
0.0
  0
ENDBLK
  8
0
  0
BLOCK
  8
0
  2
*X11
 70
    65
 10
0.0
 20
0.0
 30
0.0
  3
*X
  0
LINE
  8
0
 62
     0
 10
97.902154
 20
36.03031
 30
0.0
 11
106.302154
 21
44.43031
 31
0.0
  0
LINE
  8
0
 62
     0
 10
97.902154
 20
40.449728
 30
0.0
 11
112.402154
 21
54.949728
 31
0.0
  0
LINE
  8
0
 62
     0
 10
97.902154
 20
44.869145
 30
0.0
 11
112.402154
 21
59.369145
 31
0.0
  0
LINE
  8
0
 62
     0
 10
97.902154
 20
49.288562
 30
0.0
 11
112.402154
 21
63.788562
 31
0.0
  0
LINE
  8
0
 62
     0
 10
97.902154
 20
53.70798
 30
0.0
 11
112.402154
 21
68.20798
 31
0.0
  0
LINE
  8
0
 62
     0
 10
97.902154
 20
58.127397
 30
0.0
 11
112.402154
 21
72.627397
 31
0.0
  0
LINE
  8
0
 62
     0
 10
97.902154
 20
62.546814
 30
0.0
 11
112.402154
 21
77.046814
 31
0.0
  0
LINE
  8
0
 62
     0
 10
97.902154
 20
66.966232
 30
0.0
 11
112.402154
 21
81.466232
 31
0.0
  0
LINE
  8
0
 62
     0
 10
97.902154
 20
71.385649
 30
0.0
 11
112.402154
 21
85.885649
 31
0.0
  0
LINE
  8
0
 62
     0
 10
97.902154
 20
75.805067
 30
0.0
 11
110.759767
 21
88.662681
 31
0.0
  0
LINE
  8
0
 62
     0
 10
97.902154
 20
80.224484
 30
0.0
 11
105.991912
 21
88.314243
 31
0.0
  0
LINE
  8
0
 62
     0
 10
97.902154
 20
84.643901
 30
0.0
 11
100.690839
 21
87.432587
 31
0.0
  0
LINE
  8
0
 62
     0
 10
98.281334
 20
31.990073
 30
0.0
 11
106.302154
 21
40.010893
 31
0.0
  0
LINE
  8
0
 62
     0
 10
98.692442
 20
27.981764
 30
0.0
 11
106.302154
 21
35.591475
 31
0.0
  0
LINE
  8
0
 62
     0
 10
99.103551
 20
23.973455
 30
0.0
 11
106.302154
 21
31.172058
 31
0.0
  0
LINE
  8
0
 62
     0
 10
99.514659
 20
19.965146
 30
0.0
 11
106.302154
 21
26.752641
 31
0.0
  0
LINE
  8
0
 62
     0
 10
99.925768
 20
15.956838
 30
0.0
 11
106.302154
 21
22.333223
 31
0.0
  0
LINE
  8
0
 62
     0
 10
100.336877
 20
11.948529
 30
0.0
 11
106.302154
 21
17.913806
 31
0.0
  0
LINE
  8
0
 62
     0
 10
100.747985
 20
7.94022
 30
0.0
 11
106.302154
 21
13.494389
 31
0.0
  0
LINE
  8
0
 62
     0
 10
101.159094
 20
3.931911
 30
0.0
 11
106.302154
 21
9.074971
 31
0.0
  0
LINE
  8
0
 62
     0
 10
101.570202
 20
-0.076397
 30
0.0
 11
106.302154
 21
4.655554
 31
0.0
  0
LINE
  8
0
 62
     0
 10
102.8184
 20
-3.247617
 30
0.0
 11
106.302154
 21
0.236136
 31
0.0
  0
LINE
  8
0
 62
     0
 10
106.302154
 20
39.53862
 30
0.0
 11
97.902154
 21
47.93862
 31
0.0
  0
LINE
  8
0
 62
     0
 10
106.302154
 20
35.119203
 30
0.0
 11
97.902154
 21
43.519203
 31
0.0
  0
LINE
  8
0
 62
     0
 10
106.302154
 20
30.699785
 30
0.0
 11
97.902154
 21
39.099785
 31
0.0
  0
LINE
  8
0
 62
     0
 10
106.302154
 20
26.280368
 30
0.0
 11
98.017206
 21
34.565315
 31
0.0
  0
LINE
  8
0
 62
     0
 10
106.302154
 20
21.860951
 30
0.0
 11
98.522282
 21
29.640822
 31
0.0
  0
LINE
  8
0
 62
     0
 10
106.302154
 20
17.441533
 30
0.0
 11
99.027359
 21
24.716328
 31
0.0
  0
LINE
  8
0
 62
     0
 10
106.302154
 20
13.022116
 30
0.0
 11
99.532435
 21
19.791834
 31
0.0
  0
LINE
  8
0
 62
     0
 10
106.302154
 20
8.602698
 30
0.0
 11
100.037511
 21
14.867341
 31
0.0
  0
LINE
  8
0
 62
     0
 10
106.302154
 20
4.183281
 30
0.0
 11
100.542588
 21
9.942847
 31
0.0
  0
LINE
  8
0
 62
     0
 10
106.302154
 20
-0.236136
 30
0.0
 11
101.047664
 21
5.018353
 31
0.0
  0
LINE
  8
0
 62
     0
 10
104.480838
 20
-2.834238
 30
0.0
 11
101.55274
 21
0.09386
 31
0.0
  0
LINE
  8
0
 62
     0
 10
106.302154
 20
43.958037
 30
0.0
 11
97.902154
 21
52.358037
 31
0.0
  0
LINE
  8
0
 62
     0
 10
106.302154
 20
48.377455
 30
0.0
 11
97.902154
 21
56.777455
 31
0.0
  0
LINE
  8
0
 62
     0
 10
108.986313
 20
50.112713
 30
0.0
 11
97.902154
 21
61.196872
 31
0.0
  0
LINE
  8
0
 62
     0
 10
111.788112
 20
51.730332
 30
0.0
 11
97.902154
 21
65.61629
 31
0.0
  0
LINE
  8
0
 62
     0
 10
112.402154
 20
55.535707
 30
0.0
 11
97.902154
 21
70.035707
 31
0.0
  0
LINE
  8
0
 62
     0
 10
112.402154
 20
59.955124
 30
0.0
 11
97.902154
 21
74.455124
 31
0.0
  0
LINE
  8
0
 62
     0
 10
112.402154
 20
64.374542
 30
0.0
 11
97.902154
 21
78.874542
 31
0.0
  0
LINE
  8
0
 62
     0
 10
112.402154
 20
68.793959
 30
0.0
 11
97.902154
 21
83.293959
 31
0.0
  0
LINE
  8
0
 62
     0
 10
112.402154
 20
73.213377
 30
0.0
 11
98.69831
 21
86.91722
 31
0.0
  0
LINE
  8
0
 62
     0
 10
112.402154
 20
77.632794
 30
0.0
 11
102.281913
 21
87.753035
 31
0.0
  0
LINE
  8
0
 62
     0
 10
112.402154
 20
82.052211
 30
0.0
 11
106.124777
 21
88.329588
 31
0.0
  0
LINE
  8
0
 62
     0
 10
112.402154
 20
86.471629
 30
0.0
 11
110.22941
 21
88.644372
 31
0.0
  0
ENDBLK
  8
0
  0
ENDSEC
  0
SECTION
  2
ENTITIES
  0
ARC
  8
0
 10
36.928331
 20
-1.91293
 30
0.0
 40
1.399992
 50
270.0
 51
351.469234
  0
ARC
  8
0
 10
21.239546
 20
-1.91293
 30
0.0
 40
1.399992
 50
188.530766
 51
270.0
  0
LINE
  8
0
 10
29.333938
 20
64.58669
 30
0.0
 11
41.757935
 21
64.58669
 31
0.0
  0
ARC
  8
0
 10
40.43397
 20
64.131612
 30
0.0
 40
1.399992
 50
0.0
 51
79.524318
  0
ARC
  8
0
 10
18.233906
 20
64.131612
 30
0.0
 40
1.399992
 50
100.475682
 51
180.0
  0
LINE
  8
0
 10
16.833914
 20
24.686918
 30
0.0
 11
16.833914
 21
64.131612
 31
0.0
  0
LINE
  8
0
 10
19.855043
 20
-2.120605
 30
0.0
 11
16.833914
 21
24.686918
 31
0.0
  0
LINE
  8
0
 10
41.833962
 20
24.686918
 30
0.0
 11
41.833962
 21
64.131612
 31
0.0
  0
LINE
  8
0
 10
38.312834
 20
-2.120605
 30
0.0
 11
41.833962
 21
24.686918
 31
0.0
  0
ARC
  8
0
 10
29.333938
 20
11.393894
 30
0.0
 40
55.292785
 50
78.149797
 51
101.850203
  0
LINE
  8
0
 10
21.239546
 20
-3.312922
 30
0.0
 11
36.928331
 21
-3.312922
 31
0.0
  0
LINE
  8
0
 10
-9.799646
 20
-1.912922
 30
0.0
 11
-4.799646
 21
-1.912922
 31
0.0
  0
LINE
  8
0
 10
-9.799646
 20
-1.912922
 30
0.0
 11
-11.199646
 21
-3.312922
 31
0.0
  0
LINE
  8
0
 10
-9.799646
 20
-1.912922
 30
0.0
 11
-9.799646
 21
26.687078
 31
0.0
  0
LINE
  8
0
 10
-9.799646
 20
26.687078
 30
0.0
 11
-4.799646
 21
26.687078
 31
0.0
  0
LINE
  8
0
 10
-38.308267
 20
-1.812922
 30
0.0
 11
-34.308267
 21
-1.812922
 31
0.0
  0
LINE
  8
0
 10
-38.308267
 20
-1.812922
 30
0.0
 11
-39.808267
 21
-3.312922
 31
0.0
  0
LINE
  8
0
 10
-38.308267
 20
20.687078
 30
0.0
 11
-34.308267
 21
20.687078
 31
0.0
  0
LINE
  8
0
 10
-38.308267
 20
20.687078
 30
0.0
 11
-38.308267
 21
-1.812922
 31
0.0
  0
LINE
  8
0
 10
-11.666221
 20
-3.312922
 30
0.0
 11
2.066929
 21
-3.312922
 31
0.0
  0
ARC
  8
0
 10
-4.799646
 20
1.417488
 30
0.0
 40
55.26959
 50
79.029308
 51
100.970692
  0
LINE
  8
0
 10
3.253653
 20
-2.29093
 30
0.0
 11
6.700354
 21
20.687078
 31
0.0
  0
LINE
  8
0
 10
6.700354
 20
20.687078
 30
0.0
 11
6.700354
 21
54.497009
 31
0.0
  0
LINE
  8
0
 10
-12.852945
 20
-2.29093
 30
0.0
 11
-16.299646
 21
20.687078
 31
0.0
  0
LINE
  8
0
 10
-16.299646
 20
20.687078
 30
0.0
 11
-16.299646
 21
54.497009
 31
0.0
  0
ARC
  8
0
 10
-15.099646
 20
54.497009
 30
0.0
 40
1.2
 50
100.475682
 51
180.0
  0
ARC
  8
0
 10
5.500354
 20
54.497009
 30
0.0
 40
1.2
 50
0.0
 51
79.524318
  0
LINE
  8
0
 10
-4.799646
 20
54.887078
 30
0.0
 11
6.635187
 21
54.887078
 31
0.0
  0
ARC
  8
0
 10
-11.666221
 20
-2.112922
 30
0.0
 40
1.2
 50
188.530766
 51
270.0
  0
ARC
  8
0
 10
2.066929
 20
-2.112922
 30
0.0
 40
1.2
 50
270.0
 51
351.469234
  0
ARC
  8
0
 10
-28.169455
 20
-2.312922
 30
0.0
 40
1.0
 50
270.0
 51
351.469234
  0
ARC
  8
0
 10
-40.44708
 20
-2.312922
 30
0.0
 40
1.0
 50
188.530766
 51
270.0
  0
LINE
  8
0
 10
-34.308267
 20
45.187078
 30
0.0
 11
-24.362573
 21
45.187078
 31
0.0
  0
ARC
  8
0
 10
-25.308267
 20
44.86202
 30
0.0
 40
1.0
 50
0.0
 51
79.524318
  0
ARC
  8
0
 10
-43.308267
 20
44.86202
 30
0.0
 40
1.0
 50
100.475682
 51
180.0
  0
LINE
  8
0
 10
-44.308267
 20
16.687078
 30
0.0
 11
-44.308267
 21
44.86202
 31
0.0
  0
LINE
  8
0
 10
-41.436016
 20
-2.461262
 30
0.0
 11
-44.308267
 21
16.687078
 31
0.0
  0
LINE
  8
0
 10
-24.308267
 20
16.687078
 30
0.0
 11
-24.308267
 21
44.86202
 31
0.0
  0
LINE
  8
0
 10
-27.180518
 20
-2.461262
 30
0.0
 11
-24.308267
 21
16.687078
 31
0.0
  0
ARC
  8
0
 10
-34.308267
 20
-3.812922
 30
0.0
 40
50.5
 50
79.524318
 51
100.475682
  0
LINE
  8
0
 10
-40.44708
 20
-3.312922
 30
0.0
 11
-28.169455
 21
-3.312922
 31
0.0
  0
LINE
  8
0
 10
24.333938
 20
26.687078
 30
0.0
 11
29.333938
 21
26.687078
 31
0.0
  0
LINE
  8
0
 10
24.333938
 20
-1.912922
 30
0.0
 11
24.333938
 21
26.687078
 31
0.0
  0
LINE
  8
0
 10
25.083938
 20
-1.162922
 30
0.0
 11
22.933938
 21
-3.312922
 31
0.0
  0
LINE
  8
0
 10
24.333938
 20
-1.912922
 30
0.0
 11
29.333938
 21
-1.912922
 31
0.0
  0
CIRCLE
  8
0
 10
-34.308267
 20
-19.010973
 30
0.0
 40
10.0
  0
CIRCLE
  8
0
 10
-4.799646
 20
-20.598692
 30
0.0
 40
11.5
  0
CIRCLE
  8
0
 10
29.333938
 20
-21.194087
 30
0.0
 40
12.500024
  0
LINE
  8
0
  6
CENTER
 10
-34.308267
 20
-5.118432
 30
0.0
 11
-34.308267
 21
49.071965
 31
0.0
  0
LINE
  8
0
  6
CENTER
 10
-4.799646
 20
-5.713826
 30
0.0
 11
-4.799646
 21
59.985565
 31
0.0
  0
LINE
  8
0
  6
CENTER
 10
29.333938
 20
-5.515362
 30
0.0
 11
29.333938
 21
70.898728
 31
0.0
  0
LINE
  8
0
 10
-37.708267
 20
-1.212922
 30
0.0
 11
-37.708267
 21
23.606432
 31
0.0
  0
LINE
  8
0
 10
-37.708267
 20
23.606432
 30
0.0
 11
-34.308267
 21
25.569422
 31
0.0
  0
LINE
  8
0
 10
-9.049646
 20
-1.162922
 30
0.0
 11
-9.049646
 21
29.766689
 31
0.0
  0
LINE
  8
0
 10
-9.049646
 20
29.766689
 30
0.0
 11
-4.799646
 21
32.220428
 31
0.0
  0
LINE
  8
0
 10
25.083938
 20
29.766689
 30
0.0
 11
29.333938
 21
32.220428
 31
0.0
  0
LINE
  8
0
 10
25.083938
 20
-1.162922
 30
0.0
 11
25.083938
 21
29.766689
 31
0.0
  0
LINE
  8
0
 10
64.292392
 20
-1.162922
 30
0.0
 11
64.292392
 21
29.766689
 31
0.0
  0
LINE
  8
0
 10
64.292392
 20
29.766689
 30
0.0
 11
68.542392
 21
32.220428
 31
0.0
  0
LINE
  8
0
  6
CENTER
 10
68.542392
 20
-5.515362
 30
0.0
 11
68.542392
 21
80.821695
 31
0.0
  0
LINE
  8
0
 10
63.542392
 20
-1.912922
 30
0.0
 11
68.542392
 21
-1.912922
 31
0.0
  0
LINE
  8
0
 10
64.292392
 20
-1.162922
 30
0.0
 11
62.142392
 21
-3.312922
 31
0.0
  0
LINE
  8
0
 10
63.542392
 20
-1.912922
 30
0.0
 11
63.542392
 21
26.687078
 31
0.0
  0
LINE
  8
0
 10
63.542392
 20
26.687078
 30
0.0
 11
68.542392
 21
26.687078
 31
0.0
  0
LINE
  8
0
 10
59.887275
 20
-3.312922
 30
0.0
 11
77.197509
 21
-3.312922
 31
0.0
  0
ARC
  8
0
 10
68.542392
 20
23.394294
 30
0.0
 40
55.292785
 50
77.110102
 51
102.889898
  0
CIRCLE
  8
0
 10
68.542392
 20
-22.392524
 30
0.0
 40
13.5
  0
LINE
  8
0
 10
55.042392
 20
28.687078
 30
0.0
 11
55.042392
 21
75.831529
 31
0.0
  0
LINE
  8
0
 10
82.042392
 20
28.687078
 30
0.0
 11
82.042392
 21
75.831529
 31
0.0
  0
ARC
  8
0
 10
56.542392
 20
75.831529
 30
0.0
 40
1.5
 50
102.889898
 51
180.0
  0
ARC
  8
0
 10
80.542392
 20
75.831529
 30
0.0
 40
1.5
 50
0.0
 51
77.110102
  0
LINE
  8
0
 10
58.396167
 20
-1.976012
 30
0.0
 11
55.042392
 21
28.687078
 31
0.0
  0
LINE
  8
0
 10
78.688616
 20
-1.976012
 30
0.0
 11
82.042392
 21
28.687078
 31
0.0
  0
ARC
  8
0
 10
59.887275
 20
-1.812922
 30
0.0
 40
1.5
 50
186.241914
 51
270.0
  0
ARC
  8
0
 10
77.197509
 20
-1.812922
 30
0.0
 40
1.5
 50
270.0
 51
353.758086
  0
LINE
  8
0
 10
82.042392
 20
75.831529
 30
0.0
 11
68.542392
 21
75.831529
 31
0.0
  0
CIRCLE
  8
0
 10
112.402154
 20
-22.882762
 30
0.0
 40
14.5
  0
LINE
  8
0
 10
97.902154
 20
35.687078
 30
0.0
 11
97.902154
 21
85.592605
 31
0.0
  0
LINE
  8
0
 10
126.902154
 20
35.687078
 30
0.0
 11
126.902154
 21
85.592605
 31
0.0
  0
LINE
  8
0
 10
103.256176
 20
-3.312922
 30
0.0
 11
121.548131
 21
-3.312922
 31
0.0
  0
ARC
  8
0
 10
112.402154
 20
33.394294
 30
0.0
 40
55.292785
 50
76.014986
 51
103.985014
  0
ARC
  8
0
 10
99.402154
 20
85.592605
 30
0.0
 40
1.5
 50
103.985014
 51
180.0
  0
ARC
  8
0
 10
125.402154
 20
85.592605
 30
0.0
 40
1.5
 50
0.0
 51
76.014986
  0
LINE
  8
0
  6
CENTER
 10
112.402154
 20
-5.768689
 30
0.0
 11
112.402154
 21
91.080614
 31
0.0
  0
LINE
  8
0
 10
123.040303
 20
-1.965965
 30
0.0
 11
126.902154
 21
35.687078
 31
0.0
  0
LINE
  8
0
 10
101.764004
 20
-1.965965
 30
0.0
 11
97.902154
 21
35.687078
 31
0.0
  0
ARC
  8
0
 10
103.256176
 20
-1.812922
 30
0.0
 40
1.5
 50
185.856014
 51
270.0
  0
ARC
  8
0
 10
121.548131
 20
-1.812922
 30
0.0
 40
1.5
 50
270.0
 51
354.143986
  0
LINE
  8
0
 10
126.902154
 20
85.592605
 30
0.0
 11
112.402154
 21
85.592605
 31
0.0
  0
LINE
  8
0
 10
105.402154
 20
-1.912922
 30
0.0
 11
105.402154
 21
41.687078
 31
0.0
  0
LINE
  8
0
 10
106.302154
 20
-1.012922
 30
0.0
 11
106.302154
 21
48.563012
 31
0.0
  0
LINE
  8
0
 10
105.402154
 20
41.687078
 30
0.0
 11
112.402154
 21
41.687078
 31
0.0
  0
LINE
  8
0
 10
106.302154
 20
48.563012
 30
0.0
 11
112.402154
 21
52.084849
 31
0.0
  0
LINE
  8
0
 10
106.302154
 20
-1.012922
 30
0.0
 11
104.002154
 21
-3.312922
 31
0.0
  0
LINE
  8
0
 10
105.402154
 20
-1.912922
 30
0.0
 11
112.402154
 21
-1.912922
 31
0.0
  0
LINE
  8
0
 10
-37.708267
 20
23.606432
 30
0.0
 11
-34.308267
 21
23.606432
 31
0.0
  0
LINE
  8
0
 10
-9.049646
 20
29.766689
 30
0.0
 11
-4.799646
 21
29.766689
 31
0.0
  0
LINE
  8
0
 10
25.083938
 20
29.766689
 30
0.0
 11
29.333938
 21
29.766689
 31
0.0
  0
LINE
  8
0
 10
64.292392
 20
29.766689
 30
0.0
 11
68.542392
 21
29.766689
 31
0.0
  0
LINE
  8
0
 10
106.302154
 20
48.563012
 30
0.0
 11
112.402154
 21
48.563012
 31
0.0
  0
LINE
  8
0
 10
-37.708267
 20
-1.212922
 30
0.0
 11
-34.308267
 21
-1.212922
 31
0.0
  0
LINE
  8
0
 10
-9.049646
 20
-1.162922
 30
0.0
 11
-4.799646
 21
-1.162922
 31
0.0
  0
LINE
  8
0
 10
-38.308267
 20
-1.812922
 30
0.0
 11
-37.708267
 21
-1.212922
 31
0.0
  0
LINE
  8
0
 10
-9.799646
 20
-1.912922
 30
0.0
 11
-9.049646
 21
-1.162922
 31
0.0
  0
LINE
  8
0
 10
25.083938
 20
-1.162922
 30
0.0
 11
29.333938
 21
-1.162922
 31
0.0
  0
LINE
  8
0
 10
64.292392
 20
-1.162922
 30
0.0
 11
68.542392
 21
-1.162922
 31
0.0
  0
LINE
  8
0
 10
106.302154
 20
-1.012922
 30
0.0
 11
112.402154
 21
-1.012922
 31
0.0
  0
INSERT
  8
0
  2
*X6
 10
0.0
 20
0.0
 30
0.0
1001
ACAD
1000
HATCH
1002
{
1070
    16
1000
ANSI37
1040
15.0
1040
0.0
1002
}
  0
INSERT
  8
0
  2
*X7
 10
0.0
 20
0.0
 30
0.0
1001
ACAD
1000
HATCH
1002
{
1070
    16
1000
ANSI37
1040
15.0
1040
0.0
1002
}
  0
INSERT
  8
0
  2
*X9
 10
0.0
 20
0.0
 30
0.0
1001
ACAD
1000
HATCH
1002
{
1070
    16
1000
ANSI37
1040
20.0
1040
0.0
1002
}
  0
INSERT
  8
0
  2
*X10
 10
0.0
 20
0.0
 30
0.0
1001
ACAD
1000
HATCH
1002
{
1070
    16
1000
ANSI37
1040
20.0
1040
0.0
1002
}
  0
INSERT
  8
0
  2
*X11
 10
0.0
 20
0.0
 30
0.0
1001
ACAD
1000
HATCH
1002
{
1070
    16
1000
ANSI37
1040
25.0
1040
0.0
1002
}
  0
ENDSEC
  0
EOF
