  0
SECTION
  2
HEADER
  9
$ACADVER
  1
AC1009
  9
$INSBASE
 10
0.0
 20
0.0
 30
0.0
  9
$EXTMIN
 10
118.4465450341696
 20
647.02397736225748
 30
0.0
  9
$EXTMAX
 10
755.16598445122679
 20
787.25034212744765
 30
0.0
  9
$LIMMIN
 10
0.0
 20
0.0
  9
$LIMMAX
 10
420.0
 20
297.0
  9
$ORTHOMODE
 70
     1
  9
$REGENMODE
 70
     1
  9
$FILLMODE
 70
     1
  9
$QTEXTMODE
 70
     0
  9
$MIRRTEXT
 70
     1
  9
$DRAGMODE
 70
     2
  9
$LTSCALE
 40
1.0
  9
$OSMODE
 70
    37
  9
$ATTMODE
 70
     1
  9
$TEXTSIZE
 40
2.5
  9
$TRACEWID
 40
1.0
  9
$TEXTSTYLE
  7
STANDARD
  9
$CLAYER
  8
0
  9
$CELTYPE
  6
BYLAYER
  9
$CECOLOR
 62
   256
  9
$DIMSCALE
 40
1.0
  9
$DIMASZ
 40
2.5
  9
$DIMEXO
 40
0.625
  9
$DIMDLI
 40
3.75
  9
$DIMRND
 40
0.0
  9
$DIMDLE
 40
0.0
  9
$DIMEXE
 40
1.25
  9
$DIMTP
 40
0.0
  9
$DIMTM
 40
0.0
  9
$DIMTXT
 40
2.5
  9
$DIMCEN
 40
2.5
  9
$DIMTSZ
 40
0.0
  9
$DIMTOL
 70
     0
  9
$DIMLIM
 70
     0
  9
$DIMTIH
 70
     1
  9
$DIMTOH
 70
     1
  9
$DIMSE1
 70
     0
  9
$DIMSE2
 70
     0
  9
$DIMTAD
 70
     1
  9
$DIMZIN
 70
     8
  9
$DIMBLK
  1

  9
$DIMASO
 70
     1
  9
$DIMSHO
 70
     1
  9
$DIMPOST
  1

  9
$DIMAPOST
  1

  9
$DIMALT
 70
     0
  9
$DIMALTD
 70
     3
  9
$DIMALTF
 40
0.03937007874016
  9
$DIMLFAC
 40
1.0
  9
$DIMTOFL
 70
     1
  9
$DIMTVP
 40
0.0
  9
$DIMTIX
 70
     0
  9
$DIMSOXD
 70
     0
  9
$DIMSAH
 70
     0
  9
$DIMBLK1
  1

  9
$DIMBLK2
  1

  9
$DIMSTYLE
  2
ISO-25
  9
$DIMCLRD
 70
     0
  9
$DIMCLRE
 70
     0
  9
$DIMCLRT
 70
     0
  9
$DIMTFAC
 40
1.0
  9
$DIMGAP
 40
0.625
  9
$LUNITS
 70
     2
  9
$LUPREC
 70
     4
  9
$SKETCHINC
 40
1.0
  9
$FILLETRAD
 40
10.0
  9
$AUNITS
 70
     0
  9
$AUPREC
 70
     0
  9
$MENU
  1
.
  9
$ELEVATION
 40
0.0
  9
$PELEVATION
 40
0.0
  9
$THICKNESS
 40
0.0
  9
$LIMCHECK
 70
     0
  9
$BLIPMODE
 70
     0
  9
$CHAMFERA
 40
10.0
  9
$CHAMFERB
 40
10.0
  9
$SKPOLY
 70
     0
  9
$TDCREATE
 40
2452867.4998673839
  9
$TDUPDATE
 40
2452867.65314493
  9
$TDINDWG
 40
0.0541382755
  9
$TDUSRTIMER
 40
0.0541382755
  9
$USRTIMER
 70
     1
  9
$ANGBASE
 50
0.0
  9
$ANGDIR
 70
     0
  9
$PDMODE
 70
     3
  9
$PDSIZE
 40
1.0
  9
$PLINEWID
 40
0.0
  9
$COORDS
 70
     1
  9
$SPLFRAME
 70
     0
  9
$SPLINETYPE
 70
     6
  9
$SPLINESEGS
 70
     8
  9
$ATTDIA
 70
     0
  9
$ATTREQ
 70
     1
  9
$HANDLING
 70
-16383
  9
$HANDSEED
  5
106F
  9
$SURFTAB1
 70
     6
  9
$SURFTAB2
 70
     6
  9
$SURFTYPE
 70
     6
  9
$SURFU
 70
     6
  9
$SURFV
 70
     6
  9
$UCSNAME
  2

  9
$UCSORG
 10
0.0
 20
0.0
 30
0.0
  9
$UCSXDIR
 10
1.0
 20
0.0
 30
0.0
  9
$UCSYDIR
 10
0.0
 20
1.0
 30
0.0
  9
$PUCSNAME
  2

  9
$PUCSORG
 10
0.0
 20
0.0
 30
0.0
  9
$PUCSXDIR
 10
1.0
 20
0.0
 30
0.0
  9
$PUCSYDIR
 10
0.0
 20
1.0
 30
0.0
  9
$USERI1
 70
     0
  9
$USERI2
 70
     0
  9
$USERI3
 70
     0
  9
$USERI4
 70
     0
  9
$USERI5
 70
     0
  9
$USERR1
 40
0.0
  9
$USERR2
 40
0.0
  9
$USERR3
 40
0.0
  9
$USERR4
 40
0.0
  9
$USERR5
 40
0.0
  9
$WORLDVIEW
 70
     1
  9
$SHADEDGE
 70
     3
  9
$SHADEDIF
 70
    70
  9
$TILEMODE
 70
     1
  9
$MAXACTVP
 70
    48
  9
$PLIMCHECK
 70
     0
  9
$PEXTMIN
 10
28.674485683441159
 20
19.97498331069945
 30
0.0
  9
$PEXTMAX
 10
258.0703711509704
 20
179.77484979629509
 30
0.0
  9
$PLIMMIN
 10
-5.027069091796875
 20
-5.0270833969116211
  9
$PLIMMAX
 10
291.98358154296869
 20
204.98858737945551
  9
$UNITMODE
 70
     0
  9
$VISRETAIN
 70
     1
  9
$PLINEGEN
 70
     0
  9
$PSLTSCALE
 70
     1
  0
ENDSEC
  0
SECTION
  2
TABLES
  0
TABLE
  2
VPORT
 70
     3
  0
VPORT
  2
*ACTIVE
 70
     0
 10
0.0
 20
0.0
 11
1.0
 21
1.0
 12
466.45981156434999
 22
716.10038436845878
 13
0.0
 23
0.0
 14
10.0
 24
10.0
 15
10.0
 25
10.0
 16
0.0
 26
0.0
 36
1.0
 17
0.0
 27
0.0
 37
0.0
 40
419.26394933003229
 41
1.6678383128295251
 42
50.0
 43
0.0
 44
0.0
 50
0.0
 51
0.0
 71
     0
 72
   100
 73
     1
 74
     2
 75
     0
 76
     0
 77
     0
 78
     0
  0
ENDTAB
  0
TABLE
  2
LTYPE
 70
     3
  0
LTYPE
  2
CONTINUOUS
 70
     0
  3
Solid line
 72
    65
 73
     0
 40
0.0
  0
LTYPE
  2
CENTER
 70
     0
  3
Center (.5x) ___ _ ___ _ ___ _ ___ _ ___ _ ___
 72
    65
 73
     4
 40
28.574999999999989
 49
19.050000000000001
 49
-3.1749999999999989
 49
3.1749999999999989
 49
-3.1749999999999989
  0
ENDTAB
  0
TABLE
  2
LAYER
 70
     2
  0
LAYER
  2
0
 70
     0
 62
     7
  6
CONTINUOUS
  0
ENDTAB
  0
TABLE
  2
STYLE
 70
     1
  0
STYLE
  2
STANDARD
 70
     0
 40
0.0
 41
1.0
 50
0.0
 71
     0
 42
2.5
  3
txt
  4

  0
ENDTAB
  0
TABLE
  2
VIEW
 70
     0
  0
ENDTAB
  0
TABLE
  2
UCS
 70
     0
  0
ENDTAB
  0
TABLE
  2
APPID
 70
     1
  0
APPID
  2
ACAD
 70
     0
  0
ENDTAB
  0
TABLE
  2
DIMSTYLE
 70
     1
  0
DIMSTYLE
  2
ISO-25
 70
     0
  3

  4

  5

  6

  7

 40
1.0
 41
2.5
 42
0.625
 43
3.75
 44
1.25
 45
0.0
 46
0.0
 47
0.0
 48
0.0
140
2.5
141
2.5
142
0.0
143
0.03937007874016
144
1.0
145
0.0
146
1.0
147
0.625
 71
     0
 72
     0
 73
     1
 74
     1
 75
     0
 76
     0
 77
     1
 78
     8
170
     0
171
     3
172
     1
173
     0
174
     0
175
     0
176
     0
177
     0
178
     0
  0
ENDTAB
  0
ENDSEC
  0
SECTION
  2
BLOCKS
  0
BLOCK
  8
0
  2
$MODEL_SPACE
 70
     0
 10
0.0
 20
0.0
 30
0.0
  3
$MODEL_SPACE
  1

  0
ENDBLK
  5
21
  8
0
  0
BLOCK
 67
     1
  8
0
  2
$PAPER_SPACE
 70
     0
 10
0.0
 20
0.0
 30
0.0
  3
$PAPER_SPACE
  1

  0
ENDBLK
  5
53
 67
     1
  8
0
  0
BLOCK
  8
0
  2
*X1
 70
     1
 10
0.0
 20
0.0
 30
0.0
  3
*X1
  1

  0
LINE
  5
C88
  8
0
 62
     0
 10
5.2057168793809581
 20
570.29214807617677
 30
0.0
 11
3.372238225246917
 21
568.4586694220427
 31
0.0
  0
LINE
  5
C89
  8
0
 62
     0
 10
6.008051458886257
 20
568.97316231212233
 30
0.0
 11
3.2025325977621431
 21
566.16764345099807
 31
0.0
  0
LINE
  5
C8A
  8
0
 62
     0
 10
6.0080514588862846
 20
566.85184196856255
 30
0.0
 11
3.032826970277398
 21
563.87661747995367
 31
0.0
  0
LINE
  5
C8B
  8
0
 62
     0
 10
6.0080514588863991
 20
564.73052162500312
 30
0.0
 11
2.8631213427925668
 21
561.58559150890937
 31
0.0
  0
LINE
  5
C8C
  8
0
 62
     0
 10
6.0080514588864267
 20
562.60920128144346
 30
0.0
 11
2.6934157153078071
 21
559.29456553786486
 31
0.0
  0
LINE
  5
C8D
  8
0
 62
     0
 10
6.0080514588864844
 20
560.4878809378838
 30
0.0
 11
2.536780369824938
 21
557.01660984882233
 31
0.0
  0
LINE
  5
C8E
  8
0
 62
     0
 10
6.0080514588864844
 20
558.36656059432426
 30
0.0
 11
2.5080514588865119
 21
554.86656059432426
 31
0.0
  0
LINE
  5
C8F
  8
0
 62
     0
 10
7.8336389407386093
 20
560.19214807617641
 30
0.0
 11
6.583638940738779
 21
558.94214807617664
 31
0.0
  0
LINE
  5
C90
  8
0
 62
     0
 10
4.758051458886527
 20
554.9952402507646
 30
0.0
 11
2.508051458886527
 21
552.74524025076471
 31
0.0
  0
LINE
  5
C91
  8
0
 62
     0
 10
6.0080514588864551
 20
556.24524025076471
 30
0.0
 11
5.9049592842985126
 21
556.1421480761768
 31
0.0
  0
LINE
  5
C92
  8
0
 62
     0
 10
4.7580514588865412
 20
552.87391990720516
 30
0.0
 11
2.5080514588864982
 21
550.62391990720505
 31
0.0
  0
LINE
  5
C93
  8
0
 62
     0
 10
4.7580514588864977
 20
550.75259956364539
 30
0.0
 11
2.5080514588864982
 21
548.50259956364539
 31
0.0
  0
LINE
  5
C94
  8
0
 62
     0
 10
4.7580514588865119
 20
548.63127922008573
 30
0.0
 11
3.6189203149775011
 21
547.49214807617682
 31
0.0
  0
LINE
  5
C95
  8
0
 62
     0
 10
6.008051458886313
 20
569.71936315076107
 30
0.0
 11
5.4352665334706671
 21
570.29214807617677
 31
0.0
  0
LINE
  5
C96
  8
0
 62
     0
 10
6.008051458886313
 20
567.59804280720141
 30
0.0
 11
3.6708944130634791
 21
569.93519985302407
 31
0.0
  0
LINE
  5
C97
  8
0
 62
     0
 10
6.0080514588864267
 20
565.47672246364164
 30
0.0
 11
3.3483669338840509
 21
568.13640698864401
 31
0.0
  0
LINE
  5
C98
  8
0
 62
     0
 10
6.008051458886313
 20
563.35540212008198
 30
0.0
 11
3.202068979155797
 21
566.16138459981255
 31
0.0
  0
LINE
  5
C99
  8
0
 62
     0
 10
6.0080514588864267
 20
561.23408177652243
 30
0.0
 11
3.0557710244275418
 21
564.18636221098132
 31
0.0
  0
LINE
  5
C9A
  8
0
 62
     0
 10
8.1330514588864844
 20
559.1090817765222
 30
0.0
 11
7.0499851592323921
 21
560.19214807617641
 31
0.0
  0
LINE
  5
C9B
  8
0
 62
     0
 10
6.178664815672561
 20
558.94214807617652
 30
0.0
 11
2.9094730696993452
 21
562.21133982214974
 31
0.0
  0
LINE
  5
C9C
  8
0
 62
     0
 10
6.0080514588864267
 20
556.99144108940288
 30
0.0
 11
2.7631751149710331
 21
560.23631743331839
 31
0.0
  0
LINE
  5
C9D
  8
0
 62
     0
 10
4.7580514588864844
 20
556.12012074584345
 30
0.0
 11
2.6128456386544481
 21
558.26532656607526
 31
0.0
  0
LINE
  5
C9E
  8
0
 62
     0
 10
4.7580514588864844
 20
553.99880040228368
 30
0.0
 11
2.5135411416875959
 21
556.24331071948257
 31
0.0
  0
LINE
  5
C9F
  8
0
 62
     0
 10
4.7580514588864844
 20
551.87748005872413
 30
0.0
 11
2.5080514588865408
 21
554.12748005872413
 31
0.0
  0
LINE
  5
CA0
  8
0
 62
     0
 10
4.7580514588864844
 20
549.75615971516424
 30
0.0
 11
2.5080514588865408
 21
552.00615971516424
 31
0.0
  0
LINE
  5
CA1
  8
0
 62
     0
 10
4.7580514588865412
 20
547.6348393716047
 30
0.0
 11
2.5080514588865408
 21
549.8848393716047
 31
0.0
  0
ENDBLK
  5
CA3
  8
0
  0
BLOCK
  8
0
  2
*X2
 70
     1
 10
0.0
 20
0.0
 30
0.0
  3
*X2
  1

  0
LINE
  5
CA5
  8
0
 62
     0
 10
145.5488985236384
 20
576.9921480761767
 30
0.0
 11
143.0250738759631
 21
574.46832342850121
 31
0.0
  0
LINE
  5
CA6
  8
0
 62
     0
 10
146.55365186825929
 20
575.87558107723794
 30
0.0
 11
142.8791690622059
 21
572.20109827118449
 31
0.0
  0
LINE
  5
CA7
  8
0
 62
     0
 10
146.55365186825941
 20
573.75426073367828
 30
0.0
 11
142.73326424844879
 21
569.93387311386755
 31
0.0
  0
LINE
  5
CA8
  8
0
 62
     0
 10
146.55365186825941
 20
571.63294039011862
 30
0.0
 11
142.58735943469159
 21
567.66664795655083
 31
0.0
  0
LINE
  5
CA9
  8
0
 62
     0
 10
146.55365186825941
 20
569.51162004655896
 30
0.0
 11
142.44145462093439
 21
565.39942279923412
 31
0.0
  0
LINE
  5
CAA
  8
0
 62
     0
 10
147.3555002414366
 20
568.19214807617664
 30
0.0
 11
142.29554980717731
 21
563.13219764191717
 31
0.0
  0
LINE
  5
CAB
  8
0
 62
     0
 10
146.90365186825929
 20
565.61897935943955
 30
0.0
 11
142.14964499342011
 21
560.86497248460034
 31
0.0
  0
LINE
  5
CAC
  8
0
 62
     0
 10
149.47682058499629
 20
568.19214807617664
 30
0.0
 11
146.97682058499649
 21
565.69214807617675
 31
0.0
  0
LINE
  5
CAD
  8
0
 62
     0
 10
146.90365186825929
 20
563.49765901588
 30
0.0
 11
146.09814092855601
 21
562.69214807617675
 31
0.0
  0
LINE
  5
CAE
  8
0
 62
     0
 10
145.2036518682593
 20
561.79765901587996
 30
0.0
 11
141.9974916769533
 21
558.59149882457405
 31
0.0
  0
LINE
  5
CAF
  8
0
 62
     0
 10
150.05365186825941
 20
566.64765901588009
 30
0.0
 11
149.09814092855601
 21
565.69214807617675
 31
0.0
  0
LINE
  5
CB0
  8
0
 62
     0
 10
145.2036518682593
 20
559.6763386723203
 30
0.0
 11
141.9536518682593
 21
556.42633867232041
 31
0.0
  0
LINE
  5
CB1
  8
0
 62
     0
 10
145.2036518682593
 20
557.55501832876075
 30
0.0
 11
141.95365186825941
 21
554.30501832876087
 31
0.0
  0
LINE
  5
CB2
  8
0
 62
     0
 10
145.20365186825941
 20
555.43369798520109
 30
0.0
 11
141.95365186825941
 21
552.18369798520121
 31
0.0
  0
LINE
  5
CB3
  8
0
 62
     0
 10
144.05365186825929
 20
552.16237764164146
 30
0.0
 11
142.16853708552691
 21
550.27726285890913
 31
0.0
  0
LINE
  5
CB4
  8
0
 62
     0
 10
145.2036518682593
 20
553.31237764164155
 30
0.0
 11
144.68342230279461
 21
552.79214807617677
 31
0.0
  0
LINE
  5
CB5
  8
0
 62
     0
 10
144.05365186825929
 20
550.04105729808168
 30
0.0
 11
143.50474264635429
 21
549.4921480761767
 31
0.0
  0
LINE
  5
CB6
  8
0
 62
     0
 10
146.55365186825941
 20
575.5448664470033
 30
0.0
 11
145.10637023908609
 21
576.99214807617648
 31
0.0
  0
LINE
  5
CB7
  8
0
 62
     0
 10
146.55365186825941
 20
573.42354610344364
 30
0.0
 11
143.60983091900869
 21
576.36736705269436
 31
0.0
  0
LINE
  5
CB8
  8
0
 62
     0
 10
146.55365186825941
 20
571.30222575988387
 30
0.0
 11
143.04699048416529
 21
574.80888714397804
 31
0.0
  0
LINE
  5
CB9
  8
0
 62
     0
 10
150.05365186825941
 20
567.80222575988387
 30
0.0
 11
149.6637295519667
 21
568.19214807617664
 31
0.0
  0
LINE
  5
CBA
  8
0
 62
     0
 10
146.55365186825941
 20
569.18090541632421
 30
0.0
 11
142.91872932403041
 21
572.81582796055329
 31
0.0
  0
LINE
  5
CBB
  8
0
 62
     0
 10
150.04240920840709
 20
565.69214807617664
 30
0.0
 11
147.54240920840709
 21
568.19214807617664
 31
0.0
  0
LINE
  5
CBC
  8
0
 62
     0
 10
147.92108886484729
 20
565.69214807617675
 30
0.0
 11
142.7904681638953
 21
570.82276877712854
 31
0.0
  0
LINE
  5
CBD
  8
0
 62
     0
 10
146.90365186825929
 20
564.58826472920509
 30
0.0
 11
142.6622070037605
 21
568.82970959370402
 31
0.0
  0
LINE
  5
CBE
  8
0
 62
     0
 10
146.6784481777282
 20
562.69214807617664
 30
0.0
 11
142.5339458436255
 21
566.83665041027928
 31
0.0
  0
LINE
  5
CBF
  8
0
 62
     0
 10
145.2036518682593
 20
562.04562404208582
 30
0.0
 11
142.40568468349051
 21
564.84359122685464
 31
0.0
  0
LINE
  5
CC0
  8
0
 62
     0
 10
145.2036518682593
 20
559.92430369852605
 30
0.0
 11
142.27742352335551
 21
562.85053204342989
 31
0.0
  0
LINE
  5
CC1
  8
0
 62
     0
 10
145.2036518682593
 20
557.80298335496639
 30
0.0
 11
142.14916236322051
 21
560.85747286000537
 31
0.0
  0
LINE
  5
CC2
  8
0
 62
     0
 10
145.2036518682593
 20
555.68166301140695
 30
0.0
 11
142.02090120308571
 21
558.86441367658063
 31
0.0
  0
LINE
  5
CC3
  8
0
 62
     0
 10
145.2036518682593
 20
553.56034266784729
 30
0.0
 11
141.9536518682593
 21
556.81034266784718
 31
0.0
  0
LINE
  5
CC4
  8
0
 62
     0
 10
144.05365186825929
 20
552.58902232428773
 30
0.0
 11
141.9536518682593
 21
554.68902232428763
 31
0.0
  0
LINE
  5
CC5
  8
0
 62
     0
 10
144.05365186825921
 20
550.46770198072807
 30
0.0
 11
141.9536518682593
 21
552.56770198072797
 31
0.0
  0
ENDBLK
  5
CC7
  8
0
  0
BLOCK
  8
0
  2
*X3
 70
     1
 10
0.0
 20
0.0
 30
0.0
  3
*X3
  1

  0
LINE
  5
CC9
  8
0
 62
     0
 10
484.66776533775652
 20
585.89214807617691
 30
0.0
 11
481.15743682070718
 21
582.38181955912762
 31
0.0
  0
LINE
  5
CCA
  8
0
 62
     0
 10
485.41879416805051
 20
583.81474978172469
 30
0.0
 11
480.83286321622808
 21
579.22881882990225
 31
0.0
  0
LINE
  5
CCB
  8
0
 62
     0
 10
485.4187941680504
 20
580.98632265697859
 30
0.0
 11
480.50828961174898
 21
576.07581810067711
 31
0.0
  0
LINE
  5
CCC
  8
0
 62
     0
 10
485.4187941680504
 20
578.15789553223237
 30
0.0
 11
480.18371600726999
 21
572.92281737145186
 31
0.0
  0
LINE
  5
CCD
  8
0
 62
     0
 10
485.41879416805028
 20
575.32946840748605
 30
0.0
 11
479.87769561993298
 21
569.78836985936857
 31
0.0
  0
LINE
  5
CCE
  8
0
 62
     0
 10
486.10990096148743
 20
573.19214807617675
 30
0.0
 11
479.76879605704039
 21
566.85104317173
 31
0.0
  0
LINE
  5
CCF
  8
0
 62
     0
 10
484.8187941680506
 20
569.07261415799394
 30
0.0
 11
479.76879416805048
 21
564.02261415799387
 31
0.0
  0
LINE
  5
CD0
  8
0
 62
     0
 10
488.93832808623358
 20
573.19214807617686
 30
0.0
 11
486.4383280862337
 21
570.69214807617698
 31
0.0
  0
LINE
  5
CD1
  8
0
 62
     0
 10
483.26879416805048
 20
564.69418703324754
 30
0.0
 11
479.76879416805048
 21
561.19418703324766
 31
0.0
  0
LINE
  5
CD2
  8
0
 62
     0
 10
489.26879416805031
 20
570.69418703324754
 30
0.0
 11
489.26675521097991
 21
570.69214807617698
 31
0.0
  0
LINE
  5
CD3
  8
0
 62
     0
 10
483.26879416805048
 20
561.86575990850145
 30
0.0
 11
479.76879416805048
 21
558.36575990850145
 31
0.0
  0
LINE
  5
CD4
  8
0
 62
     0
 10
483.26879416805048
 20
559.03733278375523
 30
0.0
 11
479.76879416805048
 21
555.53733278375535
 31
0.0
  0
LINE
  5
CD5
  8
0
 62
     0
 10
483.26879416805048
 20
556.20890565900902
 30
0.0
 11
479.76879416805048
 21
552.70890565900913
 31
0.0
  0
LINE
  5
CD6
  8
0
 62
     0
 10
482.5687941680506
 20
552.68047853426276
 30
0.0
 11
480.88046370996449
 21
550.99214807617682
 31
0.0
  0
LINE
  5
CD7
  8
0
 62
     0
 10
485.41879416805028
 20
583.86915370980705
 30
0.0
 11
483.3957998016806
 21
585.89214807617668
 31
0.0
  0
LINE
  5
CD8
  8
0
 62
     0
 10
485.41879416805028
 20
581.04072658506095
 30
0.0
 11
481.48850541763449
 21
584.97101533547675
 31
0.0
  0
LINE
  5
CD9
  8
0
 62
     0
 10
485.41879416805028
 20
578.21229946031474
 30
0.0
 11
481.16600829723649
 21
582.46508533112853
 31
0.0
  0
LINE
  5
CDA
  8
0
 62
     0
 10
485.41879416805023
 20
575.38387233556864
 30
0.0
 11
480.90202176559359
 21
579.90064473802533
 31
0.0
  0
LINE
  5
CDB
  8
0
 62
     0
 10
489.26879416805019
 20
571.53387233556839
 30
0.0
 11
487.610518427442
 21
573.19214807617675
 31
0.0
  0
LINE
  5
CDC
  8
0
 62
     0
 10
487.28209130269579
 20
570.69214807617675
 30
0.0
 11
480.63803523395052
 21
577.33620414492214
 31
0.0
  0
LINE
  5
CDD
  8
0
 62
     0
 10
484.81879416805037
 20
570.3270180860759
 30
0.0
 11
480.37404870230762
 21
574.77176355181882
 31
0.0
  0
LINE
  5
CDE
  8
0
 62
     0
 10
484.81879416805049
 20
567.49859096132968
 30
0.0
 11
480.11006217066461
 21
572.20732295871562
 31
0.0
  0
LINE
  5
CDF
  8
0
 62
     0
 10
483.26879416805048
 20
566.22016383658365
 30
0.0
 11
479.86582191350232
 21
569.62313609113176
 31
0.0
  0
LINE
  5
CE0
  8
0
 62
     0
 10
483.26879416805048
 20
563.39173671183744
 30
0.0
 11
479.76882921639418
 21
566.89170166349356
 31
0.0
  0
LINE
  5
CE1
  8
0
 62
     0
 10
483.26879416805048
 20
560.56330958709123
 30
0.0
 11
479.76879416805042
 21
564.06330958709123
 31
0.0
  0
LINE
  5
CE2
  8
0
 62
     0
 10
483.26879416805042
 20
557.73488246234501
 30
0.0
 11
479.76879416805042
 21
561.23488246234501
 31
0.0
  0
LINE
  5
CE3
  8
0
 62
     0
 10
482.98310142947253
 20
555.19214807617686
 30
0.0
 11
479.76879416805042
 21
558.40645533759891
 31
0.0
  0
LINE
  5
CE4
  8
0
 62
     0
 10
482.56879416805049
 20
552.77802821285275
 30
0.0
 11
479.76879416805042
 21
555.5780282128527
 31
0.0
  0
LINE
  5
CE5
  8
0
 62
     0
 10
481.5262471799802
 20
550.99214807617682
 30
0.0
 11
479.76879416805042
 21
552.7496010881066
 31
0.0
  0
ENDBLK
  5
CE7
  8
0
  0
BLOCK
  8
0
  2
*X4
 70
     1
 10
0.0
 20
0.0
 30
0.0
  3
*X4
  1

  0
LINE
  5
CE9
  8
0
 62
     0
 10
306.7692446341714
 20
576.99214807617682
 30
0.0
 11
303.57449206596141
 21
573.79739550796671
 31
0.0
  0
LINE
  5
CEA
  8
0
 62
     0
 10
307.2948788695993
 20
575.39646196804495
 30
0.0
 11
303.45498106069039
 21
571.5565641591362
 31
0.0
  0
LINE
  5
CEB
  8
0
 62
     0
 10
307.2948788695993
 20
573.27514162448529
 30
0.0
 11
303.33547005541942
 21
569.31573281030535
 31
0.0
  0
LINE
  5
CEC
  8
0
 62
     0
 10
307.2948788695993
 20
571.15382128092574
 30
0.0
 11
303.21595905014851
 21
567.07490146147495
 31
0.0
  0
LINE
  5
CED
  8
0
 62
     0
 10
307.2948788695993
 20
569.03250093736619
 30
0.0
 11
303.09644804487749
 21
564.83407011264421
 31
0.0
  0
LINE
  5
CEE
  8
0
 62
     0
 10
308.37584635196953
 20
567.9921480761767
 30
0.0
 11
302.97693703960653
 21
562.5932387638137
 31
0.0
  0
LINE
  5
CEF
  8
0
 62
     0
 10
306.89487886959932
 20
564.38986025024667
 30
0.0
 11
302.880502530353
 21
560.3754839110004
 31
0.0
  0
LINE
  5
CF0
  8
0
 62
     0
 10
310.49716669552919
 20
567.9921480761767
 30
0.0
 11
308.19716669552929
 21
565.69214807617675
 31
0.0
  0
LINE
  5
CF1
  8
0
 62
     0
 10
306.89487886959932
 20
562.26853990668712
 30
0.0
 11
306.81848703908889
 21
562.19214807617675
 31
0.0
  0
LINE
  5
CF2
  8
0
 62
     0
 10
306.29487886959919
 20
561.6685399066871
 30
0.0
 11
302.79252732639549
 21
558.16618836348334
 31
0.0
  0
LINE
  5
CF3
  8
0
 62
     0
 10
311.2948788695993
 20
566.6685399066871
 30
0.0
 11
310.31848703908901
 21
565.69214807617675
 31
0.0
  0
LINE
  5
CF4
  8
0
 62
     0
 10
306.29487886959919
 20
559.54721956312744
 30
0.0
 11
302.70455212243797
 21
555.95689281596617
 31
0.0
  0
LINE
  5
CF5
  8
0
 62
     0
 10
306.29487886959919
 20
557.42589921956767
 30
0.0
 11
302.6165769184804
 21
553.74759726844889
 31
0.0
  0
LINE
  5
CF6
  8
0
 62
     0
 10
306.29487886959919
 20
555.30457887600812
 30
0.0
 11
302.52860171452289
 21
551.53830172093194
 31
0.0
  0
LINE
  5
CF7
  8
0
 62
     0
 10
304.84487886959909
 20
551.73325853244842
 30
0.0
 11
303.14916031484159
 21
550.03753997769104
 31
0.0
  0
LINE
  5
CF8
  8
0
 62
     0
 10
306.29487886959919
 20
553.18325853244835
 30
0.0
 11
305.90376841332761
 21
552.79214807617677
 31
0.0
  0
LINE
  5
CF9
  8
0
 62
     0
 10
304.84487886959931
 20
549.61193818888876
 30
0.0
 11
304.72508875688732
 21
549.49214807617693
 31
0.0
  0
LINE
  5
CFA
  8
0
 62
     0
 10
307.2948788695993
 20
576.02398555619618
 30
0.0
 11
306.32671634961872
 21
576.99214807617682
 31
0.0
  0
LINE
  5
CFB
  8
0
 62
     0
 10
307.29487886959919
 20
573.90266521263663
 30
0.0
 11
304.53744766431299
 21
576.66009641792289
 31
0.0
  0
LINE
  5
CFC
  8
0
 62
     0
 10
307.29487886959919
 20
571.78134486907686
 30
0.0
 11
303.68190680086587
 21
575.39431693781023
 31
0.0
  0
LINE
  5
CFD
  8
0
 62
     0
 10
311.29487886959907
 20
567.78134486907709
 30
0.0
 11
311.08407566249957
 21
567.99214807617648
 31
0.0
  0
LINE
  5
CFE
  8
0
 62
     0
 10
307.29487886959919
 20
569.66002452551731
 30
0.0
 11
303.55337894298361
 21
573.40152445213289
 31
0.0
  0
LINE
  5
CFF
  8
0
 62
     0
 10
311.2627553189397
 20
565.69214807617675
 30
0.0
 11
308.96275531893991
 21
567.99214807617648
 31
0.0
  0
LINE
  5
D00
  8
0
 62
     0
 10
309.14143497537998
 20
565.69214807617675
 30
0.0
 11
303.44597031799321
 21
571.38761273356374
 31
0.0
  0
LINE
  5
D01
  8
0
 62
     0
 10
307.02011463182049
 20
565.69214807617675
 30
0.0
 11
303.33856169300282
 21
569.37370101499437
 31
0.0
  0
LINE
  5
D02
  8
0
 62
     0
 10
306.89487886959932
 20
563.69606349483843
 30
0.0
 11
303.23115306801259
 21
567.35978929642499
 31
0.0
  0
LINE
  5
D03
  8
0
 62
     0
 10
306.29487886959919
 20
562.17474315127879
 30
0.0
 11
303.12374444302208
 21
565.34587757785584
 31
0.0
  0
LINE
  5
D04
  8
0
 62
     0
 10
306.29487886959919
 20
560.05342280771913
 30
0.0
 11
303.01633581803179
 21
563.33196585928647
 31
0.0
  0
LINE
  5
D05
  8
0
 62
     0
 10
306.29487886959919
 20
557.93210246415936
 30
0.0
 11
302.91768729564291
 21
561.30929403811558
 31
0.0
  0
LINE
  5
D06
  8
0
 62
     0
 10
306.29487886959919
 20
555.81078212059992
 30
0.0
 11
302.83645020603808
 21
559.2692107841608
 31
0.0
  0
LINE
  5
D07
  8
0
 62
     0
 10
306.29487886959919
 20
553.68946177704026
 30
0.0
 11
302.75521311643342
 21
557.22912753020591
 31
0.0
  0
LINE
  5
D08
  8
0
 62
     0
 10
305.07087222690291
 20
552.79214807617689
 30
0.0
 11
302.67397602682871
 21
555.18904427625114
 31
0.0
  0
LINE
  5
D09
  8
0
 62
     0
 10
304.8448788695992
 20
550.89682108992099
 30
0.0
 11
302.592738937224
 21
553.14896102229625
 31
0.0
  0
LINE
  5
D0A
  8
0
 62
     0
 10
304.1282315397836
 20
549.49214807617693
 30
0.0
 11
302.51150184761917
 21
551.10887776834124
 31
0.0
  0
ENDBLK
  5
D0C
  8
0
  0
BLOCK
  8
0
  2
*U5
 70
     1
 10
0.0
 20
0.0
 30
0.0
  3
*U5
  1

  0
SOLID
  5
D0E
  8
0
  6
CONTINUOUS
 10
7.9209194245305774
 20
560.28001604182055
 30
0.0
 11
8.1330514588865412
 21
560.19214807617652
 31
0.0
 12
8.3451834932425051
 22
560.28001604182055
 32
0.0
 13
8.3451834932425051
 23
560.28001604182055
 33
0.0
210
0.0
220
0.0
230
1.0
  0
SOLID
  5
D0F
  8
0
  6
CONTINUOUS
 10
8.4330514588865402
 20
560.49214807617636
 30
0.0
 11
7.9209194245305774
 21
560.28001604182055
 31
0.0
 12
8.3451834932425051
 22
560.28001604182055
 32
0.0
 13
8.3451834932425051
 23
560.28001604182055
 33
0.0
  0
SOLID
  5
D10
  8
0
  6
CONTINUOUS
 10
7.8330514588865414
 20
560.49214807617636
 30
0.0
 11
7.9209194245305774
 21
560.28001604182055
 31
0.0
 12
8.4330514588865402
 22
560.49214807617636
 32
0.0
 13
8.4330514588865402
 23
560.49214807617636
 33
0.0
210
0.0
220
0.0
230
1.0
  0
SOLID
  5
D11
  8
0
  6
CONTINUOUS
 10
8.3451834932425069
 20
560.70428011053241
 30
0.0
 11
7.8330514588865414
 21
560.49214807617636
 31
0.0
 12
8.4330514588865402
 22
560.49214807617636
 32
0.0
 13
8.4330514588865402
 23
560.49214807617636
 33
0.0
210
0.0
220
0.0
230
1.0
  0
SOLID
  5
D12
  8
0
  6
CONTINUOUS
 10
7.9209194245305756
 20
560.70428011053241
 30
0.0
 11
7.8330514588865414
 21
560.49214807617636
 31
0.0
 12
8.3451834932425069
 22
560.70428011053241
 32
0.0
 13
8.3451834932425069
 23
560.70428011053241
 33
0.0
210
0.0
220
0.0
230
1.0
  0
SOLID
  5
D13
  8
0
  6
CONTINUOUS
 10
8.1330514588865412
 20
560.79214807617643
 30
0.0
 11
7.9209194245305756
 21
560.70428011053241
 31
0.0
 12
8.3451834932425069
 22
560.70428011053241
 32
0.0
 13
8.3451834932425069
 23
560.70428011053241
 33
0.0
210
0.0
220
0.0
230
1.0
  0
SOLID
  5
D14
  8
0
  6
CONTINUOUS
 10
7.9209194245305774
 20
561.49101330208146
 30
0.0
 11
8.1330514588865412
 21
561.40314533643743
 31
0.0
 12
8.3451834932425051
 22
561.49101330208146
 32
0.0
 13
8.3451834932425051
 23
561.49101330208146
 33
0.0
210
0.0
220
0.0
230
1.0
  0
SOLID
  5
D15
  8
0
  6
CONTINUOUS
 10
8.4330514588865402
 20
561.70314533643739
 30
0.0
 11
7.9209194245305774
 21
561.49101330208146
 31
0.0
 12
8.3451834932425051
 22
561.49101330208146
 32
0.0
 13
8.3451834932425051
 23
561.49101330208146
 33
0.0
  0
SOLID
  5
D16
  8
0
  6
CONTINUOUS
 10
7.8330514588865414
 20
561.70314533643739
 30
0.0
 11
7.9209194245305774
 21
561.49101330208146
 31
0.0
 12
8.4330514588865402
 22
561.70314533643739
 32
0.0
 13
8.4330514588865402
 23
561.70314533643739
 33
0.0
210
0.0
220
0.0
230
1.0
  0
SOLID
  5
D17
  8
0
  6
CONTINUOUS
 10
8.3451834932425069
 20
561.91527737079321
 30
0.0
 11
7.8330514588865414
 21
561.70314533643739
 31
0.0
 12
8.4330514588865402
 22
561.70314533643739
 32
0.0
 13
8.4330514588865402
 23
561.70314533643739
 33
0.0
210
0.0
220
0.0
230
1.0
  0
SOLID
  5
D18
  8
0
  6
CONTINUOUS
 10
7.9209194245305756
 20
561.91527737079321
 30
0.0
 11
7.8330514588865414
 21
561.70314533643739
 31
0.0
 12
8.3451834932425069
 22
561.91527737079321
 32
0.0
 13
8.3451834932425069
 23
561.91527737079321
 33
0.0
210
0.0
220
0.0
230
1.0
  0
SOLID
  5
D19
  8
0
  6
CONTINUOUS
 10
8.1330514588865412
 20
562.00314533643734
 30
0.0
 11
7.9209194245305756
 21
561.91527737079321
 31
0.0
 12
8.3451834932425069
 22
561.91527737079321
 32
0.0
 13
8.3451834932425069
 23
561.91527737079321
 33
0.0
210
0.0
220
0.0
230
1.0
  0
SOLID
  5
D1A
  8
0
  6
CONTINUOUS
 10
7.9209194245305774
 20
563.19397705056144
 30
0.0
 11
8.1330514588865412
 21
563.10610908491742
 31
0.0
 12
8.3451834932425051
 22
563.19397705056144
 32
0.0
 13
8.3451834932425051
 23
563.19397705056144
 33
0.0
210
0.0
220
0.0
230
1.0
  0
SOLID
  5
D1B
  8
0
  6
CONTINUOUS
 10
8.4330514588865402
 20
563.40610908491726
 30
0.0
 11
7.9209194245305774
 21
563.19397705056144
 31
0.0
 12
8.3451834932425051
 22
563.19397705056144
 32
0.0
 13
8.3451834932425051
 23
563.19397705056144
 33
0.0
  0
SOLID
  5
D1C
  8
0
  6
CONTINUOUS
 10
7.8330514588865414
 20
563.40610908491726
 30
0.0
 11
7.9209194245305774
 21
563.19397705056144
 31
0.0
 12
8.4330514588865402
 22
563.40610908491726
 32
0.0
 13
8.4330514588865402
 23
563.40610908491726
 33
0.0
210
0.0
220
0.0
230
1.0
  0
SOLID
  5
D1D
  8
0
  6
CONTINUOUS
 10
8.3451834932425069
 20
563.61824111927319
 30
0.0
 11
7.8330514588865414
 21
563.40610908491726
 31
0.0
 12
8.4330514588865402
 22
563.40610908491726
 32
0.0
 13
8.4330514588865402
 23
563.40610908491726
 33
0.0
210
0.0
220
0.0
230
1.0
  0
SOLID
  5
D1E
  8
0
  6
CONTINUOUS
 10
7.9209194245305756
 20
563.61824111927319
 30
0.0
 11
7.8330514588865414
 21
563.40610908491726
 31
0.0
 12
8.3451834932425069
 22
563.61824111927319
 32
0.0
 13
8.3451834932425069
 23
563.61824111927319
 33
0.0
210
0.0
220
0.0
230
1.0
  0
SOLID
  5
D1F
  8
0
  6
CONTINUOUS
 10
8.1330514588865412
 20
563.70610908491733
 30
0.0
 11
7.9209194245305756
 21
563.61824111927319
 31
0.0
 12
8.3451834932425069
 22
563.61824111927319
 32
0.0
 13
8.3451834932425069
 23
563.61824111927319
 33
0.0
210
0.0
220
0.0
230
1.0
  0
SOLID
  5
D20
  8
0
  6
CONTINUOUS
 10
7.9209194245305774
 20
564.71722534206924
 30
0.0
 11
8.1330514588865412
 21
564.62935737642522
 31
0.0
 12
8.3451834932425051
 22
564.71722534206924
 32
0.0
 13
8.3451834932425051
 23
564.71722534206924
 33
0.0
210
0.0
220
0.0
230
1.0
  0
SOLID
  5
D21
  8
0
  6
CONTINUOUS
 10
8.4330514588865402
 20
564.92935737642517
 30
0.0
 11
7.9209194245305774
 21
564.71722534206924
 31
0.0
 12
8.3451834932425051
 22
564.71722534206924
 32
0.0
 13
8.3451834932425051
 23
564.71722534206924
 33
0.0
  0
SOLID
  5
D22
  8
0
  6
CONTINUOUS
 10
7.8330514588865414
 20
564.92935737642517
 30
0.0
 11
7.9209194245305774
 21
564.71722534206924
 31
0.0
 12
8.4330514588865402
 22
564.92935737642517
 32
0.0
 13
8.4330514588865402
 23
564.92935737642517
 33
0.0
210
0.0
220
0.0
230
1.0
  0
SOLID
  5
D23
  8
0
  6
CONTINUOUS
 10
8.3451834932425069
 20
565.14148941078099
 30
0.0
 11
7.8330514588865414
 21
564.92935737642517
 31
0.0
 12
8.4330514588865402
 22
564.92935737642517
 32
0.0
 13
8.4330514588865402
 23
564.92935737642517
 33
0.0
210
0.0
220
0.0
230
1.0
  0
SOLID
  5
D24
  8
0
  6
CONTINUOUS
 10
7.9209194245305756
 20
565.14148941078099
 30
0.0
 11
7.8330514588865414
 21
564.92935737642517
 31
0.0
 12
8.3451834932425069
 22
565.14148941078099
 32
0.0
 13
8.3451834932425069
 23
565.14148941078099
 33
0.0
210
0.0
220
0.0
230
1.0
  0
SOLID
  5
D25
  8
0
  6
CONTINUOUS
 10
8.1330514588865412
 20
565.22935737642513
 30
0.0
 11
7.9209194245305756
 21
565.14148941078099
 31
0.0
 12
8.3451834932425069
 22
565.14148941078099
 32
0.0
 13
8.3451834932425069
 23
565.14148941078099
 33
0.0
210
0.0
220
0.0
230
1.0
  0
SOLID
  5
D26
  8
0
  6
CONTINUOUS
 10
7.9209194245305774
 20
565.9800160418207
 30
0.0
 11
8.1330514588865412
 21
565.89214807617657
 31
0.0
 12
8.3451834932425051
 22
565.9800160418207
 32
0.0
 13
8.3451834932425051
 23
565.9800160418207
 33
0.0
210
0.0
220
0.0
230
1.0
  0
SOLID
  5
D27
  8
0
  6
CONTINUOUS
 10
8.4330514588865402
 20
566.19214807617664
 30
0.0
 11
7.9209194245305774
 21
565.9800160418207
 31
0.0
 12
8.3451834932425051
 22
565.9800160418207
 32
0.0
 13
8.3451834932425051
 23
565.9800160418207
 33
0.0
  0
SOLID
  5
D28
  8
0
  6
CONTINUOUS
 10
7.8330514588865414
 20
566.19214807617664
 30
0.0
 11
7.9209194245305774
 21
565.9800160418207
 31
0.0
 12
8.4330514588865402
 22
566.19214807617664
 32
0.0
 13
8.4330514588865402
 23
566.19214807617664
 33
0.0
210
0.0
220
0.0
230
1.0
  0
SOLID
  5
D29
  8
0
  6
CONTINUOUS
 10
8.3451834932425069
 20
566.40428011053245
 30
0.0
 11
7.8330514588865414
 21
566.19214807617664
 31
0.0
 12
8.4330514588865402
 22
566.19214807617664
 32
0.0
 13
8.4330514588865402
 23
566.19214807617664
 33
0.0
210
0.0
220
0.0
230
1.0
  0
SOLID
  5
D2A
  8
0
  6
CONTINUOUS
 10
7.9209194245305756
 20
566.40428011053245
 30
0.0
 11
7.8330514588865414
 21
566.19214807617664
 31
0.0
 12
8.3451834932425069
 22
566.40428011053245
 32
0.0
 13
8.3451834932425069
 23
566.40428011053245
 33
0.0
210
0.0
220
0.0
230
1.0
  0
SOLID
  5
D2B
  8
0
  6
CONTINUOUS
 10
8.1330514588865412
 20
566.49214807617659
 30
0.0
 11
7.9209194245305756
 21
566.40428011053245
 31
0.0
 12
8.3451834932425069
 22
566.40428011053245
 32
0.0
 13
8.3451834932425069
 23
566.40428011053245
 33
0.0
210
0.0
220
0.0
230
1.0
  0
SOLID
  5
D2C
  8
0
  6
CONTINUOUS
 10
7.920919424530604
 20
566.98001604182082
 30
0.0
 11
8.1330514588865679
 21
566.8921480761768
 31
0.0
 12
8.3451834932425317
 22
566.98001604182082
 32
0.0
 13
8.3451834932425317
 23
566.98001604182082
 33
0.0
210
0.0
220
0.0
230
1.0
  0
SOLID
  5
D2D
  8
0
  6
CONTINUOUS
 10
8.4330514588865686
 20
567.19214807617675
 30
0.0
 11
7.920919424530604
 21
566.98001604182082
 31
0.0
 12
8.3451834932425317
 22
566.98001604182082
 32
0.0
 13
8.3451834932425317
 23
566.98001604182082
 33
0.0
  0
SOLID
  5
D2E
  8
0
  6
CONTINUOUS
 10
7.8330514588865681
 20
567.19214807617675
 30
0.0
 11
7.920919424530604
 21
566.98001604182082
 31
0.0
 12
8.4330514588865686
 22
567.19214807617675
 32
0.0
 13
8.4330514588865686
 23
567.19214807617675
 33
0.0
210
0.0
220
0.0
230
1.0
  0
SOLID
  5
D2F
  8
0
  6
CONTINUOUS
 10
8.3451834932425335
 20
567.40428011053257
 30
0.0
 11
7.8330514588865681
 21
567.19214807617675
 31
0.0
 12
8.4330514588865686
 22
567.19214807617675
 32
0.0
 13
8.4330514588865686
 23
567.19214807617675
 33
0.0
210
0.0
220
0.0
230
1.0
  0
SOLID
  5
D30
  8
0
  6
CONTINUOUS
 10
7.9209194245306032
 20
567.40428011053257
 30
0.0
 11
7.8330514588865681
 21
567.19214807617675
 31
0.0
 12
8.3451834932425335
 22
567.40428011053257
 32
0.0
 13
8.3451834932425335
 23
567.40428011053257
 33
0.0
210
0.0
220
0.0
230
1.0
  0
SOLID
  5
D31
  8
0
  6
CONTINUOUS
 10
8.1330514588865679
 20
567.49214807617659
 30
0.0
 11
7.9209194245306032
 21
567.40428011053257
 31
0.0
 12
8.3451834932425335
 22
567.40428011053257
 32
0.0
 13
8.3451834932425335
 23
567.40428011053257
 33
0.0
210
0.0
220
0.0
230
1.0
  0
ENDBLK
  5
D33
  8
0
  0
BLOCK
  8
0
  2
*X6
 70
     1
 10
0.0
 20
0.0
 30
0.0
  3
*X6
  1

  0
LINE
  5
D35
  8
0
 62
     0
 10
7.0080514588864844
 20
541.70681074187451
 30
0.0
 11
7.222714124584285
 21
541.49214807617659
 31
0.0
  0
LINE
  5
D36
  8
0
 62
     0
 10
7.0080514588865412
 20
542.41391752306095
 30
0.0
 11
7.9298209057708391
 21
541.49214807617659
 31
0.0
  0
LINE
  5
D37
  8
0
 62
     0
 10
8.0080514588865412
 20
542.12102430424761
 30
0.0
 11
8.5080514588865412
 21
541.62102430424761
 31
0.0
  0
LINE
  5
D38
  8
0
 62
     0
 10
7.0080514588865412
 20
543.12102430424761
 30
0.0
 11
8.0080514588865412
 21
542.12102430424761
 31
0.0
  0
LINE
  5
D39
  8
0
 62
     0
 10
8.0080514588865412
 20
542.82813108543405
 30
0.0
 11
8.5080514588865981
 21
542.32813108543405
 31
0.0
  0
LINE
  5
D3A
  8
0
 62
     0
 10
7.0080514588865412
 20
543.82813108543417
 30
0.0
 11
8.0080514588865412
 21
542.82813108543405
 31
0.0
  0
LINE
  5
D3B
  8
0
 62
     0
 10
8.0080514588865981
 20
543.53523786662072
 30
0.0
 11
8.5080514588865981
 21
543.03523786662061
 31
0.0
  0
LINE
  5
D3C
  8
0
 62
     0
 10
7.0080514588865412
 20
544.53523786662072
 30
0.0
 11
8.0080514588865981
 21
543.53523786662072
 31
0.0
  0
LINE
  5
D3D
  8
0
 62
     0
 10
8.0080514588865981
 20
544.24234464780716
 30
0.0
 11
8.5080514588865981
 21
543.74234464780704
 31
0.0
  0
LINE
  5
D3E
  8
0
 62
     0
 10
7.0080514588865412
 20
545.24234464780704
 30
0.0
 11
8.0080514588865981
 21
544.24234464780716
 31
0.0
  0
LINE
  5
D3F
  8
0
 62
     0
 10
8.0080514588865981
 20
544.94945142899383
 30
0.0
 11
8.5080514588865981
 21
544.44945142899383
 31
0.0
  0
LINE
  5
D40
  8
0
 62
     0
 10
7.0080514588865412
 20
545.94945142899383
 30
0.0
 11
8.0080514588865981
 21
544.94945142899383
 31
0.0
  0
LINE
  5
D41
  8
0
 62
     0
 10
8.0080514588865981
 20
545.65655821018015
 30
0.0
 11
8.5080514588865981
 21
545.15655821018015
 31
0.0
  0
LINE
  5
D42
  8
0
 62
     0
 10
7.0080514588865981
 20
546.65655821018015
 30
0.0
 11
8.0080514588865981
 21
545.65655821018015
 31
0.0
  0
LINE
  5
D43
  8
0
 62
     0
 10
8.0080514588865981
 20
546.3636649913667
 30
0.0
 11
8.5080514588865981
 21
545.8636649913667
 31
0.0
  0
LINE
  5
D44
  8
0
 62
     0
 10
7.0080514588865981
 20
547.36366499136682
 30
0.0
 11
8.0080514588865981
 21
546.3636649913667
 31
0.0
  0
LINE
  5
D45
  8
0
 62
     0
 10
8.0080514588865981
 20
547.07077177255337
 30
0.0
 11
8.5080514588865981
 21
546.57077177255337
 31
0.0
  0
LINE
  5
D46
  8
0
 62
     0
 10
7.0080514588865981
 20
548.07077177255326
 30
0.0
 11
8.0080514588865981
 21
547.07077177255337
 31
0.0
  0
LINE
  5
D47
  8
0
 62
     0
 10
8.0080514588865981
 20
547.77787855373981
 30
0.0
 11
8.5080514588865981
 21
547.27787855373981
 31
0.0
  0
LINE
  5
D48
  8
0
 62
     0
 10
7.0080514588865981
 20
548.77787855373992
 30
0.0
 11
8.0080514588865981
 21
547.77787855373981
 31
0.0
  0
LINE
  5
D49
  8
0
 62
     0
 10
8.0080514588865981
 20
548.48498533492636
 30
0.0
 11
8.5080514588865981
 21
547.98498533492636
 31
0.0
  0
LINE
  5
D4A
  8
0
 62
     0
 10
7.0080514588865981
 20
549.48498533492636
 30
0.0
 11
8.0080514588865981
 21
548.48498533492636
 31
0.0
  0
LINE
  5
D4B
  8
0
 62
     0
 10
8.0080514588865981
 20
549.19209211611292
 30
0.0
 11
8.5080514588865981
 21
548.69209211611292
 31
0.0
  0
LINE
  5
D4C
  8
0
 62
     0
 10
7.0080514588865981
 20
550.1920921161128
 30
0.0
 11
8.0080514588865981
 21
549.19209211611292
 31
0.0
  0
LINE
  5
D4D
  8
0
 62
     0
 10
8.0080514588865412
 20
549.89919889729958
 30
0.0
 11
8.5080514588865412
 21
549.39919889729958
 31
0.0
  0
LINE
  5
D4E
  8
0
 62
     0
 10
7.0080514588865412
 20
550.89919889729947
 30
0.0
 11
8.0080514588865412
 21
549.89919889729958
 31
0.0
  0
LINE
  5
D4F
  8
0
 62
     0
 10
8.0080514588865412
 20
550.60630567848602
 30
0.0
 11
8.5080514588865412
 21
550.10630567848602
 31
0.0
  0
LINE
  5
D50
  8
0
 62
     0
 10
7.0080514588865412
 20
551.60630567848602
 30
0.0
 11
8.0080514588865412
 21
550.60630567848602
 31
0.0
  0
LINE
  5
D51
  8
0
 62
     0
 10
8.0080514588864844
 20
551.31341245967258
 30
0.0
 11
8.5080514588864844
 21
550.81341245967258
 31
0.0
  0
LINE
  5
D52
  8
0
 62
     0
 10
7.0080514588865412
 20
552.31341245967269
 30
0.0
 11
8.0080514588864844
 21
551.31341245967258
 31
0.0
  0
LINE
  5
D53
  8
0
 62
     0
 10
7.0080514588865412
 20
553.02051924085913
 30
0.0
 11
8.5080514588865981
 21
551.52051924085913
 31
0.0
  0
LINE
  5
D54
  8
0
 62
     0
 10
7.0080514588864844
 20
553.72762602204568
 30
0.0
 11
8.5080514588865412
 21
552.2276260220458
 31
0.0
  0
LINE
  5
D55
  8
0
 62
     0
 10
7.0725932611811677
 20
554.37019100093755
 30
0.0
 11
8.7886389325128675
 21
552.65414532960608
 31
0.0
  0
LINE
  5
D56
  8
0
 62
     0
 10
7.4261466517743884
 20
554.72374439153089
 30
0.0
 11
9.2369266685968796
 21
552.91296437470851
 31
0.0
  0
LINE
  5
D57
  8
0
 62
     0
 10
9.0080514588865412
 20
553.84894636560534
 30
0.0
 11
9.3580514588865071
 21
553.49894636560543
 31
0.0
  0
LINE
  5
D58
  8
0
 62
     0
 10
7.5080514588865412
 20
555.34894636560546
 30
0.0
 11
9.0080514588865412
 21
553.84894636560534
 31
0.0
  0
LINE
  5
D59
  8
0
 62
     0
 10
9.0080514588865981
 20
554.55605314679201
 30
0.0
 11
9.3580514588865071
 21
554.20605314679187
 31
0.0
  0
LINE
  5
D5A
  8
0
 62
     0
 10
7.5080514588865412
 20
556.05605314679201
 30
0.0
 11
9.0080514588865981
 21
554.55605314679201
 31
0.0
  0
LINE
  5
D5B
  8
0
 62
     0
 10
9.0080514588865981
 20
555.26315992797845
 30
0.0
 11
9.3580514588865071
 21
554.91315992797854
 31
0.0
  0
LINE
  5
D5C
  8
0
 62
     0
 10
7.5080514588865412
 20
556.76315992797845
 30
0.0
 11
9.0080514588865981
 21
555.26315992797845
 31
0.0
  0
LINE
  5
D5D
  8
0
 62
     0
 10
9.0080514588865981
 20
555.970266709165
 30
0.0
 11
9.3580514588865071
 21
555.62026670916509
 31
0.0
  0
LINE
  5
D5E
  8
0
 62
     0
 10
7.5080514588865412
 20
557.47026670916512
 30
0.0
 11
9.0080514588865981
 21
555.970266709165
 31
0.0
  0
LINE
  5
D5F
  8
0
 62
     0
 10
9.0080514588865981
 20
556.67737349035156
 30
0.0
 11
9.3580514588865071
 21
556.32737349035165
 31
0.0
  0
LINE
  5
D60
  8
0
 62
     0
 10
7.5080514588865412
 20
558.17737349035156
 30
0.0
 11
9.0080514588865981
 21
556.67737349035156
 31
0.0
  0
LINE
  5
D61
  8
0
 62
     0
 10
9.0080514588865981
 20
557.38448027153822
 30
0.0
 11
9.3580514588865071
 21
557.03448027153809
 31
0.0
  0
LINE
  5
D62
  8
0
 62
     0
 10
7.7003836542480713
 20
558.69214807617664
 30
0.0
 11
9.0080514588865981
 21
557.38448027153822
 31
0.0
  0
LINE
  5
D63
  8
0
 62
     0
 10
9.0080514588865981
 20
558.09158705272455
 30
0.0
 11
9.3580514588865071
 21
557.74158705272475
 31
0.0
  0
LINE
  5
D64
  8
0
 62
     0
 10
8.4074904354346245
 20
558.69214807617664
 30
0.0
 11
9.0080514588865981
 21
558.09158705272455
 31
0.0
  0
LINE
  5
D65
  8
0
 62
     0
 10
9.1145972166212346
 20
558.69214807617652
 30
0.0
 11
9.3580514588865071
 21
558.44869383391119
 31
0.0
  0
ENDBLK
  5
D67
  8
0
  0
BLOCK
  8
0
  2
*X7
 70
     1
 10
0.0
 20
0.0
 30
0.0
  3
*X7
  1

  0
LINE
  5
D69
  8
0
 62
     0
 10
6.9194214991468916
 20
541.49214807617659
 30
0.0
 11
7.0080514588865981
 21
541.5807780359163
 31
0.0
  0
LINE
  5
D6A
  8
0
 62
     0
 10
5.5052079367737861
 20
541.49214807617659
 30
0.0
 11
7.0080514588865981
 21
542.99499159828952
 31
0.0
  0
LINE
  5
D6B
  8
0
 62
     0
 10
5.2580514588865981
 20
542.65920516066251
 30
0.0
 11
7.0080514588864844
 21
544.4092051606624
 31
0.0
  0
LINE
  5
D6C
  8
0
 62
     0
 10
5.2580514588865981
 20
544.07341872303573
 30
0.0
 11
7.0080514588865412
 21
545.82341872303562
 31
0.0
  0
LINE
  5
D6D
  8
0
 62
     0
 10
5.258051458886654
 20
545.48763228540884
 30
0.0
 11
7.0080514588865981
 21
547.23763228540872
 31
0.0
  0
LINE
  5
D6E
  8
0
 62
     0
 10
5.2580514588865981
 20
546.90184584778183
 30
0.0
 11
7.0080514588865981
 21
548.65184584778183
 31
0.0
  0
LINE
  5
D6F
  8
0
 62
     0
 10
5.2580514588865981
 20
548.31605941015493
 30
0.0
 11
7.0080514588865981
 21
550.06605941015493
 31
0.0
  0
LINE
  5
D70
  8
0
 62
     0
 10
5.2580514588865981
 20
549.73027297252804
 30
0.0
 11
7.0080514588865412
 21
551.48027297252804
 31
0.0
  0
LINE
  5
D71
  8
0
 62
     0
 10
5.2580514588865981
 20
551.14448653490115
 30
0.0
 11
7.0080514588865412
 21
552.89448653490103
 31
0.0
  0
LINE
  5
D72
  8
0
 62
     0
 10
5.2580514588865981
 20
552.55870009727425
 30
0.0
 11
7.5080514588865412
 21
554.80870009727414
 31
0.0
  0
LINE
  5
D73
  8
0
 62
     0
 10
5.2580514588865981
 20
553.97291365964736
 30
0.0
 11
7.5080514588864844
 21
556.22291365964725
 31
0.0
  0
LINE
  5
D74
  8
0
 62
     0
 10
6.2580514588864844
 20
556.38712722202035
 30
0.0
 11
7.5080514588864844
 21
557.63712722202035
 31
0.0
  0
LINE
  5
D75
  8
0
 62
     0
 10
5.2580514588865412
 20
555.38712722202035
 30
0.0
 11
5.7630723130428123
 21
555.89214807617668
 31
0.0
  0
LINE
  5
D76
  8
0
 62
     0
 10
6.2580514588864844
 20
557.80134078439335
 30
0.0
 11
7.1488587506696604
 21
558.69214807617664
 31
0.0
  0
LINE
  5
D77
  8
0
 62
     0
 10
5.2580514588865981
 20
542.04259717950129
 30
0.0
 11
5.8085005622112362
 21
541.49214807617659
 31
0.0
  0
LINE
  5
D78
  8
0
 62
     0
 10
5.2580514588865981
 20
543.45681074187451
 30
0.0
 11
7.0080514588864844
 21
541.70681074187451
 31
0.0
  0
LINE
  5
D79
  8
0
 62
     0
 10
5.2580514588865981
 20
544.8710243042475
 30
0.0
 11
7.0080514588865412
 21
543.12102430424761
 31
0.0
  0
LINE
  5
D7A
  8
0
 62
     0
 10
5.2580514588865981
 20
546.28523786662049
 30
0.0
 11
7.0080514588865412
 21
544.53523786662072
 31
0.0
  0
LINE
  5
D7B
  8
0
 62
     0
 10
5.2580514588865981
 20
547.69945142899371
 30
0.0
 11
7.0080514588865412
 21
545.94945142899383
 31
0.0
  0
LINE
  5
D7C
  8
0
 62
     0
 10
5.2580514588865981
 20
549.11366499136659
 30
0.0
 11
7.0080514588865981
 21
547.36366499136682
 31
0.0
  0
LINE
  5
D7D
  8
0
 62
     0
 10
5.2580514588865981
 20
550.52787855373981
 30
0.0
 11
7.0080514588865981
 21
548.77787855373992
 31
0.0
  0
LINE
  5
D7E
  8
0
 62
     0
 10
5.2580514588865981
 20
551.94209211611303
 30
0.0
 11
7.0080514588865981
 21
550.1920921161128
 31
0.0
  0
LINE
  5
D7F
  8
0
 62
     0
 10
5.2580514588865412
 20
553.35630567848614
 30
0.0
 11
7.0080514588865412
 21
551.60630567848602
 31
0.0
  0
LINE
  5
D80
  8
0
 62
     0
 10
5.2580514588865412
 20
554.77051924085924
 30
0.0
 11
7.0080514588865412
 21
553.02051924085913
 31
0.0
  0
LINE
  5
D81
  8
0
 62
     0
 10
5.5506361859422091
 20
555.89214807617668
 30
0.0
 11
7.0725932611811677
 21
554.37019100093755
 31
0.0
  0
LINE
  5
D82
  8
0
 62
     0
 10
6.2580514588864844
 20
556.59894636560546
 30
0.0
 11
7.5080514588865412
 21
555.34894636560546
 31
0.0
  0
LINE
  5
D83
  8
0
 62
     0
 10
6.2580514588865412
 20
558.01315992797845
 30
0.0
 11
7.5080514588865412
 21
556.76315992797845
 31
0.0
  0
LINE
  5
D84
  8
0
 62
     0
 10
6.993276873061574
 20
558.69214807617664
 30
0.0
 11
7.5080514588865412
 21
558.17737349035156
 31
0.0
  0
ENDBLK
  5
D86
  8
0
  0
BLOCK
  8
0
  2
*X8
 70
     1
 10
0.0
 20
0.0
 30
0.0
  3
*X8
  1

  0
LINE
  5
D88
  8
0
 62
     0
 10
146.92656417408321
 20
541.49214807617659
 30
0.0
 11
147.95365186825941
 21
542.51923577035279
 31
0.0
  0
LINE
  5
D89
  8
0
 62
     0
 10
145.7036518682595
 20
541.68344933272601
 30
0.0
 11
147.95365186825941
 21
543.93344933272579
 31
0.0
  0
LINE
  5
D8A
  8
0
 62
     0
 10
145.70365186825941
 20
543.09766289509901
 30
0.0
 11
147.95365186825941
 21
545.34766289509901
 31
0.0
  0
LINE
  5
D8B
  8
0
 62
     0
 10
145.70365186825941
 20
544.51187645747211
 30
0.0
 11
147.9536518682593
 21
546.76187645747189
 31
0.0
  0
LINE
  5
D8C
  8
0
 62
     0
 10
145.70365186825941
 20
545.92609001984522
 30
0.0
 11
147.9536518682593
 21
548.17609001984511
 31
0.0
  0
LINE
  5
D8D
  8
0
 62
     0
 10
145.70365186825941
 20
547.3403035822181
 30
0.0
 11
147.9536518682593
 21
549.5903035822181
 31
0.0
  0
LINE
  5
D8E
  8
0
 62
     0
 10
145.70365186825941
 20
548.75451714459132
 30
0.0
 11
147.9536518682593
 21
551.00451714459132
 31
0.0
  0
LINE
  5
D8F
  8
0
 62
     0
 10
145.02706923747169
 20
549.4921480761767
 30
0.0
 11
147.9536518682593
 21
552.41873070696442
 31
0.0
  0
LINE
  5
D90
  8
0
 62
     0
 10
144.35365186825931
 20
550.23294426933739
 30
0.0
 11
147.9536518682593
 21
553.83294426933753
 31
0.0
  0
LINE
  5
D91
  8
0
 62
     0
 10
145.70365186825941
 20
552.99715783171064
 30
0.0
 11
147.9536518682593
 21
555.24715783171064
 31
0.0
  0
LINE
  5
D92
  8
0
 62
     0
 10
144.35365186825931
 20
551.64715783171062
 30
0.0
 11
145.19864211272539
 21
552.4921480761767
 31
0.0
  0
LINE
  5
D93
  8
0
 62
     0
 10
145.70365186825941
 20
554.41137139408374
 30
0.0
 11
147.9536518682593
 21
556.66137139408363
 31
0.0
  0
LINE
  5
D94
  8
0
 62
     0
 10
145.70365186825941
 20
555.82558495645685
 30
0.0
 11
147.95365186825941
 21
558.07558495645685
 31
0.0
  0
LINE
  5
D95
  8
0
 62
     0
 10
147.9560014256061
 20
559.4921480761767
 30
0.0
 11
148.95365186825941
 21
560.48979851882996
 31
0.0
  0
LINE
  5
D96
  8
0
 62
     0
 10
145.7036518682593
 20
557.23979851882984
 30
0.0
 11
147.95365186825941
 21
559.48979851882984
 31
0.0
  0
LINE
  5
D97
  8
0
 62
     0
 10
145.7036518682593
 20
558.65401208120295
 30
0.0
 11
148.9536518682593
 21
561.90401208120295
 31
0.0
  0
LINE
  5
D98
  8
0
 62
     0
 10
145.7036518682593
 20
560.06822564357606
 30
0.0
 11
148.9536518682593
 21
563.31822564357606
 31
0.0
  0
LINE
  5
D99
  8
0
 62
     0
 10
147.2036518682593
 20
562.98243920594905
 30
0.0
 11
148.9536518682593
 21
564.73243920594905
 31
0.0
  0
LINE
  5
D9A
  8
0
 62
     0
 10
145.7036518682593
 20
561.48243920594916
 30
0.0
 11
146.61336073848679
 21
562.39214807617657
 31
0.0
  0
LINE
  5
D9B
  8
0
 62
     0
 10
147.2036518682593
 20
564.39665276832227
 30
0.0
 11
148.29914717611371
 21
565.4921480761767
 31
0.0
  0
LINE
  5
D9C
  8
0
 62
     0
 10
145.70365186825941
 20
541.60413944506479
 30
0.0
 11
145.81564323714761
 21
541.49214807617659
 31
0.0
  0
LINE
  5
D9D
  8
0
 62
     0
 10
145.7036518682593
 20
543.01835300743801
 30
0.0
 11
147.2298567995206
 21
541.49214807617659
 31
0.0
  0
LINE
  5
D9E
  8
0
 62
     0
 10
145.7036518682593
 20
544.432566569811
 30
0.0
 11
147.9536518682593
 21
542.182566569811
 31
0.0
  0
LINE
  5
D9F
  8
0
 62
     0
 10
145.7036518682593
 20
545.84678013218422
 30
0.0
 11
147.9536518682593
 21
543.59678013218422
 31
0.0
  0
LINE
  5
DA0
  8
0
 62
     0
 10
145.7036518682593
 20
547.26099369455721
 30
0.0
 11
147.9536518682593
 21
545.01099369455721
 31
0.0
  0
LINE
  5
DA1
  8
0
 62
     0
 10
145.70365186825941
 20
548.67520725693032
 30
0.0
 11
147.9536518682593
 21
546.42520725693043
 31
0.0
  0
LINE
  5
DA2
  8
0
 62
     0
 10
144.35365186825931
 20
550.02520725693034
 30
0.0
 11
144.88671104901289
 21
549.4921480761767
 31
0.0
  0
LINE
  5
DA3
  8
0
 62
     0
 10
144.35365186825931
 20
551.43942081930345
 30
0.0
 11
147.9536518682593
 21
547.83942081930343
 31
0.0
  0
LINE
  5
DA4
  8
0
 62
     0
 10
144.71513817375919
 20
552.4921480761767
 30
0.0
 11
147.95365186825941
 21
549.25363438167653
 31
0.0
  0
LINE
  5
DA5
  8
0
 62
     0
 10
145.70365186825941
 20
552.91784794404964
 30
0.0
 11
147.95365186825941
 21
550.66784794404964
 31
0.0
  0
LINE
  5
DA6
  8
0
 62
     0
 10
145.70365186825941
 20
554.33206150642275
 30
0.0
 11
147.95365186825941
 21
552.08206150642275
 31
0.0
  0
LINE
  5
DA7
  8
0
 62
     0
 10
145.70365186825941
 20
555.74627506879585
 30
0.0
 11
147.95365186825941
 21
553.49627506879585
 31
0.0
  0
LINE
  5
DA8
  8
0
 62
     0
 10
145.7036518682593
 20
557.16048863116885
 30
0.0
 11
147.9536518682593
 21
554.91048863116885
 31
0.0
  0
LINE
  5
DA9
  8
0
 62
     0
 10
145.7036518682593
 20
558.57470219354195
 30
0.0
 11
147.9536518682593
 21
556.32470219354207
 31
0.0
  0
LINE
  5
DAA
  8
0
 62
     0
 10
145.7036518682593
 20
559.98891575591495
 30
0.0
 11
147.9536518682593
 21
557.73891575591506
 31
0.0
  0
LINE
  5
DAB
  8
0
 62
     0
 10
145.7036518682593
 20
561.40312931828817
 30
0.0
 11
147.9536518682593
 21
559.15312931828828
 31
0.0
  0
LINE
  5
DAC
  8
0
 62
     0
 10
146.128846672744
 20
562.39214807617657
 30
0.0
 11
148.9536518682593
 21
559.56734288066127
 31
0.0
  0
LINE
  5
DAD
  8
0
 62
     0
 10
147.2036518682593
 20
562.73155644303449
 30
0.0
 11
148.95365186825941
 21
560.98155644303426
 31
0.0
  0
LINE
  5
DAE
  8
0
 62
     0
 10
147.20365186825941
 20
564.14577000540748
 30
0.0
 11
148.95365186825941
 21
562.39577000540748
 31
0.0
  0
LINE
  5
DAF
  8
0
 62
     0
 10
147.2714873598633
 20
565.4921480761767
 30
0.0
 11
148.95365186825941
 21
563.80998356778048
 31
0.0
  0
LINE
  5
DB0
  8
0
 62
     0
 10
148.68570092223629
 20
565.4921480761767
 30
0.0
 11
148.95365186825941
 21
565.2241971301537
 31
0.0
  0
ENDBLK
  5
DB2
  8
0
  0
BLOCK
  8
0
  2
*X9
 70
     1
 10
0.0
 20
0.0
 30
0.0
  3
*X9
  1

  0
LINE
  5
DB4
  8
0
 62
     0
 10
147.9536518682593
 20
542.53611996040445
 30
0.0
 11
148.9976237524871
 21
541.49214807617659
 31
0.0
  0
LINE
  5
DB5
  8
0
 62
     0
 10
149.95365186825941
 20
541.59678013218411
 30
0.0
 11
150.05828392426679
 21
541.49214807617659
 31
0.0
  0
LINE
  5
DB6
  8
0
 62
     0
 10
147.9536518682593
 20
543.59678013218422
 30
0.0
 11
149.9536518682593
 21
541.59678013218411
 31
0.0
  0
LINE
  5
DB7
  8
0
 62
     0
 10
149.9536518682593
 20
542.65744030396399
 30
0.0
 11
150.4536518682593
 21
542.15744030396399
 31
0.0
  0
LINE
  5
DB8
  8
0
 62
     0
 10
147.9536518682593
 20
544.65744030396388
 30
0.0
 11
149.9536518682593
 21
542.65744030396399
 31
0.0
  0
LINE
  5
DB9
  8
0
 62
     0
 10
149.9536518682593
 20
543.71810047574365
 30
0.0
 11
150.4536518682593
 21
543.21810047574365
 31
0.0
  0
LINE
  5
DBA
  8
0
 62
     0
 10
147.9536518682593
 20
545.71810047574388
 30
0.0
 11
149.9536518682593
 21
543.71810047574365
 31
0.0
  0
LINE
  5
DBB
  8
0
 62
     0
 10
149.9536518682593
 20
544.77876064752354
 30
0.0
 11
150.4536518682593
 21
544.27876064752365
 31
0.0
  0
LINE
  5
DBC
  8
0
 62
     0
 10
147.9536518682593
 20
546.77876064752354
 30
0.0
 11
149.9536518682593
 21
544.77876064752365
 31
0.0
  0
LINE
  5
DBD
  8
0
 62
     0
 10
149.9536518682593
 20
545.83942081930343
 30
0.0
 11
150.4536518682593
 21
545.33942081930343
 31
0.0
  0
LINE
  5
DBE
  8
0
 62
     0
 10
147.9536518682593
 20
547.83942081930354
 30
0.0
 11
149.9536518682593
 21
545.83942081930354
 31
0.0
  0
LINE
  5
DBF
  8
0
 62
     0
 10
149.9536518682593
 20
546.9000809910832
 30
0.0
 11
150.4536518682593
 21
546.40008099108331
 31
0.0
  0
LINE
  5
DC0
  8
0
 62
     0
 10
147.9536518682593
 20
548.90008099108331
 30
0.0
 11
149.9536518682593
 21
546.9000809910832
 31
0.0
  0
LINE
  5
DC1
  8
0
 62
     0
 10
149.9536518682593
 20
547.96074116286309
 30
0.0
 11
150.4536518682593
 21
547.46074116286309
 31
0.0
  0
LINE
  5
DC2
  8
0
 62
     0
 10
147.9536518682593
 20
549.96074116286297
 30
0.0
 11
149.9536518682593
 21
547.96074116286309
 31
0.0
  0
LINE
  5
DC3
  8
0
 62
     0
 10
149.9536518682593
 20
549.02140133464275
 30
0.0
 11
150.4536518682593
 21
548.52140133464275
 31
0.0
  0
LINE
  5
DC4
  8
0
 62
     0
 10
147.9536518682593
 20
551.02140133464297
 30
0.0
 11
149.9536518682593
 21
549.02140133464286
 31
0.0
  0
LINE
  5
DC5
  8
0
 62
     0
 10
149.9536518682593
 20
550.08206150642275
 30
0.0
 11
150.4536518682593
 21
549.58206150642263
 31
0.0
  0
LINE
  5
DC6
  8
0
 62
     0
 10
147.9536518682593
 20
552.08206150642263
 30
0.0
 11
149.9536518682593
 21
550.08206150642275
 31
0.0
  0
LINE
  5
DC7
  8
0
 62
     0
 10
149.9536518682593
 20
551.14272167820263
 30
0.0
 11
150.45365186825919
 21
550.64272167820263
 31
0.0
  0
LINE
  5
DC8
  8
0
 62
     0
 10
147.9536518682593
 20
553.14272167820263
 30
0.0
 11
149.95365186825919
 21
551.14272167820263
 31
0.0
  0
LINE
  5
DC9
  8
0
 62
     0
 10
149.9536518682593
 20
552.20338184998229
 30
0.0
 11
150.4536518682593
 21
551.70338184998229
 31
0.0
  0
LINE
  5
DCA
  8
0
 62
     0
 10
147.9536518682593
 20
554.20338184998241
 30
0.0
 11
149.9536518682593
 21
552.20338184998229
 31
0.0
  0
LINE
  5
DCB
  8
0
 62
     0
 10
149.9536518682593
 20
553.26404202176218
 30
0.0
 11
150.4536518682593
 21
552.76404202176207
 31
0.0
  0
LINE
  5
DCC
  8
0
 62
     0
 10
147.9536518682593
 20
555.26404202176207
 30
0.0
 11
149.95365186825919
 21
553.26404202176229
 31
0.0
  0
LINE
  5
DCD
  8
0
 62
     0
 10
149.9536518682593
 20
554.32470219354195
 30
0.0
 11
150.4536518682593
 21
553.82470219354195
 31
0.0
  0
LINE
  5
DCE
  8
0
 62
     0
 10
147.9536518682593
 20
556.32470219354207
 30
0.0
 11
149.9536518682593
 21
554.32470219354195
 31
0.0
  0
LINE
  5
DCF
  8
0
 62
     0
 10
149.9536518682593
 20
555.38536236532195
 30
0.0
 11
150.4536518682593
 21
554.88536236532184
 31
0.0
  0
LINE
  5
DD0
  8
0
 62
     0
 10
147.9536518682593
 20
557.38536236532184
 30
0.0
 11
149.9536518682593
 21
555.38536236532195
 31
0.0
  0
LINE
  5
DD1
  8
0
 62
     0
 10
147.9536518682593
 20
558.44602253710161
 30
0.0
 11
150.45365186825941
 21
555.94602253710161
 31
0.0
  0
LINE
  5
DD2
  8
0
 62
     0
 10
147.96818650096409
 20
559.49214807617648
 30
0.0
 11
151.096841052375
 21
556.36349352476566
 31
0.0
  0
LINE
  5
DD3
  8
0
 62
     0
 10
148.9536518682593
 20
559.56734288066127
 30
0.0
 11
151.7692726565011
 21
556.75172209241941
 31
0.0
  0
LINE
  5
DD4
  8
0
 62
     0
 10
148.9536518682593
 20
560.62800305244104
 30
0.0
 11
152.44170426062709
 21
557.13995066007328
 31
0.0
  0
LINE
  5
DD5
  8
0
 62
     0
 10
150.9536518682593
 20
559.68866322422093
 30
0.0
 11
151.30365186825929
 21
559.33866322422102
 31
0.0
  0
LINE
  5
DD6
  8
0
 62
     0
 10
152.1501670163035
 20
558.49214807617659
 30
0.0
 11
152.9536518682593
 21
557.68866322422093
 31
0.0
  0
LINE
  5
DD7
  8
0
 62
     0
 10
148.9536518682593
 20
561.68866322422093
 30
0.0
 11
150.9536518682593
 21
559.68866322422105
 31
0.0
  0
LINE
  5
DD8
  8
0
 62
     0
 10
150.9536518682593
 20
560.74932339600082
 30
0.0
 11
151.30365186825929
 21
560.39932339600068
 31
0.0
  0
LINE
  5
DD9
  8
0
 62
     0
 10
148.9536518682593
 20
562.74932339600082
 30
0.0
 11
150.9536518682593
 21
560.74932339600082
 31
0.0
  0
LINE
  5
DDA
  8
0
 62
     0
 10
150.9536518682593
 20
561.80998356778059
 30
0.0
 11
151.30365186825929
 21
561.45998356778068
 31
0.0
  0
LINE
  5
DDB
  8
0
 62
     0
 10
148.9536518682593
 20
563.80998356778048
 30
0.0
 11
150.9536518682593
 21
561.80998356778059
 31
0.0
  0
LINE
  5
DDC
  8
0
 62
     0
 10
150.9536518682593
 20
562.87064373956025
 30
0.0
 11
151.30365186825929
 21
562.52064373956046
 31
0.0
  0
LINE
  5
DDD
  8
0
 62
     0
 10
148.9536518682593
 20
564.87064373956036
 30
0.0
 11
150.9536518682593
 21
562.87064373956025
 31
0.0
  0
LINE
  5
DDE
  8
0
 62
     0
 10
150.9536518682593
 20
563.93130391134025
 30
0.0
 11
151.30365186825921
 21
563.58130391134023
 31
0.0
  0
LINE
  5
DDF
  8
0
 62
     0
 10
149.3928077034229
 20
565.49214807617659
 30
0.0
 11
150.9536518682593
 21
563.93130391134025
 31
0.0
  0
LINE
  5
DE0
  8
0
 62
     0
 10
150.9536518682593
 20
564.99196408312014
 30
0.0
 11
151.30365186825929
 21
564.64196408312011
 31
0.0
  0
LINE
  5
DE1
  8
0
 62
     0
 10
150.4534678752027
 20
565.49214807617659
 30
0.0
 11
150.9536518682593
 21
564.99196408312014
 31
0.0
  0
ENDBLK
  5
DE3
  8
0
  0
BLOCK
  8
0
  2
*U10
 70
     1
 10
0.0
 20
0.0
 30
0.0
  3
*U10
  1

  0
SOLID
  5
DE5
  8
0
  6
CONTINUOUS
 10
149.6415198339034
 20
568.28001604182066
 30
0.0
 11
149.85365186825931
 21
568.19214807617664
 31
0.0
 12
150.06578390261529
 22
568.28001604182066
 32
0.0
 13
150.06578390261529
 23
568.28001604182066
 33
0.0
210
0.0
220
0.0
230
1.0
  0
SOLID
  5
DE6
  8
0
  6
CONTINUOUS
 10
150.15365186825929
 20
568.49214807617648
 30
0.0
 11
149.6415198339034
 21
568.28001604182066
 31
0.0
 12
150.06578390261529
 22
568.28001604182066
 32
0.0
 13
150.06578390261529
 23
568.28001604182066
 33
0.0
210
0.0
220
0.0
230
1.0
  0
SOLID
  5
DE7
  8
0
  6
CONTINUOUS
 10
149.55365186825929
 20
568.49214807617648
 30
0.0
 11
149.6415198339034
 21
568.28001604182066
 31
0.0
 12
150.15365186825929
 22
568.49214807617648
 32
0.0
 13
150.15365186825929
 23
568.49214807617648
 33
0.0
210
0.0
220
0.0
230
1.0
  0
SOLID
  5
DE8
  8
0
  6
CONTINUOUS
 10
150.06578390261529
 20
568.70428011053252
 30
0.0
 11
149.55365186825929
 21
568.49214807617648
 31
0.0
 12
150.15365186825929
 22
568.49214807617648
 32
0.0
 13
150.15365186825929
 23
568.49214807617648
 33
0.0
210
0.0
220
0.0
230
1.0
  0
SOLID
  5
DE9
  8
0
  6
CONTINUOUS
 10
149.6415198339034
 20
568.70428011053252
 30
0.0
 11
149.55365186825929
 21
568.49214807617648
 31
0.0
 12
150.06578390261529
 22
568.70428011053252
 32
0.0
 13
150.06578390261529
 23
568.70428011053252
 33
0.0
210
0.0
220
0.0
230
1.0
  0
SOLID
  5
DEA
  8
0
  6
CONTINUOUS
 10
149.85365186825931
 20
568.79214807617655
 30
0.0
 11
149.6415198339034
 21
568.70428011053252
 31
0.0
 12
150.06578390261529
 22
568.70428011053252
 32
0.0
 13
150.06578390261529
 23
568.70428011053252
 33
0.0
  0
SOLID
  5
DEB
  8
0
  6
CONTINUOUS
 10
149.6415198339034
 20
569.55744987092476
 30
0.0
 11
149.85365186825931
 21
569.46958190528085
 31
0.0
 12
150.06578390261529
 22
569.55744987092476
 32
0.0
 13
150.06578390261529
 23
569.55744987092476
 33
0.0
210
0.0
220
0.0
230
1.0
  0
SOLID
  5
DEC
  8
0
  6
CONTINUOUS
 10
150.15365186825929
 20
569.7695819052808
 30
0.0
 11
149.6415198339034
 21
569.55744987092476
 31
0.0
 12
150.06578390261529
 22
569.55744987092476
 32
0.0
 13
150.06578390261529
 23
569.55744987092476
 33
0.0
210
0.0
220
0.0
230
1.0
  0
SOLID
  5
DED
  8
0
  6
CONTINUOUS
 10
149.55365186825929
 20
569.7695819052808
 30
0.0
 11
149.6415198339034
 21
569.55744987092476
 31
0.0
 12
150.15365186825929
 22
569.7695819052808
 32
0.0
 13
150.15365186825929
 23
569.7695819052808
 33
0.0
210
0.0
220
0.0
230
1.0
  0
SOLID
  5
DEE
  8
0
  6
CONTINUOUS
 10
150.06578390261529
 20
569.98171393963673
 30
0.0
 11
149.55365186825929
 21
569.7695819052808
 31
0.0
 12
150.15365186825929
 22
569.7695819052808
 32
0.0
 13
150.15365186825929
 23
569.7695819052808
 33
0.0
210
0.0
220
0.0
230
1.0
  0
SOLID
  5
DEF
  8
0
  6
CONTINUOUS
 10
149.6415198339034
 20
569.98171393963673
 30
0.0
 11
149.55365186825929
 21
569.7695819052808
 31
0.0
 12
150.06578390261529
 22
569.98171393963673
 32
0.0
 13
150.06578390261529
 23
569.98171393963673
 33
0.0
210
0.0
220
0.0
230
1.0
  0
SOLID
  5
DF0
  8
0
  6
CONTINUOUS
 10
149.85365186825931
 20
570.06958190528076
 30
0.0
 11
149.6415198339034
 21
569.98171393963673
 31
0.0
 12
150.06578390261529
 22
569.98171393963673
 32
0.0
 13
150.06578390261529
 23
569.98171393963673
 33
0.0
  0
SOLID
  5
DF1
  8
0
  6
CONTINUOUS
 10
149.6415198339034
 20
571.38480249042254
 30
0.0
 11
149.85365186825931
 21
571.29693452477864
 31
0.0
 12
150.06578390261529
 22
571.38480249042254
 32
0.0
 13
150.06578390261529
 23
571.38480249042254
 33
0.0
210
0.0
220
0.0
230
1.0
  0
SOLID
  5
DF2
  8
0
  6
CONTINUOUS
 10
150.15365186825929
 20
571.59693452477859
 30
0.0
 11
149.6415198339034
 21
571.38480249042254
 31
0.0
 12
150.06578390261529
 22
571.38480249042254
 32
0.0
 13
150.06578390261529
 23
571.38480249042254
 33
0.0
210
0.0
220
0.0
230
1.0
  0
SOLID
  5
DF3
  8
0
  6
CONTINUOUS
 10
149.55365186825929
 20
571.59693452477859
 30
0.0
 11
149.6415198339034
 21
571.38480249042254
 31
0.0
 12
150.15365186825929
 22
571.59693452477859
 32
0.0
 13
150.15365186825929
 23
571.59693452477859
 33
0.0
210
0.0
220
0.0
230
1.0
  0
SOLID
  5
DF4
  8
0
  6
CONTINUOUS
 10
150.06578390261529
 20
571.80906655913452
 30
0.0
 11
149.55365186825929
 21
571.59693452477859
 31
0.0
 12
150.15365186825929
 22
571.59693452477859
 32
0.0
 13
150.15365186825929
 23
571.59693452477859
 33
0.0
  0
SOLID
  5
DF5
  8
0
  6
CONTINUOUS
 10
149.6415198339034
 20
571.80906655913452
 30
0.0
 11
149.55365186825929
 21
571.59693452477859
 31
0.0
 12
150.06578390261529
 22
571.80906655913452
 32
0.0
 13
150.06578390261529
 23
571.80906655913452
 33
0.0
210
0.0
220
0.0
230
1.0
  0
SOLID
  5
DF6
  8
0
  6
CONTINUOUS
 10
149.85365186825931
 20
571.89693452477854
 30
0.0
 11
149.6415198339034
 21
571.80906655913452
 31
0.0
 12
150.06578390261529
 22
571.80906655913452
 32
0.0
 13
150.06578390261529
 23
571.80906655913452
 33
0.0
  0
SOLID
  5
DF7
  8
0
  6
CONTINUOUS
 10
149.6415198339034
 20
573.08001604182061
 30
0.0
 11
149.85365186825931
 21
572.99214807617659
 31
0.0
 12
150.06578390261529
 22
573.08001604182061
 32
0.0
 13
150.06578390261529
 23
573.08001604182061
 33
0.0
210
0.0
220
0.0
230
1.0
  0
SOLID
  5
DF8
  8
0
  6
CONTINUOUS
 10
150.15365186825929
 20
573.29214807617655
 30
0.0
 11
149.6415198339034
 21
573.08001604182061
 31
0.0
 12
150.06578390261529
 22
573.08001604182061
 32
0.0
 13
150.06578390261529
 23
573.08001604182061
 33
0.0
210
0.0
220
0.0
230
1.0
  0
SOLID
  5
DF9
  8
0
  6
CONTINUOUS
 10
149.55365186825929
 20
573.29214807617655
 30
0.0
 11
149.6415198339034
 21
573.08001604182061
 31
0.0
 12
150.15365186825929
 22
573.29214807617655
 32
0.0
 13
150.15365186825929
 23
573.29214807617655
 33
0.0
210
0.0
220
0.0
230
1.0
  0
SOLID
  5
DFA
  8
0
  6
CONTINUOUS
 10
150.06578390261529
 20
573.50428011053248
 30
0.0
 11
149.55365186825929
 21
573.29214807617655
 31
0.0
 12
150.15365186825929
 22
573.29214807617655
 32
0.0
 13
150.15365186825929
 23
573.29214807617655
 33
0.0
  0
SOLID
  5
DFB
  8
0
  6
CONTINUOUS
 10
149.6415198339034
 20
573.50428011053248
 30
0.0
 11
149.55365186825929
 21
573.29214807617655
 31
0.0
 12
150.06578390261529
 22
573.50428011053248
 32
0.0
 13
150.06578390261529
 23
573.50428011053248
 33
0.0
210
0.0
220
0.0
230
1.0
  0
SOLID
  5
DFC
  8
0
  6
CONTINUOUS
 10
149.85365186825931
 20
573.59214807617639
 30
0.0
 11
149.6415198339034
 21
573.50428011053248
 31
0.0
 12
150.06578390261529
 22
573.50428011053248
 32
0.0
 13
150.06578390261529
 23
573.50428011053248
 33
0.0
  0
SOLID
  5
DFD
  8
0
  6
CONTINUOUS
 10
149.6415198339034
 20
574.23001604182082
 30
0.0
 11
149.85365186825931
 21
574.14214807617668
 31
0.0
 12
150.06578390261529
 22
574.23001604182082
 32
0.0
 13
150.06578390261529
 23
574.23001604182082
 33
0.0
210
0.0
220
0.0
230
1.0
  0
SOLID
  5
DFE
  8
0
  6
CONTINUOUS
 10
150.15365186825929
 20
574.44214807617675
 30
0.0
 11
149.6415198339034
 21
574.23001604182082
 31
0.0
 12
150.06578390261529
 22
574.23001604182082
 32
0.0
 13
150.06578390261529
 23
574.23001604182082
 33
0.0
210
0.0
220
0.0
230
1.0
  0
SOLID
  5
DFF
  8
0
  6
CONTINUOUS
 10
149.55365186825929
 20
574.44214807617675
 30
0.0
 11
149.6415198339034
 21
574.23001604182082
 31
0.0
 12
150.15365186825929
 22
574.44214807617675
 32
0.0
 13
150.15365186825929
 23
574.44214807617675
 33
0.0
210
0.0
220
0.0
230
1.0
  0
SOLID
  5
E00
  8
0
  6
CONTINUOUS
 10
150.06578390261529
 20
574.65428011053257
 30
0.0
 11
149.55365186825929
 21
574.44214807617675
 31
0.0
 12
150.15365186825929
 22
574.44214807617675
 32
0.0
 13
150.15365186825929
 23
574.44214807617675
 33
0.0
210
0.0
220
0.0
230
1.0
  0
SOLID
  5
E01
  8
0
  6
CONTINUOUS
 10
149.6415198339034
 20
574.65428011053257
 30
0.0
 11
149.55365186825929
 21
574.44214807617675
 31
0.0
 12
150.06578390261529
 22
574.65428011053257
 32
0.0
 13
150.06578390261529
 23
574.65428011053257
 33
0.0
210
0.0
220
0.0
230
1.0
  0
SOLID
  5
E02
  8
0
  6
CONTINUOUS
 10
149.85365186825931
 20
574.74214807617682
 30
0.0
 11
149.6415198339034
 21
574.65428011053257
 31
0.0
 12
150.06578390261529
 22
574.65428011053257
 32
0.0
 13
150.06578390261529
 23
574.65428011053257
 33
0.0
  0
ENDBLK
  5
E04
  8
0
  0
BLOCK
  8
0
  2
*U11
 70
     1
 10
0.0
 20
0.0
 30
0.0
  3
*U11
  1

  0
SOLID
  5
E06
  8
0
  6
CONTINUOUS
 10
310.5827468352432
 20
568.24165824866054
 30
0.0
 11
310.79487886959919
 21
568.15379028301641
 31
0.0
 12
311.00701090395518
 22
568.24165824866054
 32
0.0
 13
311.00701090395518
 23
568.24165824866054
 33
0.0
210
0.0
220
0.0
230
1.0
  0
SOLID
  5
E07
  8
0
  6
CONTINUOUS
 10
311.0948788695992
 20
568.45379028301647
 30
0.0
 11
310.5827468352432
 21
568.24165824866054
 31
0.0
 12
311.00701090395518
 22
568.24165824866054
 32
0.0
 13
311.00701090395518
 23
568.24165824866054
 33
0.0
210
0.0
220
0.0
230
1.0
  0
SOLID
  5
E08
  8
0
  6
CONTINUOUS
 10
310.49487886959918
 20
568.45379028301647
 30
0.0
 11
310.5827468352432
 21
568.24165824866054
 31
0.0
 12
311.0948788695992
 22
568.45379028301647
 32
0.0
 13
311.0948788695992
 23
568.45379028301647
 33
0.0
210
0.0
220
0.0
230
1.0
  0
SOLID
  5
E09
  8
0
  6
CONTINUOUS
 10
311.00701090395518
 20
568.66592231737241
 30
0.0
 11
310.49487886959918
 21
568.45379028301647
 31
0.0
 12
311.0948788695992
 22
568.45379028301647
 32
0.0
 13
311.0948788695992
 23
568.45379028301647
 33
0.0
210
0.0
220
0.0
230
1.0
  0
SOLID
  5
E0A
  8
0
  6
CONTINUOUS
 10
310.5827468352432
 20
568.66592231737241
 30
0.0
 11
310.49487886959918
 21
568.45379028301647
 31
0.0
 12
311.00701090395518
 22
568.66592231737241
 32
0.0
 13
311.00701090395518
 23
568.66592231737241
 33
0.0
210
0.0
220
0.0
230
1.0
  0
SOLID
  5
E0B
  8
0
  6
CONTINUOUS
 10
310.79487886959919
 20
568.75379028301654
 30
0.0
 11
310.5827468352432
 21
568.66592231737241
 31
0.0
 12
311.00701090395518
 22
568.66592231737241
 32
0.0
 13
311.00701090395518
 23
568.66592231737241
 33
0.0
210
0.0
220
0.0
230
1.0
  0
SOLID
  5
E0C
  8
0
  6
CONTINUOUS
 10
310.5827468352432
 20
569.51882438788834
 30
0.0
 11
310.79487886959919
 21
569.43095642224421
 31
0.0
 12
311.00701090395518
 22
569.51882438788834
 32
0.0
 13
311.00701090395518
 23
569.51882438788834
 33
0.0
210
0.0
220
0.0
230
1.0
  0
SOLID
  5
E0D
  8
0
  6
CONTINUOUS
 10
311.0948788695992
 20
569.73095642224416
 30
0.0
 11
310.5827468352432
 21
569.51882438788834
 31
0.0
 12
311.00701090395518
 22
569.51882438788834
 32
0.0
 13
311.00701090395518
 23
569.51882438788834
 33
0.0
210
0.0
220
0.0
230
1.0
  0
SOLID
  5
E0E
  8
0
  6
CONTINUOUS
 10
310.49487886959918
 20
569.73095642224416
 30
0.0
 11
310.5827468352432
 21
569.51882438788834
 31
0.0
 12
311.0948788695992
 22
569.73095642224416
 32
0.0
 13
311.0948788695992
 23
569.73095642224416
 33
0.0
210
0.0
220
0.0
230
1.0
  0
SOLID
  5
E0F
  8
0
  6
CONTINUOUS
 10
311.00701090395518
 20
569.94308845660021
 30
0.0
 11
310.49487886959918
 21
569.73095642224416
 31
0.0
 12
311.0948788695992
 22
569.73095642224416
 32
0.0
 13
311.0948788695992
 23
569.73095642224416
 33
0.0
210
0.0
220
0.0
230
1.0
  0
SOLID
  5
E10
  8
0
  6
CONTINUOUS
 10
310.5827468352432
 20
569.94308845660021
 30
0.0
 11
310.49487886959918
 21
569.73095642224416
 31
0.0
 12
311.00701090395518
 22
569.94308845660021
 32
0.0
 13
311.00701090395518
 23
569.94308845660021
 33
0.0
210
0.0
220
0.0
230
1.0
  0
SOLID
  5
E11
  8
0
  6
CONTINUOUS
 10
310.79487886959919
 20
570.03095642224434
 30
0.0
 11
310.5827468352432
 21
569.94308845660021
 31
0.0
 12
311.00701090395518
 22
569.94308845660021
 32
0.0
 13
311.00701090395518
 23
569.94308845660021
 33
0.0
210
0.0
220
0.0
230
1.0
  0
SOLID
  5
E12
  8
0
  6
CONTINUOUS
 10
310.5827468352432
 20
571.31788835764712
 30
0.0
 11
310.79487886959919
 21
571.2300203920031
 31
0.0
 12
311.00701090395518
 22
571.31788835764712
 32
0.0
 13
311.00701090395518
 23
571.31788835764712
 33
0.0
210
0.0
220
0.0
230
1.0
  0
SOLID
  5
E13
  8
0
  6
CONTINUOUS
 10
311.0948788695992
 20
571.53002039200305
 30
0.0
 11
310.5827468352432
 21
571.31788835764712
 31
0.0
 12
311.00701090395518
 22
571.31788835764712
 32
0.0
 13
311.00701090395518
 23
571.31788835764712
 33
0.0
210
0.0
220
0.0
230
1.0
  0
SOLID
  5
E14
  8
0
  6
CONTINUOUS
 10
310.49487886959918
 20
571.53002039200305
 30
0.0
 11
310.5827468352432
 21
571.31788835764712
 31
0.0
 12
311.0948788695992
 22
571.53002039200305
 32
0.0
 13
311.0948788695992
 23
571.53002039200305
 33
0.0
210
0.0
220
0.0
230
1.0
  0
SOLID
  5
E15
  8
0
  6
CONTINUOUS
 10
311.00701090395518
 20
571.74215242635887
 30
0.0
 11
310.49487886959918
 21
571.53002039200305
 31
0.0
 12
311.0948788695992
 22
571.53002039200305
 32
0.0
 13
311.0948788695992
 23
571.53002039200305
 33
0.0
210
0.0
220
0.0
230
1.0
  0
SOLID
  5
E16
  8
0
  6
CONTINUOUS
 10
310.5827468352432
 20
571.74215242635887
 30
0.0
 11
310.49487886959918
 21
571.53002039200305
 31
0.0
 12
311.00701090395518
 22
571.74215242635887
 32
0.0
 13
311.00701090395518
 23
571.74215242635887
 33
0.0
210
0.0
220
0.0
230
1.0
  0
SOLID
  5
E17
  8
0
  6
CONTINUOUS
 10
310.79487886959919
 20
571.83002039200301
 30
0.0
 11
310.5827468352432
 21
571.74215242635887
 31
0.0
 12
311.00701090395518
 22
571.74215242635887
 32
0.0
 13
311.00701090395518
 23
571.74215242635887
 33
0.0
210
0.0
220
0.0
230
1.0
  0
SOLID
  5
E18
  8
0
  6
CONTINUOUS
 10
310.5827468352432
 20
573.08327121647369
 30
0.0
 11
310.79487886959919
 21
572.99540325082955
 31
0.0
 12
311.00701090395518
 22
573.08327121647369
 32
0.0
 13
311.00701090395518
 23
573.08327121647369
 33
0.0
210
0.0
220
0.0
230
1.0
  0
SOLID
  5
E19
  8
0
  6
CONTINUOUS
 10
311.0948788695992
 20
573.29540325082951
 30
0.0
 11
310.5827468352432
 21
573.08327121647369
 31
0.0
 12
311.00701090395518
 22
573.08327121647369
 32
0.0
 13
311.00701090395518
 23
573.08327121647369
 33
0.0
210
0.0
220
0.0
230
1.0
  0
SOLID
  5
E1A
  8
0
  6
CONTINUOUS
 10
310.49487886959918
 20
573.29540325082951
 30
0.0
 11
310.5827468352432
 21
573.08327121647369
 31
0.0
 12
311.0948788695992
 22
573.29540325082951
 32
0.0
 13
311.0948788695992
 23
573.29540325082951
 33
0.0
210
0.0
220
0.0
230
1.0
  0
SOLID
  5
E1B
  8
0
  6
CONTINUOUS
 10
311.00701090395518
 20
573.50753528518555
 30
0.0
 11
310.49487886959918
 21
573.29540325082951
 31
0.0
 12
311.0948788695992
 22
573.29540325082951
 32
0.0
 13
311.0948788695992
 23
573.29540325082951
 33
0.0
210
0.0
220
0.0
230
1.0
  0
SOLID
  5
E1C
  8
0
  6
CONTINUOUS
 10
310.5827468352432
 20
573.50753528518555
 30
0.0
 11
310.49487886959918
 21
573.29540325082951
 31
0.0
 12
311.00701090395518
 22
573.50753528518555
 32
0.0
 13
311.00701090395518
 23
573.50753528518555
 33
0.0
210
0.0
220
0.0
230
1.0
  0
SOLID
  5
E1D
  8
0
  6
CONTINUOUS
 10
310.79487886959919
 20
573.59540325082958
 30
0.0
 11
310.5827468352432
 21
573.50753528518555
 31
0.0
 12
311.00701090395518
 22
573.50753528518555
 32
0.0
 13
311.00701090395518
 23
573.50753528518555
 33
0.0
210
0.0
220
0.0
230
1.0
  0
SOLID
  5
E1E
  8
0
  6
CONTINUOUS
 10
310.5827468352432
 20
574.23001604182082
 30
0.0
 11
310.79487886959919
 21
574.14214807617668
 31
0.0
 12
311.00701090395518
 22
574.23001604182082
 32
0.0
 13
311.00701090395518
 23
574.23001604182082
 33
0.0
210
0.0
220
0.0
230
1.0
  0
SOLID
  5
E1F
  8
0
  6
CONTINUOUS
 10
311.0948788695992
 20
574.44214807617675
 30
0.0
 11
310.5827468352432
 21
574.23001604182082
 31
0.0
 12
311.00701090395518
 22
574.23001604182082
 32
0.0
 13
311.00701090395518
 23
574.23001604182082
 33
0.0
210
0.0
220
0.0
230
1.0
  0
SOLID
  5
E20
  8
0
  6
CONTINUOUS
 10
310.49487886959918
 20
574.44214807617675
 30
0.0
 11
310.5827468352432
 21
574.23001604182082
 31
0.0
 12
311.0948788695992
 22
574.44214807617675
 32
0.0
 13
311.0948788695992
 23
574.44214807617675
 33
0.0
210
0.0
220
0.0
230
1.0
  0
SOLID
  5
E21
  8
0
  6
CONTINUOUS
 10
311.00701090395518
 20
574.65428011053257
 30
0.0
 11
310.49487886959918
 21
574.44214807617675
 31
0.0
 12
311.0948788695992
 22
574.44214807617675
 32
0.0
 13
311.0948788695992
 23
574.44214807617675
 33
0.0
210
0.0
220
0.0
230
1.0
  0
SOLID
  5
E22
  8
0
  6
CONTINUOUS
 10
310.5827468352432
 20
574.65428011053257
 30
0.0
 11
310.49487886959918
 21
574.44214807617675
 31
0.0
 12
311.00701090395518
 22
574.65428011053257
 32
0.0
 13
311.00701090395518
 23
574.65428011053257
 33
0.0
210
0.0
220
0.0
230
1.0
  0
SOLID
  5
E23
  8
0
  6
CONTINUOUS
 10
310.79487886959919
 20
574.74214807617682
 30
0.0
 11
310.5827468352432
 21
574.65428011053257
 31
0.0
 12
311.00701090395518
 22
574.65428011053257
 32
0.0
 13
311.00701090395518
 23
574.65428011053257
 33
0.0
210
0.0
220
0.0
230
1.0
  0
ENDBLK
  5
E25
  8
0
  0
BLOCK
  8
0
  2
*X12
 70
     1
 10
0.0
 20
0.0
 30
0.0
  3
*X12
  1

  0
LINE
  5
E27
  8
0
 62
     0
 10
308.99487886959912
 20
541.65457889781749
 30
0.0
 11
309.15730969123979
 21
541.49214807617682
 31
0.0
  0
LINE
  5
E28
  8
0
 62
     0
 10
309.99487886959918
 20
541.71523906959726
 30
0.0
 11
310.21796986301962
 21
541.49214807617682
 31
0.0
  0
LINE
  5
E29
  8
0
 62
     0
 10
308.99487886959912
 20
542.71523906959726
 30
0.0
 11
309.99487886959912
 21
541.71523906959726
 31
0.0
  0
LINE
  5
E2A
  8
0
 62
     0
 10
309.99487886959912
 20
542.77589924137715
 30
0.0
 11
310.49487886959912
 21
542.27589924137715
 31
0.0
  0
LINE
  5
E2B
  8
0
 62
     0
 10
308.99487886959912
 20
543.77589924137715
 30
0.0
 11
309.99487886959901
 21
542.77589924137715
 31
0.0
  0
LINE
  5
E2C
  8
0
 62
     0
 10
309.99487886959912
 20
543.83655941315681
 30
0.0
 11
310.49487886959912
 21
543.33655941315692
 31
0.0
  0
LINE
  5
E2D
  8
0
 62
     0
 10
308.99487886959918
 20
544.83655941315692
 30
0.0
 11
309.99487886959912
 21
543.83655941315703
 31
0.0
  0
LINE
  5
E2E
  8
0
 62
     0
 10
309.99487886959912
 20
544.89721958493669
 30
0.0
 11
310.49487886959912
 21
544.39721958493669
 31
0.0
  0
LINE
  5
E2F
  8
0
 62
     0
 10
308.99487886959912
 20
545.89721958493669
 30
0.0
 11
309.99487886959912
 21
544.89721958493669
 31
0.0
  0
LINE
  5
E30
  8
0
 62
     0
 10
309.99487886959918
 20
545.95787975671647
 30
0.0
 11
310.49487886959918
 21
545.45787975671647
 31
0.0
  0
LINE
  5
E31
  8
0
 62
     0
 10
308.99487886959918
 20
546.95787975671647
 30
0.0
 11
309.99487886959912
 21
545.95787975671647
 31
0.0
  0
LINE
  5
E32
  8
0
 62
     0
 10
309.99487886959912
 20
547.01853992849635
 30
0.0
 11
310.49487886959912
 21
546.51853992849647
 31
0.0
  0
LINE
  5
E33
  8
0
 62
     0
 10
308.99487886959918
 20
548.01853992849635
 30
0.0
 11
309.99487886959912
 21
547.01853992849635
 31
0.0
  0
LINE
  5
E34
  8
0
 62
     0
 10
309.99487886959912
 20
548.07920010027624
 30
0.0
 11
310.49487886959912
 21
547.57920010027624
 31
0.0
  0
LINE
  5
E35
  8
0
 62
     0
 10
308.99487886959912
 20
549.07920010027624
 30
0.0
 11
309.99487886959912
 21
548.07920010027624
 31
0.0
  0
LINE
  5
E36
  8
0
 62
     0
 10
309.99487886959912
 20
549.13986027205613
 30
0.0
 11
310.49487886959918
 21
548.63986027205601
 31
0.0
  0
LINE
  5
E37
  8
0
 62
     0
 10
308.99487886959918
 20
550.13986027205601
 30
0.0
 11
309.99487886959912
 21
549.13986027205613
 31
0.0
  0
LINE
  5
E38
  8
0
 62
     0
 10
309.99487886959912
 20
550.2005204438359
 30
0.0
 11
310.49487886959912
 21
549.7005204438359
 31
0.0
  0
LINE
  5
E39
  8
0
 62
     0
 10
308.99487886959918
 20
551.20052044383579
 30
0.0
 11
309.99487886959901
 21
550.2005204438359
 31
0.0
  0
LINE
  5
E3A
  8
0
 62
     0
 10
309.99487886959912
 20
551.26118061561567
 30
0.0
 11
310.49487886959918
 21
550.76118061561556
 31
0.0
  0
LINE
  5
E3B
  8
0
 62
     0
 10
308.99487886959918
 20
552.26118061561556
 30
0.0
 11
309.99487886959912
 21
551.26118061561567
 31
0.0
  0
LINE
  5
E3C
  8
0
 62
     0
 10
309.99487886959912
 20
552.32184078739544
 30
0.0
 11
310.49487886959912
 21
551.82184078739556
 31
0.0
  0
LINE
  5
E3D
  8
0
 62
     0
 10
308.99487886959918
 20
553.32184078739544
 30
0.0
 11
309.99487886959912
 21
552.32184078739544
 31
0.0
  0
LINE
  5
E3E
  8
0
 62
     0
 10
309.99487886959912
 20
553.38250095917533
 30
0.0
 11
310.49487886959918
 21
552.88250095917533
 31
0.0
  0
LINE
  5
E3F
  8
0
 62
     0
 10
308.99487886959918
 20
554.38250095917533
 30
0.0
 11
309.99487886959912
 21
553.38250095917533
 31
0.0
  0
LINE
  5
E40
  8
0
 62
     0
 10
309.99487886959912
 20
554.44316113095522
 30
0.0
 11
310.49487886959912
 21
553.9431611309551
 31
0.0
  0
LINE
  5
E41
  8
0
 62
     0
 10
308.99487886959918
 20
555.4431611309551
 30
0.0
 11
309.99487886959912
 21
554.44316113095522
 31
0.0
  0
LINE
  5
E42
  8
0
 62
     0
 10
309.99487886959912
 20
555.50382130273499
 30
0.0
 11
310.49487886959912
 21
555.00382130273499
 31
0.0
  0
LINE
  5
E43
  8
0
 62
     0
 10
308.99487886959918
 20
556.50382130273488
 30
0.0
 11
309.99487886959912
 21
555.50382130273499
 31
0.0
  0
LINE
  5
E44
  8
0
 62
     0
 10
310.06721226793718
 20
556.49214807617682
 30
0.0
 11
310.49487886959912
 21
556.06448147451465
 31
0.0
  0
LINE
  5
E45
  8
0
 62
     0
 10
308.99487886959918
 20
557.56448147451465
 30
0.0
 11
310.06721226793718
 21
556.49214807617682
 31
0.0
  0
LINE
  5
E46
  8
0
 62
     0
 10
308.99487886959918
 20
558.62514164629454
 30
0.0
 11
310.57951114149228
 21
557.04050937440149
 31
0.0
  0
LINE
  5
E47
  8
0
 62
     0
 10
308.99487886959929
 20
559.68580181807431
 30
0.0
 11
311.2544767053522
 21
557.42620398232145
 31
0.0
  0
LINE
  5
E48
  8
0
 62
     0
 10
308.99487886959918
 20
560.7464619898542
 30
0.0
 11
311.92944226921202
 21
557.8118985902413
 31
0.0
  0
LINE
  5
E49
  8
0
 62
     0
 10
309.30985295505639
 20
561.49214807617682
 30
0.0
 11
312.60440783307189
 21
558.19759319816114
 31
0.0
  0
LINE
  5
E4A
  8
0
 62
     0
 10
309.99487886959918
 20
561.86778233341386
 30
0.0
 11
311.99487886959918
 21
559.86778233341386
 31
0.0
  0
LINE
  5
E4B
  8
0
 62
     0
 10
309.99487886959912
 20
562.92844250519374
 30
0.0
 11
311.99487886959918
 21
560.92844250519363
 31
0.0
  0
LINE
  5
E4C
  8
0
 62
     0
 10
309.99487886959912
 20
563.98910267697352
 30
0.0
 11
311.99487886959918
 21
561.9891026769734
 31
0.0
  0
LINE
  5
E4D
  8
0
 62
     0
 10
309.99487886959912
 20
565.0497628487534
 30
0.0
 11
311.99487886959918
 21
563.0497628487534
 31
0.0
  0
LINE
  5
E4E
  8
0
 62
     0
 10
310.61315381395559
 20
565.4921480761767
 30
0.0
 11
311.99487886959918
 21
564.11042302053295
 31
0.0
  0
LINE
  5
E4F
  8
0
 62
     0
 10
311.67381398573531
 20
565.49214807617682
 30
0.0
 11
311.99487886959918
 21
565.17108319231295
 31
0.0
  0
ENDBLK
  5
E51
  8
0
  0
BLOCK
  8
0
  2
*X13
 70
     1
 10
0.0
 20
0.0
 30
0.0
  3
*X13
  1

  0
LINE
  5
E53
  8
0
 62
     0
 10
309.99487886959918
 20
565.0497628487534
 30
0.0
 11
309.5524936421757
 21
565.49214807617682
 31
0.0
  0
LINE
  5
E54
  8
0
 62
     0
 10
309.99487886959918
 20
563.28199589578696
 30
0.0
 11
307.78472668920932
 21
565.49214807617682
 31
0.0
  0
LINE
  5
E55
  8
0
 62
     0
 10
309.99487886959918
 20
561.51422894282064
 30
0.0
 11
307.09487886959931
 21
564.4142289428205
 31
0.0
  0
LINE
  5
E56
  8
0
 62
     0
 10
308.99487886959912
 20
560.7464619898542
 30
0.0
 11
307.0948788695992
 21
562.64646198985406
 31
0.0
  0
LINE
  5
E57
  8
0
 62
     0
 10
308.99487886959918
 20
558.97869503688764
 30
0.0
 11
306.49487886959918
 21
561.47869503688787
 31
0.0
  0
LINE
  5
E58
  8
0
 62
     0
 10
308.99487886959918
 20
557.21092808392154
 30
0.0
 11
306.49487886959929
 21
559.71092808392143
 31
0.0
  0
LINE
  5
E59
  8
0
 62
     0
 10
308.99487886959912
 20
555.4431611309551
 30
0.0
 11
306.49487886959912
 21
557.9431611309551
 31
0.0
  0
LINE
  5
E5A
  8
0
 62
     0
 10
308.99487886959918
 20
553.67539417798866
 30
0.0
 11
306.49487886959918
 21
556.17539417798855
 31
0.0
  0
LINE
  5
E5B
  8
0
 62
     0
 10
308.99487886959918
 20
551.90762722502245
 30
0.0
 11
306.49487886959929
 21
554.40762722502234
 31
0.0
  0
LINE
  5
E5C
  8
0
 62
     0
 10
308.99487886959918
 20
550.13986027205601
 30
0.0
 11
306.49487886959918
 21
552.63986027205601
 31
0.0
  0
LINE
  5
E5D
  8
0
 62
     0
 10
308.99487886959918
 20
548.37209331908957
 30
0.0
 11
305.34487886959931
 21
552.02209331908955
 31
0.0
  0
LINE
  5
E5E
  8
0
 62
     0
 10
306.00705715954558
 20
549.59214807617684
 30
0.0
 11
305.3448788695992
 21
550.25432636612322
 31
0.0
  0
LINE
  5
E5F
  8
0
 62
     0
 10
308.99487886959918
 20
546.60432636612325
 30
0.0
 11
306.49487886959918
 21
549.10432636612325
 31
0.0
  0
LINE
  5
E60
  8
0
 62
     0
 10
308.99487886959918
 20
544.83655941315692
 30
0.0
 11
306.74487886959912
 21
547.08655941315692
 31
0.0
  0
LINE
  5
E61
  8
0
 62
     0
 10
308.99487886959918
 20
543.06879246019048
 30
0.0
 11
306.74487886959918
 21
545.31879246019048
 31
0.0
  0
LINE
  5
E62
  8
0
 62
     0
 10
308.80375630064651
 20
541.49214807617682
 30
0.0
 11
306.74487886959918
 21
543.55102550722415
 31
0.0
  0
LINE
  5
E63
  8
0
 62
     0
 10
307.03598934768007
 20
541.49214807617682
 30
0.0
 11
306.74487886959918
 21
541.78325855425783
 31
0.0
  0
LINE
  5
E64
  8
0
 62
     0
 10
308.14691028461618
 20
541.49214807617682
 30
0.0
 11
308.99487886959929
 21
542.34011666115975
 31
0.0
  0
LINE
  5
E65
  8
0
 62
     0
 10
306.74487886959918
 20
541.85788361412619
 30
0.0
 11
308.99487886959918
 21
544.10788361412619
 31
0.0
  0
LINE
  5
E66
  8
0
 62
     0
 10
306.74487886959929
 20
543.62565056709263
 30
0.0
 11
308.99487886959918
 21
545.87565056709263
 31
0.0
  0
LINE
  5
E67
  8
0
 62
     0
 10
306.74487886959929
 20
545.39341752005885
 30
0.0
 11
308.99487886959929
 21
547.64341752005885
 31
0.0
  0
LINE
  5
E68
  8
0
 62
     0
 10
306.74487886959918
 20
547.16118447302529
 30
0.0
 11
308.99487886959918
 21
549.41118447302529
 31
0.0
  0
LINE
  5
E69
  8
0
 62
     0
 10
306.49487886959918
 20
548.67895142599173
 30
0.0
 11
308.99487886959929
 21
551.17895142599184
 31
0.0
  0
LINE
  5
E6A
  8
0
 62
     0
 10
305.64030856681802
 20
549.59214807617684
 30
0.0
 11
308.99487886959918
 21
552.94671837895805
 31
0.0
  0
LINE
  5
E6B
  8
0
 62
     0
 10
305.3448788695992
 20
551.06448533192452
 30
0.0
 11
308.99487886959918
 21
554.71448533192438
 31
0.0
  0
LINE
  5
E6C
  8
0
 62
     0
 10
306.49487886959918
 20
553.98225228489082
 30
0.0
 11
308.99487886959929
 21
556.48225228489082
 31
0.0
  0
LINE
  5
E6D
  8
0
 62
     0
 10
306.49487886959929
 20
555.75001923785715
 30
0.0
 11
308.99487886959918
 21
558.25001923785726
 31
0.0
  0
LINE
  5
E6E
  8
0
 62
     0
 10
306.49487886959929
 20
557.51778619082359
 30
0.0
 11
308.99487886959929
 21
560.01778619082359
 31
0.0
  0
LINE
  5
E6F
  8
0
 62
     0
 10
306.49487886959929
 20
559.28555314379003
 30
0.0
 11
309.99487886959918
 21
562.78555314378991
 31
0.0
  0
LINE
  5
E70
  8
0
 62
     0
 10
306.49487886959929
 20
561.05332009675635
 30
0.0
 11
309.99487886959918
 21
564.55332009675635
 31
0.0
  0
LINE
  5
E71
  8
0
 62
     0
 10
307.0948788695992
 20
563.42108704972247
 30
0.0
 11
309.16593989605337
 21
565.49214807617682
 31
0.0
  0
LINE
  5
E72
  8
0
 62
     0
 10
307.09487886959931
 20
565.18885400268914
 30
0.0
 11
307.39817294308699
 21
565.49214807617682
 31
0.0
  0
ENDBLK
  5
E74
  8
0
  0
BLOCK
  8
0
  2
*U14
 70
     1
 10
0.0
 20
0.0
 30
0.0
  3
*U14
  1

  0
SOLID
  5
E76
  8
0
  6
CONTINUOUS
 10
488.5695375949
 20
573.30930536370226
 30
0.0
 11
488.85238030737457
 21
573.19214807617675
 31
0.0
 12
489.13522301984909
 22
573.30930536370226
 32
0.0
 13
489.13522301984909
 23
573.30930536370226
 33
0.0
210
0.0
220
0.0
230
1.0
  0
SOLID
  5
E77
  8
0
  6
CONTINUOUS
 10
489.25238030737449
 20
573.59214807617684
 30
0.0
 11
488.5695375949
 21
573.30930536370226
 31
0.0
 12
489.13522301984909
 22
573.30930536370226
 32
0.0
 13
489.13522301984909
 23
573.30930536370226
 33
0.0
210
0.0
220
0.0
230
1.0
  0
SOLID
  5
E78
  8
0
  6
CONTINUOUS
 10
488.4523803073746
 20
573.59214807617684
 30
0.0
 11
488.5695375949
 21
573.30930536370226
 31
0.0
 12
489.25238030737449
 22
573.59214807617684
 32
0.0
 13
489.25238030737449
 23
573.59214807617684
 33
0.0
210
0.0
220
0.0
230
1.0
  0
SOLID
  5
E79
  8
0
  6
CONTINUOUS
 10
489.13522301984909
 20
573.8749907886513
 30
0.0
 11
488.4523803073746
 21
573.59214807617684
 31
0.0
 12
489.25238030737449
 22
573.59214807617684
 32
0.0
 13
489.25238030737449
 23
573.59214807617684
 33
0.0
210
0.0
220
0.0
230
1.0
  0
SOLID
  5
E7A
  8
0
  6
CONTINUOUS
 10
488.5695375949
 20
573.8749907886513
 30
0.0
 11
488.4523803073746
 21
573.59214807617684
 31
0.0
 12
489.13522301984909
 22
573.8749907886513
 32
0.0
 13
489.13522301984909
 23
573.8749907886513
 33
0.0
210
0.0
220
0.0
230
1.0
  0
SOLID
  5
E7B
  8
0
  6
CONTINUOUS
 10
488.85238030737457
 20
573.99214807617682
 30
0.0
 11
488.5695375949
 21
573.8749907886513
 31
0.0
 12
489.13522301984909
 22
573.8749907886513
 32
0.0
 13
489.13522301984909
 23
573.8749907886513
 33
0.0
210
0.0
220
0.0
230
1.0
  0
SOLID
  5
E7C
  8
0
  6
CONTINUOUS
 10
488.5695375949
 20
575.23227839098445
 30
0.0
 11
488.85238030737457
 21
575.11512110345905
 31
0.0
 12
489.13522301984909
 22
575.23227839098445
 32
0.0
 13
489.13522301984909
 23
575.23227839098445
 33
0.0
210
0.0
220
0.0
230
1.0
  0
SOLID
  5
E7D
  8
0
  6
CONTINUOUS
 10
489.25238030737449
 20
575.51512110345902
 30
0.0
 11
488.5695375949
 21
575.23227839098445
 31
0.0
 12
489.13522301984909
 22
575.23227839098445
 32
0.0
 13
489.13522301984909
 23
575.23227839098445
 33
0.0
210
0.0
220
0.0
230
1.0
  0
SOLID
  5
E7E
  8
0
  6
CONTINUOUS
 10
488.4523803073746
 20
575.51512110345902
 30
0.0
 11
488.5695375949
 21
575.23227839098445
 31
0.0
 12
489.25238030737449
 22
575.51512110345902
 32
0.0
 13
489.25238030737449
 23
575.51512110345902
 33
0.0
210
0.0
220
0.0
230
1.0
  0
SOLID
  5
E7F
  8
0
  6
CONTINUOUS
 10
489.13522301984909
 20
575.79796381593349
 30
0.0
 11
488.4523803073746
 21
575.51512110345902
 31
0.0
 12
489.25238030737449
 22
575.51512110345902
 32
0.0
 13
489.25238030737449
 23
575.51512110345902
 33
0.0
210
0.0
220
0.0
230
1.0
  0
SOLID
  5
E80
  8
0
  6
CONTINUOUS
 10
488.5695375949
 20
575.79796381593349
 30
0.0
 11
488.4523803073746
 21
575.51512110345902
 31
0.0
 12
489.13522301984909
 22
575.79796381593349
 32
0.0
 13
489.13522301984909
 23
575.79796381593349
 33
0.0
210
0.0
220
0.0
230
1.0
  0
SOLID
  5
E81
  8
0
  6
CONTINUOUS
 10
488.85238030737457
 20
575.91512110345889
 30
0.0
 11
488.5695375949
 21
575.79796381593349
 31
0.0
 12
489.13522301984909
 22
575.79796381593349
 32
0.0
 13
489.13522301984909
 23
575.79796381593349
 33
0.0
210
0.0
220
0.0
230
1.0
  0
SOLID
  5
E82
  8
0
  6
CONTINUOUS
 10
488.5695375949
 20
577.75511281982244
 30
0.0
 11
488.85238030737457
 21
577.63795553229704
 31
0.0
 12
489.13522301984909
 22
577.75511281982244
 32
0.0
 13
489.13522301984909
 23
577.75511281982244
 33
0.0
210
0.0
220
0.0
230
1.0
  0
SOLID
  5
E83
  8
0
  6
CONTINUOUS
 10
489.25238030737449
 20
578.03795553229702
 30
0.0
 11
488.5695375949
 21
577.75511281982244
 31
0.0
 12
489.13522301984909
 22
577.75511281982244
 32
0.0
 13
489.13522301984909
 23
577.75511281982244
 33
0.0
210
0.0
220
0.0
230
1.0
  0
SOLID
  5
E84
  8
0
  6
CONTINUOUS
 10
488.4523803073746
 20
578.03795553229702
 30
0.0
 11
488.5695375949
 21
577.75511281982244
 31
0.0
 12
489.25238030737449
 22
578.03795553229702
 32
0.0
 13
489.25238030737449
 23
578.03795553229702
 33
0.0
210
0.0
220
0.0
230
1.0
  0
SOLID
  5
E85
  8
0
  6
CONTINUOUS
 10
489.13522301984909
 20
578.32079824477159
 30
0.0
 11
488.4523803073746
 21
578.03795553229702
 31
0.0
 12
489.25238030737449
 22
578.03795553229702
 32
0.0
 13
489.25238030737449
 23
578.03795553229702
 33
0.0
210
0.0
220
0.0
230
1.0
  0
SOLID
  5
E86
  8
0
  6
CONTINUOUS
 10
488.5695375949
 20
578.32079824477159
 30
0.0
 11
488.4523803073746
 21
578.03795553229702
 31
0.0
 12
489.13522301984909
 22
578.32079824477159
 32
0.0
 13
489.13522301984909
 23
578.32079824477159
 33
0.0
210
0.0
220
0.0
230
1.0
  0
SOLID
  5
E87
  8
0
  6
CONTINUOUS
 10
488.85238030737457
 20
578.437955532297
 30
0.0
 11
488.5695375949
 21
578.32079824477159
 31
0.0
 12
489.13522301984909
 22
578.32079824477159
 32
0.0
 13
489.13522301984909
 23
578.32079824477159
 33
0.0
210
0.0
220
0.0
230
1.0
  0
SOLID
  5
E88
  8
0
  6
CONTINUOUS
 10
488.5695375949
 20
580.27088302333732
 30
0.0
 11
488.85238030737457
 21
580.15372573581192
 31
0.0
 12
489.13522301984909
 22
580.27088302333732
 32
0.0
 13
489.13522301984909
 23
580.27088302333732
 33
0.0
210
0.0
220
0.0
230
1.0
  0
SOLID
  5
E89
  8
0
  6
CONTINUOUS
 10
489.25238030737449
 20
580.55372573581178
 30
0.0
 11
488.5695375949
 21
580.27088302333732
 31
0.0
 12
489.13522301984909
 22
580.27088302333732
 32
0.0
 13
489.13522301984909
 23
580.27088302333732
 33
0.0
210
0.0
220
0.0
230
1.0
  0
SOLID
  5
E8A
  8
0
  6
CONTINUOUS
 10
488.4523803073746
 20
580.55372573581178
 30
0.0
 11
488.5695375949
 21
580.27088302333732
 31
0.0
 12
489.25238030737449
 22
580.55372573581178
 32
0.0
 13
489.25238030737449
 23
580.55372573581178
 33
0.0
210
0.0
220
0.0
230
1.0
  0
SOLID
  5
E8B
  8
0
  6
CONTINUOUS
 10
489.13522301984909
 20
580.83656844828636
 30
0.0
 11
488.4523803073746
 21
580.55372573581178
 31
0.0
 12
489.25238030737449
 22
580.55372573581178
 32
0.0
 13
489.25238030737449
 23
580.55372573581178
 33
0.0
210
0.0
220
0.0
230
1.0
  0
SOLID
  5
E8C
  8
0
  6
CONTINUOUS
 10
488.5695375949
 20
580.83656844828636
 30
0.0
 11
488.4523803073746
 21
580.55372573581178
 31
0.0
 12
489.13522301984909
 22
580.83656844828636
 32
0.0
 13
489.13522301984909
 23
580.83656844828636
 33
0.0
210
0.0
220
0.0
230
1.0
  0
SOLID
  5
E8D
  8
0
  6
CONTINUOUS
 10
488.85238030737457
 20
580.95372573581176
 30
0.0
 11
488.5695375949
 21
580.83656844828636
 31
0.0
 12
489.13522301984909
 22
580.83656844828636
 32
0.0
 13
489.13522301984909
 23
580.83656844828636
 33
0.0
210
0.0
220
0.0
230
1.0
  0
SOLID
  5
E8E
  8
0
  6
CONTINUOUS
 10
488.5695375949
 20
581.70930536370224
 30
0.0
 11
488.85238030737469
 21
581.59214807617695
 31
0.0
 12
489.13522301984932
 22
581.70930536370224
 32
0.0
 13
489.13522301984932
 23
581.70930536370224
 33
0.0
210
0.0
220
0.0
230
1.0
  0
SOLID
  5
E8F
  8
0
  6
CONTINUOUS
 10
489.25238030737461
 20
581.99214807617693
 30
0.0
 11
488.5695375949
 21
581.70930536370224
 31
0.0
 12
489.13522301984932
 22
581.70930536370224
 32
0.0
 13
489.13522301984932
 23
581.70930536370224
 33
0.0
210
0.0
220
0.0
230
1.0
  0
SOLID
  5
E90
  8
0
  6
CONTINUOUS
 10
488.4523803073746
 20
581.99214807617693
 30
0.0
 11
488.5695375949
 21
581.70930536370224
 31
0.0
 12
489.25238030737461
 22
581.99214807617693
 32
0.0
 13
489.25238030737461
 23
581.99214807617693
 33
0.0
210
0.0
220
0.0
230
1.0
  0
SOLID
  5
E91
  8
0
  6
CONTINUOUS
 10
489.13522301984921
 20
582.27499078865151
 30
0.0
 11
488.4523803073746
 21
581.99214807617693
 31
0.0
 12
489.25238030737461
 22
581.99214807617693
 32
0.0
 13
489.25238030737461
 23
581.99214807617693
 33
0.0
  0
SOLID
  5
E92
  8
0
  6
CONTINUOUS
 10
488.5695375949
 20
582.27499078865151
 30
0.0
 11
488.4523803073746
 21
581.99214807617693
 31
0.0
 12
489.13522301984921
 22
582.27499078865151
 32
0.0
 13
489.13522301984921
 23
582.27499078865151
 33
0.0
210
0.0
220
0.0
230
1.0
  0
SOLID
  5
E93
  8
0
  6
CONTINUOUS
 10
488.85238030737469
 20
582.39214807617691
 30
0.0
 11
488.5695375949
 21
582.27499078865151
 31
0.0
 12
489.13522301984921
 22
582.27499078865151
 32
0.0
 13
489.13522301984921
 23
582.27499078865151
 33
0.0
210
0.0
220
0.0
230
1.0
  0
ENDBLK
  5
E95
  8
0
  0
BLOCK
  8
0
  2
*X15
 70
     1
 10
0.0
 20
0.0
 30
0.0
  3
*X15
  1

  0
LINE
  5
E97
  8
0
 62
     0
 10
487.26879416805031
 20
542.27867923956273
 30
0.0
 11
488.05532533143639
 21
541.49214807617659
 31
0.0
  0
LINE
  5
E98
  8
0
 62
     0
 10
488.26879416805042
 20
542.69289280193573
 30
0.0
 11
489.01879416805031
 21
541.94289280193584
 31
0.0
  0
LINE
  5
E99
  8
0
 62
     0
 10
487.26879416805031
 20
543.69289280193584
 30
0.0
 11
488.26879416805042
 21
542.69289280193584
 31
0.0
  0
LINE
  5
E9A
  8
0
 62
     0
 10
488.26879416805042
 20
544.10710636430883
 30
0.0
 11
489.01879416805031
 21
543.35710636430895
 31
0.0
  0
LINE
  5
E9B
  8
0
 62
     0
 10
487.26879416805031
 20
545.10710636430895
 30
0.0
 11
488.26879416805042
 21
544.10710636430895
 31
0.0
  0
LINE
  5
E9C
  8
0
 62
     0
 10
488.26879416805042
 20
545.52131992668205
 30
0.0
 11
489.01879416805031
 21
544.77131992668205
 31
0.0
  0
LINE
  5
E9D
  8
0
 62
     0
 10
487.26879416805031
 20
546.52131992668205
 30
0.0
 11
488.26879416805042
 21
545.52131992668205
 31
0.0
  0
LINE
  5
E9E
  8
0
 62
     0
 10
488.26879416805042
 20
546.93553348905505
 30
0.0
 11
489.01879416805031
 21
546.18553348905505
 31
0.0
  0
LINE
  5
E9F
  8
0
 62
     0
 10
487.26879416805031
 20
547.93553348905505
 30
0.0
 11
488.26879416805042
 21
546.93553348905505
 31
0.0
  0
LINE
  5
EA0
  8
0
 62
     0
 10
488.26879416805042
 20
548.34974705142815
 30
0.0
 11
489.01879416805031
 21
547.59974705142827
 31
0.0
  0
LINE
  5
EA1
  8
0
 62
     0
 10
487.26879416805031
 20
549.34974705142838
 30
0.0
 11
488.26879416805042
 21
548.34974705142815
 31
0.0
  0
LINE
  5
EA2
  8
0
 62
     0
 10
488.26879416805042
 20
549.76396061380126
 30
0.0
 11
489.01879416805042
 21
549.01396061380126
 31
0.0
  0
LINE
  5
EA3
  8
0
 62
     0
 10
487.26879416805031
 20
550.76396061380137
 30
0.0
 11
488.26879416805042
 21
549.76396061380126
 31
0.0
  0
LINE
  5
EA4
  8
0
 62
     0
 10
488.26879416805042
 20
551.17817417617437
 30
0.0
 11
489.01879416805031
 21
550.42817417617448
 31
0.0
  0
LINE
  5
EA5
  8
0
 62
     0
 10
487.26879416805031
 20
552.17817417617448
 30
0.0
 11
488.26879416805042
 21
551.17817417617437
 31
0.0
  0
LINE
  5
EA6
  8
0
 62
     0
 10
488.26879416805042
 20
552.59238773854747
 30
0.0
 11
489.01879416805031
 21
551.84238773854747
 31
0.0
  0
LINE
  5
EA7
  8
0
 62
     0
 10
487.26879416805031
 20
553.5923877385477
 30
0.0
 11
488.26879416805042
 21
552.59238773854747
 31
0.0
  0
LINE
  5
EA8
  8
0
 62
     0
 10
488.26879416805042
 20
554.00660130092069
 30
0.0
 11
489.01879416805031
 21
553.25660130092069
 31
0.0
  0
LINE
  5
EA9
  8
0
 62
     0
 10
487.26879416805019
 20
555.00660130092081
 30
0.0
 11
488.26879416805042
 21
554.00660130092069
 31
0.0
  0
LINE
  5
EAA
  8
0
 62
     0
 10
488.26879416805042
 20
555.42081486329369
 30
0.0
 11
489.01879416805042
 21
554.67081486329369
 31
0.0
  0
LINE
  5
EAB
  8
0
 62
     0
 10
487.26879416805019
 20
556.42081486329391
 30
0.0
 11
488.26879416805042
 21
555.42081486329369
 31
0.0
  0
LINE
  5
EAC
  8
0
 62
     0
 10
487.26879416805019
 20
557.83502842566702
 30
0.0
 11
489.01879416805048
 21
556.08502842566679
 31
0.0
  0
LINE
  5
EAD
  8
0
 62
     0
 10
487.26879416805019
 20
559.24924198804013
 30
0.0
 11
489.6572661241749
 21
556.86077003191542
 31
0.0
  0
LINE
  5
EAE
  8
0
 62
     0
 10
487.26879416805019
 20
560.66345555041323
 30
0.0
 11
490.55384159634292
 21
557.37840812212039
 31
0.0
  0
LINE
  5
EAF
  8
0
 62
     0
 10
487.26879416805019
 20
562.07766911278634
 30
0.0
 11
491.45041706851111
 21
557.89604621232536
 31
0.0
  0
LINE
  5
EB0
  8
0
 62
     0
 10
487.26879416805019
 20
563.49188267515945
 30
0.0
 11
492.34699254067908
 21
558.41368430253056
 31
0.0
  0
LINE
  5
EB1
  8
0
 62
     0
 10
487.4806817558914
 20
564.69420864969118
 30
0.0
 11
493.24356801284711
 21
558.93132239273552
 31
0.0
  0
LINE
  5
EB2
  8
0
 62
     0
 10
488.18778853707789
 20
565.40131543087784
 30
0.0
 11
493.26879416805048
 21
560.32030979990532
 31
0.0
  0
LINE
  5
EB3
  8
0
 62
     0
 10
488.26879416805019
 20
566.73452336227865
 30
0.0
 11
493.26879416805048
 21
561.73452336227831
 31
0.0
  0
LINE
  5
EB4
  8
0
 62
     0
 10
490.93521003085198
 20
565.48232106185003
 30
0.0
 11
493.26879416805048
 21
563.14873692465142
 31
0.0
  0
LINE
  5
EB5
  8
0
 62
     0
 10
488.26879416805008
 20
568.14873692465176
 30
0.0
 11
490.26879416805042
 21
566.14873692465153
 31
0.0
  0
LINE
  5
EB6
  8
0
 62
     0
 10
492.34942359322503
 20
565.48232106185003
 30
0.0
 11
493.26879416805031
 21
564.56295048702464
 31
0.0
  0
LINE
  5
EB7
  8
0
 62
     0
 10
488.26879416804991
 20
569.56295048702498
 30
0.0
 11
490.26879416805031
 21
567.56295048702464
 31
0.0
  0
LINE
  5
EB8
  8
0
 62
     0
 10
488.75381014127129
 20
570.4921480761767
 30
0.0
 11
490.26879416805042
 21
568.97716404939774
 31
0.0
  0
LINE
  5
EB9
  8
0
 62
     0
 10
490.16802370364439
 20
570.4921480761767
 30
0.0
 11
490.26879416805042
 21
570.39137761177085
 31
0.0
  0
ENDBLK
  5
EBB
  8
0
  0
BLOCK
  8
0
  2
*X16
 70
     1
 10
0.0
 20
0.0
 30
0.0
  3
*X16
  1

  0
LINE
  5
EBD
  8
0
 62
     0
 10
486.33781914362618
 20
541.49214807617682
 30
0.0
 11
487.26879416805048
 21
542.42312310060095
 31
0.0
  0
LINE
  5
EBE
  8
0
 62
     0
 10
484.21649880006652
 20
541.49214807617682
 30
0.0
 11
487.26879416805042
 21
544.54444344416061
 31
0.0
  0
LINE
  5
EBF
  8
0
 62
     0
 10
483.76879416805042
 20
543.16576378772027
 30
0.0
 11
487.26879416805031
 21
546.66576378772027
 31
0.0
  0
LINE
  5
EC0
  8
0
 62
     0
 10
483.76879416805031
 20
545.2870841312797
 30
0.0
 11
487.26879416805031
 21
548.78708413127981
 31
0.0
  0
LINE
  5
EC1
  8
0
 62
     0
 10
483.76879416805042
 20
547.4084044748397
 30
0.0
 11
487.26879416805031
 21
550.90840447483936
 31
0.0
  0
LINE
  5
EC2
  8
0
 62
     0
 10
483.76879416805042
 20
549.52972481839925
 30
0.0
 11
487.26879416805019
 21
553.02972481839902
 31
0.0
  0
LINE
  5
EC3
  8
0
 62
     0
 10
483.10989708226828
 20
550.99214807617693
 30
0.0
 11
487.26879416805019
 21
555.15104516195856
 31
0.0
  0
LINE
  5
EC4
  8
0
 62
     0
 10
482.76879416805031
 20
552.77236550551856
 30
0.0
 11
487.26879416805008
 21
557.27236550551822
 31
0.0
  0
LINE
  5
EC5
  8
0
 62
     0
 10
483.76879416805042
 20
555.893685849078
 30
0.0
 11
487.26879416805019
 21
559.39368584907788
 31
0.0
  0
LINE
  5
EC6
  8
0
 62
     0
 10
482.76879416805042
 20
554.893685849078
 30
0.0
 11
482.86725639514901
 21
554.99214807617682
 31
0.0
  0
LINE
  5
EC7
  8
0
 62
     0
 10
483.76879416805042
 20
558.01500619263788
 30
0.0
 11
487.26879416805002
 21
561.51500619263743
 31
0.0
  0
LINE
  5
EC8
  8
0
 62
     0
 10
483.76879416805042
 20
560.13632653619754
 30
0.0
 11
487.26879416805008
 21
563.63632653619698
 31
0.0
  0
LINE
  5
EC9
  8
0
 62
     0
 10
483.76879416805059
 20
562.25764687975732
 30
0.0
 11
488.26879416805019
 21
566.75764687975698
 31
0.0
  0
LINE
  5
ECA
  8
0
 62
     0
 10
483.76879416805048
 20
564.37896722331675
 30
0.0
 11
488.26879416805002
 21
568.87896722331641
 31
0.0
  0
LINE
  5
ECB
  8
0
 62
     0
 10
485.01879416805048
 20
567.75028756687652
 30
0.0
 11
487.76065467735077
 21
570.49214807617693
 31
0.0
  0
LINE
  5
ECC
  8
0
 62
     0
 10
483.76879416805048
 20
566.50028756687664
 30
0.0
 11
484.26065467735089
 21
566.99214807617693
 31
0.0
  0
LINE
  5
ECD
  8
0
 62
     0
 10
485.01879416805031
 20
569.87160791043596
 30
0.0
 11
485.63933433379123
 21
570.4921480761767
 31
0.0
  0
LINE
  5
ECE
  8
0
 62
     0
 10
483.76879416805031
 20
542.95025211481664
 30
0.0
 11
485.22689820669012
 21
541.49214807617682
 31
0.0
  0
LINE
  5
ECF
  8
0
 62
     0
 10
483.76879416805042
 20
545.07157245837629
 30
0.0
 11
487.26879416805042
 21
541.57157245837629
 31
0.0
  0
LINE
  5
ED0
  8
0
 62
     0
 10
483.76879416805042
 20
547.19289280193584
 30
0.0
 11
487.26879416805031
 21
543.69289280193584
 31
0.0
  0
LINE
  5
ED1
  8
0
 62
     0
 10
483.76879416805042
 20
549.31421314549539
 30
0.0
 11
487.26879416805031
 21
545.81421314549539
 31
0.0
  0
LINE
  5
ED2
  8
0
 62
     0
 10
482.76879416805048
 20
552.43553348905505
 30
0.0
 11
487.26879416805031
 21
547.93553348905516
 31
0.0
  0
LINE
  5
ED3
  8
0
 62
     0
 10
482.76879416805042
 20
554.55685383261471
 30
0.0
 11
487.26879416805019
 21
550.05685383261482
 31
0.0
  0
LINE
  5
ED4
  8
0
 62
     0
 10
483.76879416805042
 20
555.67817417617425
 30
0.0
 11
487.26879416805031
 21
552.17817417617459
 31
0.0
  0
LINE
  5
ED5
  8
0
 62
     0
 10
483.76879416805042
 20
557.79949451973391
 30
0.0
 11
487.26879416805008
 21
554.29949451973425
 31
0.0
  0
LINE
  5
ED6
  8
0
 62
     0
 10
483.76879416805042
 20
559.92081486329369
 30
0.0
 11
487.26879416805002
 21
556.42081486329403
 31
0.0
  0
LINE
  5
ED7
  8
0
 62
     0
 10
483.76879416805048
 20
562.04213520685312
 30
0.0
 11
487.26879416805008
 21
558.54213520685346
 31
0.0
  0
LINE
  5
ED8
  8
0
 62
     0
 10
483.76879416805042
 20
564.16345555041266
 30
0.0
 11
487.26879416805002
 21
560.66345555041323
 31
0.0
  0
LINE
  5
ED9
  8
0
 62
     0
 10
483.76879416805048
 20
566.28477589397255
 30
0.0
 11
487.26879416805002
 21
562.78477589397289
 31
0.0
  0
LINE
  5
EDA
  8
0
 62
     0
 10
485.01879416805042
 20
567.15609623753221
 30
0.0
 11
487.48068175589123
 21
564.69420864969118
 31
0.0
  0
LINE
  5
EDB
  8
0
 62
     0
 10
485.01879416805031
 20
569.27741658109187
 30
0.0
 11
488.26879416805019
 21
566.02741658109221
 31
0.0
  0
LINE
  5
EDC
  8
0
 62
     0
 10
485.92538301652507
 20
570.49214807617659
 30
0.0
 11
488.26879416805002
 21
568.14873692465176
 31
0.0
  0
LINE
  5
EDD
  8
0
 62
     0
 10
488.04670336008468
 20
570.4921480761767
 30
0.0
 11
488.26879416804991
 21
570.27005726821164
 31
0.0
  0
ENDBLK
  5
EDF
  8
0
  0
BLOCK
  8
0
  2
*X17
 70
     1
 10
0.0
 20
0.0
 30
0.0
  3
*X17
  1

  0
LINE
  5
EE1
  8
0
 62
     0
 10
124.14421045466401
 20
760.03019053692014
 30
0.0
 11
122.31073180052999
 21
758.19671188278608
 31
0.0
  0
LINE
  5
EE2
  8
0
 62
     0
 10
124.9465450341694
 20
758.71120477286593
 30
0.0
 11
122.1410261730452
 21
755.90568591174178
 31
0.0
  0
LINE
  5
EE3
  8
0
 62
     0
 10
124.9465450341694
 20
756.58988442930615
 30
0.0
 11
121.9713205455605
 21
753.61465994069715
 31
0.0
  0
LINE
  5
EE4
  8
0
 62
     0
 10
124.9465450341695
 20
754.46856408574661
 30
0.0
 11
121.8016149180757
 21
751.32363396965286
 31
0.0
  0
LINE
  5
EE5
  8
0
 62
     0
 10
124.9465450341695
 20
752.34724374218706
 30
0.0
 11
121.631909290591
 21
749.03260799860846
 31
0.0
  0
LINE
  5
EE6
  8
0
 62
     0
 10
124.9465450341696
 20
750.2259233986274
 30
0.0
 11
121.475273945108
 21
746.75465230956593
 31
0.0
  0
LINE
  5
EE7
  8
0
 62
     0
 10
124.9465450341696
 20
748.10460305506774
 30
0.0
 11
121.4465450341696
 21
744.60460305506786
 31
0.0
  0
LINE
  5
EE8
  8
0
 62
     0
 10
126.7721325160217
 20
749.93019053691989
 30
0.0
 11
125.5221325160218
 21
748.68019053691989
 31
0.0
  0
LINE
  5
EE9
  8
0
 62
     0
 10
123.6965450341696
 20
744.7332827115082
 30
0.0
 11
121.4465450341696
 21
742.4832827115082
 31
0.0
  0
LINE
  5
EEA
  8
0
 62
     0
 10
124.9465450341696
 20
745.98328271150808
 30
0.0
 11
124.8434528595816
 21
745.88019053692017
 31
0.0
  0
LINE
  5
EEB
  8
0
 62
     0
 10
123.6965450341696
 20
742.61196236794865
 30
0.0
 11
121.4465450341696
 21
740.36196236794865
 31
0.0
  0
LINE
  5
EEC
  8
0
 62
     0
 10
123.6965450341696
 20
740.49064202438888
 30
0.0
 11
121.4465450341697
 21
738.24064202438888
 31
0.0
  0
LINE
  5
EED
  8
0
 62
     0
 10
123.6965450341697
 20
738.36932168082933
 30
0.0
 11
122.55741389026061
 21
737.23019053692019
 31
0.0
  0
LINE
  5
EEE
  8
0
 62
     0
 10
124.9465450341693
 20
759.45740561150456
 30
0.0
 11
124.3737601087538
 21
760.03019053692014
 31
0.0
  0
LINE
  5
EEF
  8
0
 62
     0
 10
124.9465450341693
 20
757.3360852679449
 30
0.0
 11
122.6093879883465
 21
759.67324231376779
 31
0.0
  0
LINE
  5
EF0
  8
0
 62
     0
 10
124.9465450341695
 20
755.21476492438524
 30
0.0
 11
122.2868605091671
 21
757.87444944938761
 31
0.0
  0
LINE
  5
EF1
  8
0
 62
     0
 10
124.9465450341694
 20
753.09344458082535
 30
0.0
 11
122.1405625544388
 21
755.89942706055615
 31
0.0
  0
LINE
  5
EF2
  8
0
 62
     0
 10
124.9465450341695
 20
750.97212423726592
 30
0.0
 11
121.9942645997106
 21
753.92440467172469
 31
0.0
  0
LINE
  5
EF3
  8
0
 62
     0
 10
127.0715450341696
 20
748.84712423726592
 30
0.0
 11
125.9884787345155
 21
749.93019053692001
 31
0.0
  0
LINE
  5
EF4
  8
0
 62
     0
 10
125.11715839095569
 20
748.68019053691989
 30
0.0
 11
121.84796664498241
 21
751.94938228289334
 31
0.0
  0
LINE
  5
EF5
  8
0
 62
     0
 10
124.9465450341695
 20
746.7294835501466
 30
0.0
 11
121.7016686902541
 21
749.97435989406199
 31
0.0
  0
LINE
  5
EF6
  8
0
 62
     0
 10
123.6965450341696
 20
745.85816320658682
 30
0.0
 11
121.5513392139375
 21
748.00336902681886
 31
0.0
  0
LINE
  5
EF7
  8
0
 62
     0
 10
123.6965450341696
 20
743.73684286302716
 30
0.0
 11
121.4520347169707
 21
745.98135318022605
 31
0.0
  0
LINE
  5
EF8
  8
0
 62
     0
 10
123.6965450341696
 20
741.6155225194675
 30
0.0
 11
121.4465450341695
 21
743.86552251946762
 31
0.0
  0
LINE
  5
EF9
  8
0
 62
     0
 10
123.6965450341696
 20
739.49420217590784
 30
0.0
 11
121.4465450341696
 21
741.74420217590784
 31
0.0
  0
LINE
  5
EFA
  8
0
 62
     0
 10
123.6965450341696
 20
737.3728818323483
 30
0.0
 11
121.4465450341696
 21
739.62288183234841
 31
0.0
  0
ENDBLK
  5
EFC
  8
0
  0
BLOCK
  8
0
  2
*X18
 70
     1
 10
0.0
 20
0.0
 30
0.0
  3
*X18
  1

  0
LINE
  5
EFE
  8
0
 62
     0
 10
264.48739209892159
 20
766.73019053692008
 30
0.0
 11
261.96356745124632
 21
764.20636588924481
 31
0.0
  0
LINE
  5
EFF
  8
0
 62
     0
 10
265.49214544354248
 20
765.61362353798143
 30
0.0
 11
261.81766263748909
 21
761.93914073192786
 31
0.0
  0
LINE
  5
F00
  8
0
 62
     0
 10
265.49214544354248
 20
763.49230319442165
 30
0.0
 11
261.67175782373192
 21
759.67191557461126
 31
0.0
  0
LINE
  5
F01
  8
0
 62
     0
 10
265.49214544354243
 20
761.37098285086199
 30
0.0
 11
261.5258530099747
 21
757.40469041729443
 31
0.0
  0
LINE
  5
F02
  8
0
 62
     0
 10
265.49214544354248
 20
759.24966250730245
 30
0.0
 11
261.37994819621753
 21
755.1374652599776
 31
0.0
  0
LINE
  5
F03
  8
0
 62
     0
 10
266.29399381671982
 20
757.93019053692012
 30
0.0
 11
261.23404338246041
 21
752.87024010266066
 31
0.0
  0
LINE
  5
F04
  8
0
 62
     0
 10
265.84214544354239
 20
755.35702182018326
 30
0.0
 11
261.08813856870319
 21
750.60301494534394
 31
0.0
  0
LINE
  5
F05
  8
0
 62
     0
 10
268.41531416027948
 20
757.93019053692024
 30
0.0
 11
265.91531416027959
 21
755.43019053692046
 31
0.0
  0
LINE
  5
F06
  8
0
 62
     0
 10
265.84214544354239
 20
753.2357014766236
 30
0.0
 11
265.0366345038392
 21
752.43019053692024
 31
0.0
  0
LINE
  5
F07
  8
0
 62
     0
 10
264.14214544354252
 20
751.53570147662356
 30
0.0
 11
260.93598525223649
 21
748.32954128531765
 31
0.0
  0
LINE
  5
F08
  8
0
 62
     0
 10
268.99214544354248
 20
756.38570147662347
 30
0.0
 11
268.03663450383908
 21
755.43019053692024
 31
0.0
  0
LINE
  5
F09
  8
0
 62
     0
 10
264.14214544354252
 20
749.4143811330639
 30
0.0
 11
260.89214544354252
 21
746.16438113306378
 31
0.0
  0
LINE
  5
F0A
  8
0
 62
     0
 10
264.14214544354252
 20
747.29306078950435
 30
0.0
 11
260.89214544354252
 21
744.04306078950435
 31
0.0
  0
LINE
  5
F0B
  8
0
 62
     0
 10
264.14214544354252
 20
745.17174044594447
 30
0.0
 11
260.89214544354252
 21
741.92174044594458
 31
0.0
  0
LINE
  5
F0C
  8
0
 62
     0
 10
262.99214544354248
 20
741.90042010238506
 30
0.0
 11
261.10703066080998
 21
740.0153053196525
 31
0.0
  0
LINE
  5
F0D
  8
0
 62
     0
 10
264.14214544354252
 20
743.05042010238503
 30
0.0
 11
263.62191587807769
 21
742.53019053692014
 31
0.0
  0
LINE
  5
F0E
  8
0
 62
     0
 10
262.99214544354248
 20
739.7790997588254
 30
0.0
 11
262.44323622163751
 21
739.2301905369203
 31
0.0
  0
LINE
  5
F0F
  8
0
 62
     0
 10
265.49214544354243
 20
765.2829089077469
 30
0.0
 11
264.04486381436931
 21
766.73019053692008
 31
0.0
  0
LINE
  5
F10
  8
0
 62
     0
 10
265.49214544354243
 20
763.16158856418701
 30
0.0
 11
262.54832449429182
 21
766.10540951343785
 31
0.0
  0
LINE
  5
F11
  8
0
 62
     0
 10
265.49214544354248
 20
761.04026822062747
 30
0.0
 11
261.98548405944842
 21
764.54692960472164
 31
0.0
  0
LINE
  5
F12
  8
0
 62
     0
 10
268.99214544354243
 20
757.54026822062747
 30
0.0
 11
268.60222312725
 21
757.93019053692001
 31
0.0
  0
LINE
  5
F13
  8
0
 62
     0
 10
265.49214544354248
 20
758.91894787706792
 30
0.0
 11
261.85722289931351
 21
762.55387042129701
 31
0.0
  0
LINE
  5
F14
  8
0
 62
     0
 10
268.98090278369028
 20
755.43019053692012
 30
0.0
 11
266.48090278369028
 21
757.93019053692012
 31
0.0
  0
LINE
  5
F15
  8
0
 62
     0
 10
266.8595824401304
 20
755.43019053692024
 30
0.0
 11
261.72896173917849
 21
760.56081123787214
 31
0.0
  0
LINE
  5
F16
  8
0
 62
     0
 10
265.84214544354239
 20
754.32630718994847
 30
0.0
 11
261.60070057904352
 21
758.56775205444751
 31
0.0
  0
LINE
  5
F17
  8
0
 62
     0
 10
265.6169417530113
 20
752.43019053692001
 30
0.0
 11
261.47243941890861
 21
756.57469287102265
 31
0.0
  0
LINE
  5
F18
  8
0
 62
     0
 10
264.14214544354252
 20
751.78366650282942
 30
0.0
 11
261.3441782587737
 21
754.58163368759813
 31
0.0
  0
LINE
  5
F19
  8
0
 62
     0
 10
264.14214544354252
 20
749.66234615926965
 30
0.0
 11
261.21591709863873
 21
752.58857450417338
 31
0.0
  0
LINE
  5
F1A
  8
0
 62
     0
 10
264.14214544354252
 20
747.5410258157101
 30
0.0
 11
261.0876559385037
 21
750.59551532074875
 31
0.0
  0
LINE
  5
F1B
  8
0
 62
     0
 10
264.14214544354252
 20
745.41970547215033
 30
0.0
 11
260.95939477836879
 21
748.60245613732388
 31
0.0
  0
LINE
  5
F1C
  8
0
 62
     0
 10
264.1421454435424
 20
743.29838512859067
 30
0.0
 11
260.8921454435424
 21
746.54838512859078
 31
0.0
  0
LINE
  5
F1D
  8
0
 62
     0
 10
262.99214544354243
 20
742.32706478503121
 30
0.0
 11
260.89214544354252
 21
744.42706478503112
 31
0.0
  0
LINE
  5
F1E
  8
0
 62
     0
 10
262.99214544354243
 20
740.20574444147144
 30
0.0
 11
260.8921454435424
 21
742.30574444147135
 31
0.0
  0
ENDBLK
  5
F20
  8
0
  0
BLOCK
  8
0
  2
*X19
 70
     1
 10
0.0
 20
0.0
 30
0.0
  3
*X19
  1

  0
LINE
  5
F22
  8
0
 62
     0
 10
603.6062589130396
 20
775.6301905369204
 30
0.0
 11
600.09593039599031
 21
772.11986201987111
 31
0.0
  0
LINE
  5
F23
  8
0
 62
     0
 10
604.35728774333359
 20
773.55279224246817
 30
0.0
 11
599.77135679151115
 21
768.96686129064574
 31
0.0
  0
LINE
  5
F24
  8
0
 62
     0
 10
604.35728774333347
 20
770.72436511772196
 30
0.0
 11
599.44678318703211
 21
765.8138605614206
 31
0.0
  0
LINE
  5
F25
  8
0
 62
     0
 10
604.35728774333347
 20
767.89593799297575
 30
0.0
 11
599.12220958255318
 21
762.66085983219534
 31
0.0
  0
LINE
  5
F26
  8
0
 62
     0
 10
604.35728774333347
 20
765.06751086822953
 30
0.0
 11
598.81618919521623
 21
759.52641232011229
 31
0.0
  0
LINE
  5
F27
  8
0
 62
     0
 10
605.04839453677039
 20
762.93019053692035
 30
0.0
 11
598.70728963232364
 21
756.58908563247337
 31
0.0
  0
LINE
  5
F28
  8
0
 62
     0
 10
603.75728774333379
 20
758.81065661873731
 30
0.0
 11
598.70728774333361
 21
753.76065661873724
 31
0.0
  0
LINE
  5
F29
  8
0
 62
     0
 10
607.8768216615166
 20
762.93019053692035
 30
0.0
 11
605.37682166151671
 21
760.43019053692035
 31
0.0
  0
LINE
  5
F2A
  8
0
 62
     0
 10
602.20728774333361
 20
754.43222949399114
 30
0.0
 11
598.70728774333372
 21
750.93222949399114
 31
0.0
  0
LINE
  5
F2B
  8
0
 62
     0
 10
608.20728774333372
 20
760.43222949399114
 30
0.0
 11
608.20524878626304
 21
760.43019053692035
 31
0.0
  0
LINE
  5
F2C
  8
0
 62
     0
 10
602.20728774333361
 20
751.60380236924493
 30
0.0
 11
598.70728774333361
 21
748.10380236924493
 31
0.0
  0
LINE
  5
F2D
  8
0
 62
     0
 10
602.20728774333361
 20
748.77537524449872
 30
0.0
 11
598.70728774333361
 21
745.27537524449872
 31
0.0
  0
LINE
  5
F2E
  8
0
 62
     0
 10
602.20728774333361
 20
745.94694811975239
 30
0.0
 11
598.70728774333361
 21
742.44694811975251
 31
0.0
  0
LINE
  5
F2F
  8
0
 62
     0
 10
601.50728774333379
 20
742.41852099500636
 30
0.0
 11
599.81895728524773
 21
740.7301905369203
 31
0.0
  0
LINE
  5
F30
  8
0
 62
     0
 10
604.35728774333359
 20
773.60719617055031
 30
0.0
 11
602.33429337696373
 21
775.63019053692028
 31
0.0
  0
LINE
  5
F31
  8
0
 62
     0
 10
604.35728774333359
 20
770.77876904580432
 30
0.0
 11
600.4269989929179
 21
774.70905779622012
 31
0.0
  0
LINE
  5
F32
  8
0
 62
     0
 10
604.35728774333359
 20
767.95034192105811
 30
0.0
 11
600.1045018725199
 21
772.20312779187191
 31
0.0
  0
LINE
  5
F33
  8
0
 62
     0
 10
604.35728774333347
 20
765.12191479631201
 30
0.0
 11
599.84051534087689
 21
769.63868719876859
 31
0.0
  0
LINE
  5
F34
  8
0
 62
     0
 10
608.20728774333372
 20
761.27191479631188
 30
0.0
 11
606.54901200272525
 21
762.93019053692035
 31
0.0
  0
LINE
  5
F35
  8
0
 62
     0
 10
606.22058487797904
 20
760.43019053692035
 30
0.0
 11
599.57652880923376
 21
767.07424660566551
 31
0.0
  0
LINE
  5
F36
  8
0
 62
     0
 10
603.75728774333379
 20
760.06506054681927
 30
0.0
 11
599.31254227759075
 21
764.50980601256231
 31
0.0
  0
LINE
  5
F37
  8
0
 62
     0
 10
603.75728774333356
 20
757.2366334220734
 30
0.0
 11
599.04855574594785
 21
761.94536541945899
 31
0.0
  0
LINE
  5
F38
  8
0
 62
     0
 10
602.20728774333361
 20
755.95820629732725
 30
0.0
 11
598.80431548878539
 21
759.36117855187535
 31
0.0
  0
LINE
  5
F39
  8
0
 62
     0
 10
602.20728774333361
 20
753.12977917258104
 30
0.0
 11
598.70732279167726
 21
756.62974412423716
 31
0.0
  0
LINE
  5
F3A
  8
0
 62
     0
 10
602.20728774333361
 20
750.30135204783483
 30
0.0
 11
598.70728774333361
 21
753.80135204783483
 31
0.0
  0
LINE
  5
F3B
  8
0
 62
     0
 10
602.2072877433335
 20
747.47292492308873
 30
0.0
 11
598.70728774333361
 21
750.97292492308861
 31
0.0
  0
LINE
  5
F3C
  8
0
 62
     0
 10
601.92159500475566
 20
744.93019053692035
 30
0.0
 11
598.70728774333361
 21
748.14449779834229
 31
0.0
  0
LINE
  5
F3D
  8
0
 62
     0
 10
601.50728774333356
 20
742.51607067359612
 30
0.0
 11
598.70728774333361
 21
745.31607067359607
 31
0.0
  0
LINE
  5
F3E
  8
0
 62
     0
 10
600.46474075526316
 20
740.7301905369203
 30
0.0
 11
598.70728774333361
 21
742.48764354884986
 31
0.0
  0
ENDBLK
  5
F40
  8
0
  0
BLOCK
  8
0
  2
*X20
 70
     1
 10
0.0
 20
0.0
 30
0.0
  3
*X20
  1

  0
LINE
  5
F42
  8
0
 62
     0
 10
424.48843181552849
 20
766.72811390981735
 30
0.0
 11
422.58156196613601
 21
764.82124406042487
 31
0.0
  0
LINE
  5
F43
  8
0
 62
     0
 10
426.23337244488238
 20
765.64462741442514
 30
0.0
 11
422.42221395910809
 21
761.83346892865075
 31
0.0
  0
LINE
  5
F44
  8
0
 62
     0
 10
426.23337244488238
 20
762.81620028967905
 30
0.0
 11
422.26286595208001
 21
758.84569379687673
 31
0.0
  0
LINE
  5
F45
  8
0
 62
     0
 10
426.23337244488238
 20
759.98777316493283
 30
0.0
 11
422.1035179450522
 21
755.85791866510249
 31
0.0
  0
LINE
  5
F46
  8
0
 62
     0
 10
426.80421694161618
 20
757.73019053692019
 30
0.0
 11
421.94416993802412
 21
752.87014353332825
 31
0.0
  0
LINE
  5
F47
  8
0
 62
     0
 10
425.83337244488251
 20
753.93091891544043
 30
0.0
 11
421.81082681161962
 21
749.90837328217754
 31
0.0
  0
LINE
  5
F48
  8
0
 62
     0
 10
429.63264406636227
 20
757.7301905369203
 30
0.0
 11
427.3326440663626
 21
755.43019053692046
 31
0.0
  0
LINE
  5
F49
  8
0
 62
     0
 10
425.23337244488249
 20
750.50249179069419
 30
0.0
 11
421.69352653967633
 21
746.96264588548797
 31
0.0
  0
LINE
  5
F4A
  8
0
 62
     0
 10
430.23337244488249
 20
755.50249179069408
 30
0.0
 11
430.16107119110882
 21
755.43019053692046
 31
0.0
  0
LINE
  5
F4B
  8
0
 62
     0
 10
425.23337244488232
 20
747.67406466594787
 30
0.0
 11
421.57622626773292
 21
744.01691848879841
 31
0.0
  0
LINE
  5
F4C
  8
0
 62
     0
 10
425.23337244488221
 20
744.84563754120165
 30
0.0
 11
421.4589259957894
 21
741.07119109210873
 31
0.0
  0
LINE
  5
F4D
  8
0
 62
     0
 10
423.78337244488239
 20
740.56721041645562
 30
0.0
 11
422.53983451040091
 21
739.32367248197397
 31
0.0
  0
LINE
  5
F4E
  8
0
 62
     0
 10
426.23337244488249
 20
764.53444707326355
 30
0.0
 11
424.09677172841958
 21
766.67104778972634
 31
0.0
  0
LINE
  5
F4F
  8
0
 62
     0
 10
426.23337244488238
 20
761.70601994851745
 30
0.0
 11
422.65722599950988
 21
765.28216639388995
 31
0.0
  0
LINE
  5
F50
  8
0
 62
     0
 10
430.23337244488232
 20
757.70601994851745
 30
0.0
 11
430.20920185647958
 21
757.73019053692008
 31
0.0
  0
LINE
  5
F51
  8
0
 62
     0
 10
426.23337244488238
 20
758.87759282377124
 30
0.0
 11
422.46551939611538
 21
762.64544587253806
 31
0.0
  0
LINE
  5
F52
  8
0
 62
     0
 10
429.68077473173332
 20
755.43019053692024
 30
0.0
 11
427.38077473173342
 21
757.73019053692019
 31
0.0
  0
LINE
  5
F53
  8
0
 62
     0
 10
426.85234760698711
 20
755.43019053692046
 30
0.0
 11
422.32230789612811
 21
759.96023024777924
 31
0.0
  0
LINE
  5
F54
  8
0
 62
     0
 10
425.83337244488229
 20
753.62073857427879
 30
0.0
 11
422.17909639614089
 21
757.2750146230203
 31
0.0
  0
LINE
  5
F55
  8
0
 62
     0
 10
425.23337244488221
 20
751.39231144953283
 30
0.0
 11
422.0358848961539
 21
754.58979899826113
 31
0.0
  0
LINE
  5
F56
  8
0
 62
     0
 10
425.23337244488221
 20
748.5638843247865
 30
0.0
 11
421.89267339616669
 21
751.90458337350208
 31
0.0
  0
LINE
  5
F57
  8
0
 62
     0
 10
425.23337244488232
 20
745.73545720004029
 30
0.0
 11
421.78209097661141
 21
749.18673866831136
 31
0.0
  0
LINE
  5
F58
  8
0
 62
     0
 10
425.23337244488221
 20
742.90703007529407
 30
0.0
 11
421.67377485713843
 21
746.46662766303803
 31
0.0
  0
LINE
  5
F59
  8
0
 62
     0
 10
423.78337244488227
 20
741.52860295054802
 30
0.0
 11
421.56545873766538
 21
743.74651665776491
 31
0.0
  0
LINE
  5
F5A
  8
0
 62
     0
 10
423.25335773376361
 20
739.23019053692042
 30
0.0
 11
421.45714261819228
 21
741.02640565249158
 31
0.0
  0
ENDBLK
  5
F5C
  8
0
  0
BLOCK
  8
0
  2
*U21
 70
     1
 10
0.0
 20
0.0
 30
0.0
  3
*U21
  1

  0
SOLID
  5
F5E
  8
0
  6
CONTINUOUS
 10
126.8594129998137
 20
750.01805850256403
 30
0.0
 11
127.0715450341696
 21
749.93019053692001
 31
0.0
 12
127.28367706852561
 22
750.01805850256403
 32
0.0
 13
127.28367706852561
 23
750.01805850256403
 33
0.0
210
0.0
220
0.0
230
1.0
  0
SOLID
  5
F5F
  8
0
  6
CONTINUOUS
 10
127.3715450341696
 20
750.23019053691996
 30
0.0
 11
126.8594129998137
 21
750.01805850256403
 31
0.0
 12
127.28367706852561
 22
750.01805850256403
 32
0.0
 13
127.28367706852561
 23
750.01805850256403
 33
0.0
  0
SOLID
  5
F60
  8
0
  6
CONTINUOUS
 10
126.77154503416961
 20
750.23019053691996
 30
0.0
 11
126.8594129998137
 21
750.01805850256403
 31
0.0
 12
127.3715450341696
 22
750.23019053691996
 32
0.0
 13
127.3715450341696
 23
750.23019053691996
 33
0.0
210
0.0
220
0.0
230
1.0
  0
SOLID
  5
F61
  8
0
  6
CONTINUOUS
 10
127.28367706852561
 20
750.44232257127578
 30
0.0
 11
126.77154503416961
 21
750.23019053691996
 31
0.0
 12
127.3715450341696
 22
750.23019053691996
 32
0.0
 13
127.3715450341696
 23
750.23019053691996
 33
0.0
  0
SOLID
  5
F62
  8
0
  6
CONTINUOUS
 10
126.8594129998137
 20
750.44232257127578
 30
0.0
 11
126.77154503416961
 21
750.23019053691996
 31
0.0
 12
127.28367706852561
 22
750.44232257127578
 32
0.0
 13
127.28367706852561
 23
750.44232257127578
 33
0.0
210
0.0
220
0.0
230
1.0
  0
SOLID
  5
F63
  8
0
  6
CONTINUOUS
 10
127.0715450341696
 20
750.53019053691992
 30
0.0
 11
126.8594129998137
 21
750.44232257127578
 31
0.0
 12
127.28367706852561
 22
750.44232257127578
 32
0.0
 13
127.28367706852561
 23
750.44232257127578
 33
0.0
  0
SOLID
  5
F64
  8
0
  6
CONTINUOUS
 10
126.8594129998137
 20
751.22905576282494
 30
0.0
 11
127.0715450341696
 21
751.14118779718092
 31
0.0
 12
127.28367706852561
 22
751.22905576282494
 32
0.0
 13
127.28367706852561
 23
751.22905576282494
 33
0.0
210
0.0
220
0.0
230
1.0
  0
SOLID
  5
F65
  8
0
  6
CONTINUOUS
 10
127.3715450341696
 20
751.44118779718076
 30
0.0
 11
126.8594129998137
 21
751.22905576282494
 31
0.0
 12
127.28367706852561
 22
751.22905576282494
 32
0.0
 13
127.28367706852561
 23
751.22905576282494
 33
0.0
  0
SOLID
  5
F66
  8
0
  6
CONTINUOUS
 10
126.77154503416961
 20
751.44118779718076
 30
0.0
 11
126.8594129998137
 21
751.22905576282494
 31
0.0
 12
127.3715450341696
 22
751.44118779718076
 32
0.0
 13
127.3715450341696
 23
751.44118779718076
 33
0.0
210
0.0
220
0.0
230
1.0
  0
SOLID
  5
F67
  8
0
  6
CONTINUOUS
 10
127.28367706852561
 20
751.65331983153681
 30
0.0
 11
126.77154503416961
 21
751.44118779718076
 31
0.0
 12
127.3715450341696
 22
751.44118779718076
 32
0.0
 13
127.3715450341696
 23
751.44118779718076
 33
0.0
  0
SOLID
  5
F68
  8
0
  6
CONTINUOUS
 10
126.8594129998137
 20
751.65331983153681
 30
0.0
 11
126.77154503416961
 21
751.44118779718076
 31
0.0
 12
127.28367706852561
 22
751.65331983153681
 32
0.0
 13
127.28367706852561
 23
751.65331983153681
 33
0.0
210
0.0
220
0.0
230
1.0
  0
SOLID
  5
F69
  8
0
  6
CONTINUOUS
 10
127.0715450341696
 20
751.74118779718083
 30
0.0
 11
126.8594129998137
 21
751.65331983153681
 31
0.0
 12
127.28367706852561
 22
751.65331983153681
 32
0.0
 13
127.28367706852561
 23
751.65331983153681
 33
0.0
  0
SOLID
  5
F6A
  8
0
  6
CONTINUOUS
 10
126.8594129998137
 20
752.93201951130493
 30
0.0
 11
127.0715450341696
 21
752.84415154566079
 31
0.0
 12
127.28367706852561
 22
752.93201951130493
 32
0.0
 13
127.28367706852561
 23
752.93201951130493
 33
0.0
210
0.0
220
0.0
230
1.0
  0
SOLID
  5
F6B
  8
0
  6
CONTINUOUS
 10
127.3715450341696
 20
753.14415154566086
 30
0.0
 11
126.8594129998137
 21
752.93201951130493
 31
0.0
 12
127.28367706852561
 22
752.93201951130493
 32
0.0
 13
127.28367706852561
 23
752.93201951130493
 33
0.0
  0
SOLID
  5
F6C
  8
0
  6
CONTINUOUS
 10
126.77154503416961
 20
753.14415154566086
 30
0.0
 11
126.8594129998137
 21
752.93201951130493
 31
0.0
 12
127.3715450341696
 22
753.14415154566086
 32
0.0
 13
127.3715450341696
 23
753.14415154566086
 33
0.0
210
0.0
220
0.0
230
1.0
  0
SOLID
  5
F6D
  8
0
  6
CONTINUOUS
 10
127.28367706852561
 20
753.35628358001679
 30
0.0
 11
126.77154503416961
 21
753.14415154566086
 31
0.0
 12
127.3715450341696
 22
753.14415154566086
 32
0.0
 13
127.3715450341696
 23
753.14415154566086
 33
0.0
  0
SOLID
  5
F6E
  8
0
  6
CONTINUOUS
 10
126.8594129998137
 20
753.35628358001679
 30
0.0
 11
126.77154503416961
 21
753.14415154566086
 31
0.0
 12
127.28367706852561
 22
753.35628358001679
 32
0.0
 13
127.28367706852561
 23
753.35628358001679
 33
0.0
210
0.0
220
0.0
230
1.0
  0
SOLID
  5
F6F
  8
0
  6
CONTINUOUS
 10
127.0715450341696
 20
753.44415154566082
 30
0.0
 11
126.8594129998137
 21
753.35628358001679
 31
0.0
 12
127.28367706852561
 22
753.35628358001679
 32
0.0
 13
127.28367706852561
 23
753.35628358001679
 33
0.0
  0
SOLID
  5
F70
  8
0
  6
CONTINUOUS
 10
126.8594129998137
 20
754.45526780281273
 30
0.0
 11
127.0715450341696
 21
754.3673998371687
 31
0.0
 12
127.28367706852561
 22
754.45526780281273
 32
0.0
 13
127.28367706852561
 23
754.45526780281273
 33
0.0
210
0.0
220
0.0
230
1.0
  0
SOLID
  5
F71
  8
0
  6
CONTINUOUS
 10
127.3715450341696
 20
754.66739983716855
 30
0.0
 11
126.8594129998137
 21
754.45526780281273
 31
0.0
 12
127.28367706852561
 22
754.45526780281273
 32
0.0
 13
127.28367706852561
 23
754.45526780281273
 33
0.0
  0
SOLID
  5
F72
  8
0
  6
CONTINUOUS
 10
126.77154503416961
 20
754.66739983716855
 30
0.0
 11
126.8594129998137
 21
754.45526780281273
 31
0.0
 12
127.3715450341696
 22
754.66739983716855
 32
0.0
 13
127.3715450341696
 23
754.66739983716855
 33
0.0
210
0.0
220
0.0
230
1.0
  0
SOLID
  5
F73
  8
0
  6
CONTINUOUS
 10
127.28367706852561
 20
754.87953187152459
 30
0.0
 11
126.77154503416961
 21
754.66739983716855
 31
0.0
 12
127.3715450341696
 22
754.66739983716855
 32
0.0
 13
127.3715450341696
 23
754.66739983716855
 33
0.0
  0
SOLID
  5
F74
  8
0
  6
CONTINUOUS
 10
126.8594129998137
 20
754.87953187152459
 30
0.0
 11
126.77154503416961
 21
754.66739983716855
 31
0.0
 12
127.28367706852561
 22
754.87953187152459
 32
0.0
 13
127.28367706852561
 23
754.87953187152459
 33
0.0
210
0.0
220
0.0
230
1.0
  0
SOLID
  5
F75
  8
0
  6
CONTINUOUS
 10
127.0715450341696
 20
754.96739983716861
 30
0.0
 11
126.8594129998137
 21
754.87953187152459
 31
0.0
 12
127.28367706852561
 22
754.87953187152459
 32
0.0
 13
127.28367706852561
 23
754.87953187152459
 33
0.0
  0
SOLID
  5
F76
  8
0
  6
CONTINUOUS
 10
126.8594129998137
 20
755.71805850256408
 30
0.0
 11
127.0715450341696
 21
755.63019053692017
 31
0.0
 12
127.28367706852561
 22
755.71805850256408
 32
0.0
 13
127.28367706852561
 23
755.71805850256408
 33
0.0
210
0.0
220
0.0
230
1.0
  0
SOLID
  5
F77
  8
0
  6
CONTINUOUS
 10
127.3715450341696
 20
755.93019053692012
 30
0.0
 11
126.8594129998137
 21
755.71805850256408
 31
0.0
 12
127.28367706852561
 22
755.71805850256408
 32
0.0
 13
127.28367706852561
 23
755.71805850256408
 33
0.0
  0
SOLID
  5
F78
  8
0
  6
CONTINUOUS
 10
126.77154503416961
 20
755.93019053692012
 30
0.0
 11
126.8594129998137
 21
755.71805850256408
 31
0.0
 12
127.3715450341696
 22
755.93019053692012
 32
0.0
 13
127.3715450341696
 23
755.93019053692012
 33
0.0
210
0.0
220
0.0
230
1.0
  0
SOLID
  5
F79
  8
0
  6
CONTINUOUS
 10
127.28367706852561
 20
756.14232257127605
 30
0.0
 11
126.77154503416961
 21
755.93019053692012
 31
0.0
 12
127.3715450341696
 22
755.93019053692012
 32
0.0
 13
127.3715450341696
 23
755.93019053692012
 33
0.0
  0
SOLID
  5
F7A
  8
0
  6
CONTINUOUS
 10
126.8594129998137
 20
756.14232257127605
 30
0.0
 11
126.77154503416961
 21
755.93019053692012
 31
0.0
 12
127.28367706852561
 22
756.14232257127605
 32
0.0
 13
127.28367706852561
 23
756.14232257127605
 33
0.0
210
0.0
220
0.0
230
1.0
  0
SOLID
  5
F7B
  8
0
  6
CONTINUOUS
 10
127.0715450341696
 20
756.23019053691996
 30
0.0
 11
126.8594129998137
 21
756.14232257127605
 31
0.0
 12
127.28367706852561
 22
756.14232257127605
 32
0.0
 13
127.28367706852561
 23
756.14232257127605
 33
0.0
  0
SOLID
  5
F7C
  8
0
  6
CONTINUOUS
 10
126.8594129998137
 20
756.7180585025643
 30
0.0
 11
127.0715450341697
 21
756.63019053692017
 31
0.0
 12
127.28367706852561
 22
756.7180585025643
 32
0.0
 13
127.28367706852561
 23
756.7180585025643
 33
0.0
210
0.0
220
0.0
230
1.0
  0
SOLID
  5
F7D
  8
0
  6
CONTINUOUS
 10
127.3715450341696
 20
756.93019053692024
 30
0.0
 11
126.8594129998137
 21
756.7180585025643
 31
0.0
 12
127.28367706852561
 22
756.7180585025643
 32
0.0
 13
127.28367706852561
 23
756.7180585025643
 33
0.0
  0
SOLID
  5
F7E
  8
0
  6
CONTINUOUS
 10
126.77154503416961
 20
756.93019053692024
 30
0.0
 11
126.8594129998137
 21
756.7180585025643
 31
0.0
 12
127.3715450341696
 22
756.93019053692024
 32
0.0
 13
127.3715450341696
 23
756.93019053692024
 33
0.0
210
0.0
220
0.0
230
1.0
  0
SOLID
  5
F7F
  8
0
  6
CONTINUOUS
 10
127.28367706852561
 20
757.14232257127605
 30
0.0
 11
126.77154503416961
 21
756.93019053692024
 31
0.0
 12
127.3715450341696
 22
756.93019053692024
 32
0.0
 13
127.3715450341696
 23
756.93019053692024
 33
0.0
  0
SOLID
  5
F80
  8
0
  6
CONTINUOUS
 10
126.8594129998137
 20
757.14232257127605
 30
0.0
 11
126.77154503416961
 21
756.93019053692024
 31
0.0
 12
127.28367706852561
 22
757.14232257127605
 32
0.0
 13
127.28367706852561
 23
757.14232257127605
 33
0.0
210
0.0
220
0.0
230
1.0
  0
SOLID
  5
F81
  8
0
  6
CONTINUOUS
 10
127.0715450341697
 20
757.23019053692019
 30
0.0
 11
126.8594129998137
 21
757.14232257127605
 31
0.0
 12
127.28367706852561
 22
757.14232257127605
 32
0.0
 13
127.28367706852561
 23
757.14232257127605
 33
0.0
  0
ENDBLK
  5
F83
  8
0
  0
BLOCK
  8
0
  2
*U22
 70
     1
 10
0.0
 20
0.0
 30
0.0
  3
*U22
  1

  0
SOLID
  5
F85
  8
0
  6
CONTINUOUS
 10
268.58001340918651
 20
758.01805850256414
 30
0.0
 11
268.79214544354249
 21
757.93019053692001
 31
0.0
 12
269.00427747789848
 22
758.01805850256414
 32
0.0
 13
269.00427747789848
 23
758.01805850256414
 33
0.0
210
0.0
220
0.0
230
1.0
  0
SOLID
  5
F86
  8
0
  6
CONTINUOUS
 10
269.09214544354251
 20
758.23019053692008
 30
0.0
 11
268.58001340918651
 21
758.01805850256414
 31
0.0
 12
269.00427747789848
 22
758.01805850256414
 32
0.0
 13
269.00427747789848
 23
758.01805850256414
 33
0.0
210
0.0
220
0.0
230
1.0
  0
SOLID
  5
F87
  8
0
  6
CONTINUOUS
 10
268.49214544354248
 20
758.23019053692008
 30
0.0
 11
268.58001340918651
 21
758.01805850256414
 31
0.0
 12
269.09214544354251
 22
758.23019053692008
 32
0.0
 13
269.09214544354251
 23
758.23019053692008
 33
0.0
210
0.0
220
0.0
230
1.0
  0
SOLID
  5
F88
  8
0
  6
CONTINUOUS
 10
269.00427747789848
 20
758.44232257127601
 30
0.0
 11
268.49214544354248
 21
758.23019053692008
 31
0.0
 12
269.09214544354251
 22
758.23019053692008
 32
0.0
 13
269.09214544354251
 23
758.23019053692008
 33
0.0
210
0.0
220
0.0
230
1.0
  0
SOLID
  5
F89
  8
0
  6
CONTINUOUS
 10
268.58001340918651
 20
758.44232257127601
 30
0.0
 11
268.49214544354248
 21
758.23019053692008
 31
0.0
 12
269.00427747789848
 22
758.44232257127601
 32
0.0
 13
269.00427747789848
 23
758.44232257127601
 33
0.0
210
0.0
220
0.0
230
1.0
  0
SOLID
  5
F8A
  8
0
  6
CONTINUOUS
 10
268.79214544354249
 20
758.53019053692014
 30
0.0
 11
268.58001340918651
 21
758.44232257127601
 31
0.0
 12
269.00427747789848
 22
758.44232257127601
 32
0.0
 13
269.00427747789848
 23
758.44232257127601
 33
0.0
210
0.0
220
0.0
230
1.0
  0
SOLID
  5
F8B
  8
0
  6
CONTINUOUS
 10
268.58001340918651
 20
759.29549233166836
 30
0.0
 11
268.79214544354249
 21
759.20762436602422
 31
0.0
 12
269.00427747789848
 22
759.29549233166836
 32
0.0
 13
269.00427747789848
 23
759.29549233166836
 33
0.0
210
0.0
220
0.0
230
1.0
  0
SOLID
  5
F8C
  8
0
  6
CONTINUOUS
 10
269.09214544354251
 20
759.50762436602417
 30
0.0
 11
268.58001340918651
 21
759.29549233166836
 31
0.0
 12
269.00427747789848
 22
759.29549233166836
 32
0.0
 13
269.00427747789848
 23
759.29549233166836
 33
0.0
210
0.0
220
0.0
230
1.0
  0
SOLID
  5
F8D
  8
0
  6
CONTINUOUS
 10
268.49214544354248
 20
759.50762436602417
 30
0.0
 11
268.58001340918651
 21
759.29549233166836
 31
0.0
 12
269.09214544354251
 22
759.50762436602417
 32
0.0
 13
269.09214544354251
 23
759.50762436602417
 33
0.0
210
0.0
220
0.0
230
1.0
  0
SOLID
  5
F8E
  8
0
  6
CONTINUOUS
 10
269.00427747789848
 20
759.71975640038022
 30
0.0
 11
268.49214544354248
 21
759.50762436602417
 31
0.0
 12
269.09214544354251
 22
759.50762436602417
 32
0.0
 13
269.09214544354251
 23
759.50762436602417
 33
0.0
210
0.0
220
0.0
230
1.0
  0
SOLID
  5
F8F
  8
0
  6
CONTINUOUS
 10
268.58001340918651
 20
759.71975640038022
 30
0.0
 11
268.49214544354248
 21
759.50762436602417
 31
0.0
 12
269.00427747789848
 22
759.71975640038022
 32
0.0
 13
269.00427747789848
 23
759.71975640038022
 33
0.0
210
0.0
220
0.0
230
1.0
  0
SOLID
  5
F90
  8
0
  6
CONTINUOUS
 10
268.79214544354249
 20
759.80762436602436
 30
0.0
 11
268.58001340918651
 21
759.71975640038022
 31
0.0
 12
269.00427747789848
 22
759.71975640038022
 32
0.0
 13
269.00427747789848
 23
759.71975640038022
 33
0.0
210
0.0
220
0.0
230
1.0
  0
SOLID
  5
F91
  8
0
  6
CONTINUOUS
 10
268.58001340918651
 20
761.12284495116614
 30
0.0
 11
268.79214544354249
 21
761.03497698552212
 31
0.0
 12
269.00427747789843
 22
761.12284495116614
 32
0.0
 13
269.00427747789843
 23
761.12284495116614
 33
0.0
210
0.0
220
0.0
230
1.0
  0
SOLID
  5
F92
  8
0
  6
CONTINUOUS
 10
269.09214544354251
 20
761.33497698552196
 30
0.0
 11
268.58001340918651
 21
761.12284495116614
 31
0.0
 12
269.00427747789843
 22
761.12284495116614
 32
0.0
 13
269.00427747789843
 23
761.12284495116614
 33
0.0
  0
SOLID
  5
F93
  8
0
  6
CONTINUOUS
 10
268.49214544354248
 20
761.33497698552196
 30
0.0
 11
268.58001340918651
 21
761.12284495116614
 31
0.0
 12
269.09214544354251
 22
761.33497698552196
 32
0.0
 13
269.09214544354251
 23
761.33497698552196
 33
0.0
210
0.0
220
0.0
230
1.0
  0
SOLID
  5
F94
  8
0
  6
CONTINUOUS
 10
269.00427747789848
 20
761.54710901987801
 30
0.0
 11
268.49214544354248
 21
761.33497698552196
 31
0.0
 12
269.09214544354251
 22
761.33497698552196
 32
0.0
 13
269.09214544354251
 23
761.33497698552196
 33
0.0
  0
SOLID
  5
F95
  8
0
  6
CONTINUOUS
 10
268.58001340918651
 20
761.54710901987801
 30
0.0
 11
268.49214544354248
 21
761.33497698552196
 31
0.0
 12
269.00427747789848
 22
761.54710901987801
 32
0.0
 13
269.00427747789848
 23
761.54710901987801
 33
0.0
210
0.0
220
0.0
230
1.0
  0
SOLID
  5
F96
  8
0
  6
CONTINUOUS
 10
268.79214544354249
 20
761.63497698552214
 30
0.0
 11
268.58001340918651
 21
761.54710901987801
 31
0.0
 12
269.00427747789848
 22
761.54710901987801
 32
0.0
 13
269.00427747789848
 23
761.54710901987801
 33
0.0
210
0.0
220
0.0
230
1.0
  0
SOLID
  5
F97
  8
0
  6
CONTINUOUS
 10
268.58001340918651
 20
762.81805850256399
 30
0.0
 11
268.79214544354249
 21
762.73019053692008
 31
0.0
 12
269.00427747789843
 22
762.81805850256399
 32
0.0
 13
269.00427747789843
 23
762.81805850256399
 33
0.0
210
0.0
220
0.0
230
1.0
  0
SOLID
  5
F98
  8
0
  6
CONTINUOUS
 10
269.09214544354251
 20
763.03019053692003
 30
0.0
 11
268.58001340918651
 21
762.81805850256399
 31
0.0
 12
269.00427747789843
 22
762.81805850256399
 32
0.0
 13
269.00427747789843
 23
762.81805850256399
 33
0.0
  0
SOLID
  5
F99
  8
0
  6
CONTINUOUS
 10
268.49214544354248
 20
763.03019053692003
 30
0.0
 11
268.58001340918651
 21
762.81805850256399
 31
0.0
 12
269.09214544354251
 22
763.03019053692003
 32
0.0
 13
269.09214544354251
 23
763.03019053692003
 33
0.0
210
0.0
220
0.0
230
1.0
  0
SOLID
  5
F9A
  8
0
  6
CONTINUOUS
 10
269.00427747789848
 20
763.24232257127585
 30
0.0
 11
268.49214544354248
 21
763.03019053692003
 31
0.0
 12
269.09214544354251
 22
763.03019053692003
 32
0.0
 13
269.09214544354251
 23
763.03019053692003
 33
0.0
  0
SOLID
  5
F9B
  8
0
  6
CONTINUOUS
 10
268.58001340918651
 20
763.24232257127585
 30
0.0
 11
268.49214544354248
 21
763.03019053692003
 31
0.0
 12
269.00427747789848
 22
763.24232257127585
 32
0.0
 13
269.00427747789848
 23
763.24232257127585
 33
0.0
210
0.0
220
0.0
230
1.0
  0
SOLID
  5
F9C
  8
0
  6
CONTINUOUS
 10
268.79214544354249
 20
763.3301905369201
 30
0.0
 11
268.58001340918651
 21
763.24232257127585
 31
0.0
 12
269.00427747789848
 22
763.24232257127585
 32
0.0
 13
269.00427747789848
 23
763.24232257127585
 33
0.0
210
0.0
220
0.0
230
1.0
  0
SOLID
  5
F9D
  8
0
  6
CONTINUOUS
 10
268.58001340918651
 20
763.9680585025643
 30
0.0
 11
268.79214544354249
 21
763.88019053692017
 31
0.0
 12
269.00427747789848
 22
763.9680585025643
 32
0.0
 13
269.00427747789848
 23
763.9680585025643
 33
0.0
210
0.0
220
0.0
230
1.0
  0
SOLID
  5
F9E
  8
0
  6
CONTINUOUS
 10
269.09214544354251
 20
764.18019053692024
 30
0.0
 11
268.58001340918651
 21
763.9680585025643
 31
0.0
 12
269.00427747789848
 22
763.9680585025643
 32
0.0
 13
269.00427747789848
 23
763.9680585025643
 33
0.0
210
0.0
220
0.0
230
1.0
  0
SOLID
  5
F9F
  8
0
  6
CONTINUOUS
 10
268.49214544354248
 20
764.18019053692024
 30
0.0
 11
268.58001340918651
 21
763.9680585025643
 31
0.0
 12
269.09214544354251
 22
764.18019053692024
 32
0.0
 13
269.09214544354251
 23
764.18019053692024
 33
0.0
210
0.0
220
0.0
230
1.0
  0
SOLID
  5
FA0
  8
0
  6
CONTINUOUS
 10
269.00427747789848
 20
764.39232257127605
 30
0.0
 11
268.49214544354248
 21
764.18019053692024
 31
0.0
 12
269.09214544354251
 22
764.18019053692024
 32
0.0
 13
269.09214544354251
 23
764.18019053692024
 33
0.0
210
0.0
220
0.0
230
1.0
  0
SOLID
  5
FA1
  8
0
  6
CONTINUOUS
 10
268.58001340918651
 20
764.39232257127605
 30
0.0
 11
268.49214544354248
 21
764.18019053692024
 31
0.0
 12
269.00427747789848
 22
764.39232257127605
 32
0.0
 13
269.00427747789848
 23
764.39232257127605
 33
0.0
210
0.0
220
0.0
230
1.0
  0
SOLID
  5
FA2
  8
0
  6
CONTINUOUS
 10
268.79214544354249
 20
764.48019053692019
 30
0.0
 11
268.58001340918651
 21
764.39232257127605
 31
0.0
 12
269.00427747789848
 22
764.39232257127605
 32
0.0
 13
269.00427747789848
 23
764.39232257127605
 33
0.0
210
0.0
220
0.0
230
1.0
  0
ENDBLK
  5
FA4
  8
0
  0
BLOCK
  8
0
  2
*U23
 70
     1
 10
0.0
 20
0.0
 30
0.0
  3
*U23
  1

  0
SOLID
  5
FA6
  8
0
  6
CONTINUOUS
 10
429.52124041052639
 20
757.97970070940403
 30
0.0
 11
429.73337244488232
 21
757.89183274376001
 31
0.0
 12
429.94550447923842
 22
757.97970070940403
 32
0.0
 13
429.94550447923842
 23
757.97970070940403
 33
0.0
210
0.0
220
0.0
230
1.0
  0
SOLID
  5
FA7
  8
0
  6
CONTINUOUS
 10
430.03337244488227
 20
758.19183274375985
 30
0.0
 11
429.52124041052639
 21
757.97970070940403
 31
0.0
 12
429.94550447923842
 22
757.97970070940403
 32
0.0
 13
429.94550447923842
 23
757.97970070940403
 33
0.0
210
0.0
220
0.0
230
1.0
  0
SOLID
  5
FA8
  8
0
  6
CONTINUOUS
 10
429.43337244488231
 20
758.19183274375985
 30
0.0
 11
429.52124041052639
 21
757.97970070940403
 31
0.0
 12
430.03337244488227
 22
758.19183274375985
 32
0.0
 13
430.03337244488227
 23
758.19183274375985
 33
0.0
210
0.0
220
0.0
230
1.0
  0
SOLID
  5
FA9
  8
0
  6
CONTINUOUS
 10
429.94550447923842
 20
758.40396477811589
 30
0.0
 11
429.43337244488231
 21
758.19183274375985
 31
0.0
 12
430.03337244488227
 22
758.19183274375985
 32
0.0
 13
430.03337244488227
 23
758.19183274375985
 33
0.0
210
0.0
220
0.0
230
1.0
  0
SOLID
  5
FAA
  8
0
  6
CONTINUOUS
 10
429.52124041052639
 20
758.40396477811589
 30
0.0
 11
429.43337244488231
 21
758.19183274375985
 31
0.0
 12
429.94550447923842
 22
758.40396477811589
 32
0.0
 13
429.94550447923842
 23
758.40396477811589
 33
0.0
210
0.0
220
0.0
230
1.0
  0
SOLID
  5
FAB
  8
0
  6
CONTINUOUS
 10
429.73337244488232
 20
758.4918327437598
 30
0.0
 11
429.52124041052639
 21
758.40396477811589
 31
0.0
 12
429.94550447923842
 22
758.40396477811589
 32
0.0
 13
429.94550447923842
 23
758.40396477811589
 33
0.0
210
0.0
220
0.0
230
1.0
  0
SOLID
  5
FAC
  8
0
  6
CONTINUOUS
 10
429.52124041052639
 20
759.25686684863183
 30
0.0
 11
429.73337244488232
 21
759.16899888298781
 31
0.0
 12
429.94550447923842
 22
759.25686684863183
 32
0.0
 13
429.94550447923842
 23
759.25686684863183
 33
0.0
210
0.0
220
0.0
230
1.0
  0
SOLID
  5
FAD
  8
0
  6
CONTINUOUS
 10
430.03337244488227
 20
759.46899888298765
 30
0.0
 11
429.52124041052639
 21
759.25686684863183
 31
0.0
 12
429.94550447923842
 22
759.25686684863183
 32
0.0
 13
429.94550447923842
 23
759.25686684863183
 33
0.0
210
0.0
220
0.0
230
1.0
  0
SOLID
  5
FAE
  8
0
  6
CONTINUOUS
 10
429.43337244488231
 20
759.46899888298765
 30
0.0
 11
429.52124041052639
 21
759.25686684863183
 31
0.0
 12
430.03337244488227
 22
759.46899888298765
 32
0.0
 13
430.03337244488227
 23
759.46899888298765
 33
0.0
210
0.0
220
0.0
230
1.0
  0
SOLID
  5
FAF
  8
0
  6
CONTINUOUS
 10
429.94550447923842
 20
759.68113091734358
 30
0.0
 11
429.43337244488231
 21
759.46899888298765
 31
0.0
 12
430.03337244488227
 22
759.46899888298765
 32
0.0
 13
430.03337244488227
 23
759.46899888298765
 33
0.0
210
0.0
220
0.0
230
1.0
  0
SOLID
  5
FB0
  8
0
  6
CONTINUOUS
 10
429.52124041052639
 20
759.68113091734358
 30
0.0
 11
429.43337244488231
 21
759.46899888298765
 31
0.0
 12
429.94550447923842
 22
759.68113091734358
 32
0.0
 13
429.94550447923842
 23
759.68113091734358
 33
0.0
210
0.0
220
0.0
230
1.0
  0
SOLID
  5
FB1
  8
0
  6
CONTINUOUS
 10
429.73337244488232
 20
759.76899888298772
 30
0.0
 11
429.52124041052639
 21
759.68113091734358
 31
0.0
 12
429.94550447923842
 22
759.68113091734358
 32
0.0
 13
429.94550447923842
 23
759.68113091734358
 33
0.0
210
0.0
220
0.0
230
1.0
  0
SOLID
  5
FB2
  8
0
  6
CONTINUOUS
 10
429.52124041052639
 20
761.05593081839061
 30
0.0
 11
429.73337244488232
 21
760.96806285274636
 31
0.0
 12
429.94550447923842
 22
761.05593081839061
 32
0.0
 13
429.94550447923842
 23
761.05593081839061
 33
0.0
210
0.0
220
0.0
230
1.0
  0
SOLID
  5
FB3
  8
0
  6
CONTINUOUS
 10
430.03337244488227
 20
761.26806285274654
 30
0.0
 11
429.52124041052639
 21
761.05593081839061
 31
0.0
 12
429.94550447923842
 22
761.05593081839061
 32
0.0
 13
429.94550447923842
 23
761.05593081839061
 33
0.0
210
0.0
220
0.0
230
1.0
  0
SOLID
  5
FB4
  8
0
  6
CONTINUOUS
 10
429.43337244488231
 20
761.26806285274654
 30
0.0
 11
429.52124041052639
 21
761.05593081839061
 31
0.0
 12
430.03337244488227
 22
761.26806285274654
 32
0.0
 13
430.03337244488227
 23
761.26806285274654
 33
0.0
210
0.0
220
0.0
230
1.0
  0
SOLID
  5
FB5
  8
0
  6
CONTINUOUS
 10
429.94550447923842
 20
761.48019488710247
 30
0.0
 11
429.43337244488231
 21
761.26806285274654
 31
0.0
 12
430.03337244488227
 22
761.26806285274654
 32
0.0
 13
430.03337244488227
 23
761.26806285274654
 33
0.0
210
0.0
220
0.0
230
1.0
  0
SOLID
  5
FB6
  8
0
  6
CONTINUOUS
 10
429.52124041052639
 20
761.48019488710247
 30
0.0
 11
429.43337244488231
 21
761.26806285274654
 31
0.0
 12
429.94550447923842
 22
761.48019488710247
 32
0.0
 13
429.94550447923842
 23
761.48019488710247
 33
0.0
210
0.0
220
0.0
230
1.0
  0
SOLID
  5
FB7
  8
0
  6
CONTINUOUS
 10
429.73337244488232
 20
761.56806285274649
 30
0.0
 11
429.52124041052639
 21
761.48019488710247
 31
0.0
 12
429.94550447923842
 22
761.48019488710247
 32
0.0
 13
429.94550447923842
 23
761.48019488710247
 33
0.0
210
0.0
220
0.0
230
1.0
  0
SOLID
  5
FB8
  8
0
  6
CONTINUOUS
 10
429.52124041052639
 20
762.82131367721706
 30
0.0
 11
429.73337244488232
 21
762.73344571157304
 31
0.0
 12
429.94550447923842
 22
762.82131367721706
 32
0.0
 13
429.94550447923842
 23
762.82131367721706
 33
0.0
210
0.0
220
0.0
230
1.0
  0
SOLID
  5
FB9
  8
0
  6
CONTINUOUS
 10
430.03337244488227
 20
763.03344571157311
 30
0.0
 11
429.52124041052639
 21
762.82131367721706
 31
0.0
 12
429.94550447923842
 22
762.82131367721706
 32
0.0
 13
429.94550447923842
 23
762.82131367721706
 33
0.0
210
0.0
220
0.0
230
1.0
  0
SOLID
  5
FBA
  8
0
  6
CONTINUOUS
 10
429.43337244488231
 20
763.03344571157311
 30
0.0
 11
429.52124041052639
 21
762.82131367721706
 31
0.0
 12
430.03337244488227
 22
763.03344571157311
 32
0.0
 13
430.03337244488227
 23
763.03344571157311
 33
0.0
210
0.0
220
0.0
230
1.0
  0
SOLID
  5
FBB
  8
0
  6
CONTINUOUS
 10
429.94550447923842
 20
763.24557774592904
 30
0.0
 11
429.43337244488231
 21
763.03344571157311
 31
0.0
 12
430.03337244488227
 22
763.03344571157311
 32
0.0
 13
430.03337244488227
 23
763.03344571157311
 33
0.0
210
0.0
220
0.0
230
1.0
  0
SOLID
  5
FBC
  8
0
  6
CONTINUOUS
 10
429.52124041052639
 20
763.24557774592904
 30
0.0
 11
429.43337244488231
 21
763.03344571157311
 31
0.0
 12
429.94550447923842
 22
763.24557774592904
 32
0.0
 13
429.94550447923842
 23
763.24557774592904
 33
0.0
210
0.0
220
0.0
230
1.0
  0
SOLID
  5
FBD
  8
0
  6
CONTINUOUS
 10
429.73337244488232
 20
763.33344571157306
 30
0.0
 11
429.52124041052639
 21
763.24557774592904
 31
0.0
 12
429.94550447923842
 22
763.24557774592904
 32
0.0
 13
429.94550447923842
 23
763.24557774592904
 33
0.0
210
0.0
220
0.0
230
1.0
  0
SOLID
  5
FBE
  8
0
  6
CONTINUOUS
 10
429.52124041052639
 20
763.9680585025643
 30
0.0
 11
429.73337244488232
 21
763.88019053692017
 31
0.0
 12
429.94550447923842
 22
763.9680585025643
 32
0.0
 13
429.94550447923842
 23
763.9680585025643
 33
0.0
210
0.0
220
0.0
230
1.0
  0
SOLID
  5
FBF
  8
0
  6
CONTINUOUS
 10
430.03337244488227
 20
764.18019053692024
 30
0.0
 11
429.52124041052639
 21
763.9680585025643
 31
0.0
 12
429.94550447923842
 22
763.9680585025643
 32
0.0
 13
429.94550447923842
 23
763.9680585025643
 33
0.0
210
0.0
220
0.0
230
1.0
  0
SOLID
  5
FC0
  8
0
  6
CONTINUOUS
 10
429.43337244488231
 20
764.18019053692024
 30
0.0
 11
429.52124041052639
 21
763.9680585025643
 31
0.0
 12
430.03337244488227
 22
764.18019053692024
 32
0.0
 13
430.03337244488227
 23
764.18019053692024
 33
0.0
210
0.0
220
0.0
230
1.0
  0
SOLID
  5
FC1
  8
0
  6
CONTINUOUS
 10
429.94550447923842
 20
764.39232257127605
 30
0.0
 11
429.43337244488231
 21
764.18019053692024
 31
0.0
 12
430.03337244488227
 22
764.18019053692024
 32
0.0
 13
430.03337244488227
 23
764.18019053692024
 33
0.0
210
0.0
220
0.0
230
1.0
  0
SOLID
  5
FC2
  8
0
  6
CONTINUOUS
 10
429.52124041052639
 20
764.39232257127605
 30
0.0
 11
429.43337244488231
 21
764.18019053692024
 31
0.0
 12
429.94550447923842
 22
764.39232257127605
 32
0.0
 13
429.94550447923842
 23
764.39232257127605
 33
0.0
210
0.0
220
0.0
230
1.0
  0
SOLID
  5
FC3
  8
0
  6
CONTINUOUS
 10
429.73337244488232
 20
764.48019053692019
 30
0.0
 11
429.52124041052639
 21
764.39232257127605
 31
0.0
 12
429.94550447923842
 22
764.39232257127605
 32
0.0
 13
429.94550447923842
 23
764.39232257127605
 33
0.0
210
0.0
220
0.0
230
1.0
  0
ENDBLK
  5
FC5
  8
0
  0
BLOCK
  8
0
  2
*U24
 70
     1
 10
0.0
 20
0.0
 30
0.0
  3
*U24
  1

  0
SOLID
  5
FC7
  8
0
  6
CONTINUOUS
 10
607.50803117018324
 20
763.04734782444575
 30
0.0
 11
607.79087388265782
 21
762.93019053692035
 31
0.0
 12
608.07371659513228
 22
763.04734782444575
 32
0.0
 13
608.07371659513228
 23
763.04734782444575
 33
0.0
210
0.0
220
0.0
230
1.0
  0
SOLID
  5
FC8
  8
0
  6
CONTINUOUS
 10
608.1908738826578
 20
763.33019053692033
 30
0.0
 11
607.50803117018324
 21
763.04734782444575
 31
0.0
 12
608.07371659513228
 22
763.04734782444575
 32
0.0
 13
608.07371659513228
 23
763.04734782444575
 33
0.0
210
0.0
220
0.0
230
1.0
  0
SOLID
  5
FC9
  8
0
  6
CONTINUOUS
 10
607.39087388265784
 20
763.33019053692033
 30
0.0
 11
607.50803117018324
 21
763.04734782444575
 31
0.0
 12
608.1908738826578
 22
763.33019053692033
 32
0.0
 13
608.1908738826578
 23
763.33019053692033
 33
0.0
210
0.0
220
0.0
230
1.0
  0
SOLID
  5
FCA
  8
0
  6
CONTINUOUS
 10
608.07371659513228
 20
763.6130332493949
 30
0.0
 11
607.39087388265784
 21
763.33019053692033
 31
0.0
 12
608.1908738826578
 22
763.33019053692033
 32
0.0
 13
608.1908738826578
 23
763.33019053692033
 33
0.0
210
0.0
220
0.0
230
1.0
  0
SOLID
  5
FCB
  8
0
  6
CONTINUOUS
 10
607.50803117018324
 20
763.6130332493949
 30
0.0
 11
607.39087388265784
 21
763.33019053692033
 31
0.0
 12
608.07371659513228
 22
763.6130332493949
 32
0.0
 13
608.07371659513228
 23
763.6130332493949
 33
0.0
210
0.0
220
0.0
230
1.0
  0
SOLID
  5
FCC
  8
0
  6
CONTINUOUS
 10
607.79087388265782
 20
763.7301905369203
 30
0.0
 11
607.50803117018324
 21
763.6130332493949
 31
0.0
 12
608.07371659513228
 22
763.6130332493949
 32
0.0
 13
608.07371659513228
 23
763.6130332493949
 33
0.0
210
0.0
220
0.0
230
1.0
  0
SOLID
  5
FCD
  8
0
  6
CONTINUOUS
 10
607.50803117018324
 20
764.97032085172793
 30
0.0
 11
607.79087388265782
 21
764.85316356420253
 31
0.0
 12
608.07371659513228
 22
764.97032085172793
 32
0.0
 13
608.07371659513228
 23
764.97032085172793
 33
0.0
210
0.0
220
0.0
230
1.0
  0
SOLID
  5
FCE
  8
0
  6
CONTINUOUS
 10
608.1908738826578
 20
765.2531635642024
 30
0.0
 11
607.50803117018324
 21
764.97032085172793
 31
0.0
 12
608.07371659513228
 22
764.97032085172793
 32
0.0
 13
608.07371659513228
 23
764.97032085172793
 33
0.0
210
0.0
220
0.0
230
1.0
  0
SOLID
  5
FCF
  8
0
  6
CONTINUOUS
 10
607.39087388265784
 20
765.2531635642024
 30
0.0
 11
607.50803117018324
 21
764.97032085172793
 31
0.0
 12
608.1908738826578
 22
765.2531635642024
 32
0.0
 13
608.1908738826578
 23
765.2531635642024
 33
0.0
210
0.0
220
0.0
230
1.0
  0
SOLID
  5
FD0
  8
0
  6
CONTINUOUS
 10
608.07371659513228
 20
765.53600627667709
 30
0.0
 11
607.39087388265784
 21
765.2531635642024
 31
0.0
 12
608.1908738826578
 22
765.2531635642024
 32
0.0
 13
608.1908738826578
 23
765.2531635642024
 33
0.0
210
0.0
220
0.0
230
1.0
  0
SOLID
  5
FD1
  8
0
  6
CONTINUOUS
 10
607.50803117018324
 20
765.53600627667709
 30
0.0
 11
607.39087388265784
 21
765.2531635642024
 31
0.0
 12
608.07371659513228
 22
765.53600627667709
 32
0.0
 13
608.07371659513228
 23
765.53600627667709
 33
0.0
210
0.0
220
0.0
230
1.0
  0
SOLID
  5
FD2
  8
0
  6
CONTINUOUS
 10
607.79087388265782
 20
765.65316356420249
 30
0.0
 11
607.50803117018324
 21
765.53600627667709
 31
0.0
 12
608.07371659513228
 22
765.53600627667709
 32
0.0
 13
608.07371659513228
 23
765.53600627667709
 33
0.0
210
0.0
220
0.0
230
1.0
  0
SOLID
  5
FD3
  8
0
  6
CONTINUOUS
 10
607.50803117018324
 20
767.49315528056593
 30
0.0
 11
607.79087388265782
 21
767.37599799304053
 31
0.0
 12
608.07371659513228
 22
767.49315528056593
 32
0.0
 13
608.07371659513228
 23
767.49315528056593
 33
0.0
210
0.0
220
0.0
230
1.0
  0
SOLID
  5
FD4
  8
0
  6
CONTINUOUS
 10
608.1908738826578
 20
767.77599799304051
 30
0.0
 11
607.50803117018324
 21
767.49315528056593
 31
0.0
 12
608.07371659513228
 22
767.49315528056593
 32
0.0
 13
608.07371659513228
 23
767.49315528056593
 33
0.0
210
0.0
220
0.0
230
1.0
  0
SOLID
  5
FD5
  8
0
  6
CONTINUOUS
 10
607.39087388265784
 20
767.77599799304051
 30
0.0
 11
607.50803117018324
 21
767.49315528056593
 31
0.0
 12
608.1908738826578
 22
767.77599799304051
 32
0.0
 13
608.1908738826578
 23
767.77599799304051
 33
0.0
210
0.0
220
0.0
230
1.0
  0
SOLID
  5
FD6
  8
0
  6
CONTINUOUS
 10
608.07371659513228
 20
768.05884070551497
 30
0.0
 11
607.39087388265784
 21
767.77599799304051
 31
0.0
 12
608.1908738826578
 22
767.77599799304051
 32
0.0
 13
608.1908738826578
 23
767.77599799304051
 33
0.0
210
0.0
220
0.0
230
1.0
  0
SOLID
  5
FD7
  8
0
  6
CONTINUOUS
 10
607.50803117018324
 20
768.05884070551497
 30
0.0
 11
607.39087388265784
 21
767.77599799304051
 31
0.0
 12
608.07371659513228
 22
768.05884070551497
 32
0.0
 13
608.07371659513228
 23
768.05884070551497
 33
0.0
210
0.0
220
0.0
230
1.0
  0
SOLID
  5
FD8
  8
0
  6
CONTINUOUS
 10
607.79087388265782
 20
768.17599799304037
 30
0.0
 11
607.50803117018324
 21
768.05884070551497
 31
0.0
 12
608.07371659513228
 22
768.05884070551497
 32
0.0
 13
608.07371659513228
 23
768.05884070551497
 33
0.0
210
0.0
220
0.0
230
1.0
  0
SOLID
  5
FD9
  8
0
  6
CONTINUOUS
 10
607.50803117018324
 20
770.00892548408081
 30
0.0
 11
607.79087388265782
 21
769.8917681965554
 31
0.0
 12
608.07371659513228
 22
770.00892548408081
 32
0.0
 13
608.07371659513228
 23
770.00892548408081
 33
0.0
210
0.0
220
0.0
230
1.0
  0
SOLID
  5
FDA
  8
0
  6
CONTINUOUS
 10
608.1908738826578
 20
770.29176819655527
 30
0.0
 11
607.50803117018324
 21
770.00892548408081
 31
0.0
 12
608.07371659513228
 22
770.00892548408081
 32
0.0
 13
608.07371659513228
 23
770.00892548408081
 33
0.0
210
0.0
220
0.0
230
1.0
  0
SOLID
  5
FDB
  8
0
  6
CONTINUOUS
 10
607.39087388265784
 20
770.29176819655527
 30
0.0
 11
607.50803117018324
 21
770.00892548408081
 31
0.0
 12
608.1908738826578
 22
770.29176819655527
 32
0.0
 13
608.1908738826578
 23
770.29176819655527
 33
0.0
210
0.0
220
0.0
230
1.0
  0
SOLID
  5
FDC
  8
0
  6
CONTINUOUS
 10
608.07371659513228
 20
770.57461090902984
 30
0.0
 11
607.39087388265784
 21
770.29176819655527
 31
0.0
 12
608.1908738826578
 22
770.29176819655527
 32
0.0
 13
608.1908738826578
 23
770.29176819655527
 33
0.0
210
0.0
220
0.0
230
1.0
  0
SOLID
  5
FDD
  8
0
  6
CONTINUOUS
 10
607.50803117018324
 20
770.57461090902984
 30
0.0
 11
607.39087388265784
 21
770.29176819655527
 31
0.0
 12
608.07371659513228
 22
770.57461090902984
 32
0.0
 13
608.07371659513228
 23
770.57461090902984
 33
0.0
210
0.0
220
0.0
230
1.0
  0
SOLID
  5
FDE
  8
0
  6
CONTINUOUS
 10
607.79087388265782
 20
770.69176819655536
 30
0.0
 11
607.50803117018324
 21
770.57461090902984
 31
0.0
 12
608.07371659513228
 22
770.57461090902984
 32
0.0
 13
608.07371659513228
 23
770.57461090902984
 33
0.0
210
0.0
220
0.0
230
1.0
  0
SOLID
  5
FDF
  8
0
  6
CONTINUOUS
 10
607.50803117018324
 20
771.44734782444584
 30
0.0
 11
607.79087388265782
 21
771.33019053692044
 31
0.0
 12
608.07371659513228
 22
771.44734782444584
 32
0.0
 13
608.07371659513228
 23
771.44734782444584
 33
0.0
210
0.0
220
0.0
230
1.0
  0
SOLID
  5
FE0
  8
0
  6
CONTINUOUS
 10
608.1908738826578
 20
771.73019053692042
 30
0.0
 11
607.50803117018324
 21
771.44734782444584
 31
0.0
 12
608.07371659513228
 22
771.44734782444584
 32
0.0
 13
608.07371659513228
 23
771.44734782444584
 33
0.0
210
0.0
220
0.0
230
1.0
  0
SOLID
  5
FE1
  8
0
  6
CONTINUOUS
 10
607.39087388265784
 20
771.73019053692042
 30
0.0
 11
607.50803117018324
 21
771.44734782444584
 31
0.0
 12
608.1908738826578
 22
771.73019053692042
 32
0.0
 13
608.1908738826578
 23
771.73019053692042
 33
0.0
210
0.0
220
0.0
230
1.0
  0
SOLID
  5
FE2
  8
0
  6
CONTINUOUS
 10
608.07371659513228
 20
772.01303324939488
 30
0.0
 11
607.39087388265784
 21
771.73019053692042
 31
0.0
 12
608.1908738826578
 22
771.73019053692042
 32
0.0
 13
608.1908738826578
 23
771.73019053692042
 33
0.0
210
0.0
220
0.0
230
1.0
  0
SOLID
  5
FE3
  8
0
  6
CONTINUOUS
 10
607.50803117018324
 20
772.01303324939488
 30
0.0
 11
607.39087388265784
 21
771.73019053692042
 31
0.0
 12
608.07371659513228
 22
772.01303324939488
 32
0.0
 13
608.07371659513228
 23
772.01303324939488
 33
0.0
210
0.0
220
0.0
230
1.0
  0
SOLID
  5
FE4
  8
0
  6
CONTINUOUS
 10
607.79087388265782
 20
772.1301905369204
 30
0.0
 11
607.50803117018324
 21
772.01303324939488
 31
0.0
 12
608.07371659513228
 22
772.01303324939488
 32
0.0
 13
608.07371659513228
 23
772.01303324939488
 33
0.0
210
0.0
220
0.0
230
1.0
  0
ENDBLK
  5
FE6
  8
0
  0
BLOCK
  8
0
  2
*X25
 70
     1
 10
0.0
 20
0.0
 30
0.0
  3
*X25
  1

  0
LINE
  5
FE8
  8
0
 62
     0
 10
125.9465450341696
 20
748.03743651240313
 30
0.0
 11
125.5537910096525
 21
748.43019053692024
 31
0.0
  0
LINE
  5
FE9
  8
0
 62
     0
 10
125.9465450341696
 20
746.62322295003003
 30
0.0
 11
125.1965450341697
 21
747.37322295002991
 31
0.0
  0
LINE
  5
FEA
  8
0
 62
     0
 10
125.9465450341697
 20
745.20900938765669
 30
0.0
 11
125.1965450341697
 21
745.95900938765681
 31
0.0
  0
LINE
  5
FEB
  8
0
 62
     0
 10
125.9465450341697
 20
743.79479582528381
 30
0.0
 11
124.1965450341696
 21
745.54479582528393
 31
0.0
  0
LINE
  5
FEC
  8
0
 62
     0
 10
125.9465450341697
 20
742.38058226291059
 30
0.0
 11
124.1965450341697
 21
744.13058226291059
 31
0.0
  0
LINE
  5
FED
  8
0
 62
     0
 10
125.9465450341697
 20
740.9663687005376
 30
0.0
 11
124.1965450341697
 21
742.7163687005376
 31
0.0
  0
LINE
  5
FEE
  8
0
 62
     0
 10
125.9465450341697
 20
739.55215513816438
 30
0.0
 11
124.1965450341697
 21
741.30215513816438
 31
0.0
  0
LINE
  5
FEF
  8
0
 62
     0
 10
125.9465450341697
 20
738.13794157579139
 30
0.0
 11
124.1965450341697
 21
739.88794157579139
 31
0.0
  0
LINE
  5
FF0
  8
0
 62
     0
 10
125.9465450341696
 20
736.72372801341828
 30
0.0
 11
124.1965450341697
 21
738.47372801341817
 31
0.0
  0
LINE
  5
FF1
  8
0
 62
     0
 10
125.9465450341696
 20
735.30951445104529
 30
0.0
 11
124.1965450341696
 21
737.05951445104529
 31
0.0
  0
LINE
  5
FF2
  8
0
 62
     0
 10
125.9465450341696
 20
733.89530088867207
 30
0.0
 11
124.1965450341696
 21
735.64530088867207
 31
0.0
  0
LINE
  5
FF3
  8
0
 62
     0
 10
125.9465450341696
 20
732.48108732629908
 30
0.0
 11
124.1965450341696
 21
734.23108732629908
 31
0.0
  0
LINE
  5
FF4
  8
0
 62
     0
 10
125.7832282611754
 20
731.23019053692019
 30
0.0
 11
124.1965450341696
 21
732.81687376392586
 31
0.0
  0
LINE
  5
FF5
  8
0
 62
     0
 10
124.3690146988023
 20
731.23019053692019
 30
0.0
 11
124.1965450341696
 21
731.40266020155286
 31
0.0
  0
LINE
  5
FF6
  8
0
 62
     0
 10
124.5325722788625
 20
731.23019053692019
 30
0.0
 11
125.9465450341696
 21
732.64416329222706
 31
0.0
  0
LINE
  5
FF7
  8
0
 62
     0
 10
124.1965450341697
 20
732.3083768546004
 30
0.0
 11
125.9465450341697
 21
734.05837685460028
 31
0.0
  0
LINE
  5
FF8
  8
0
 62
     0
 10
124.1965450341697
 20
733.72259041697339
 30
0.0
 11
125.9465450341696
 21
735.47259041697328
 31
0.0
  0
LINE
  5
FF9
  8
0
 62
     0
 10
124.1965450341697
 20
735.13680397934661
 30
0.0
 11
125.9465450341696
 21
736.8868039793465
 31
0.0
  0
LINE
  5
FFA
  8
0
 62
     0
 10
124.1965450341697
 20
736.55101754171972
 30
0.0
 11
125.9465450341696
 21
738.30101754171949
 31
0.0
  0
LINE
  5
FFB
  8
0
 62
     0
 10
124.1965450341697
 20
737.96523110409271
 30
0.0
 11
125.9465450341696
 21
739.71523110409271
 31
0.0
  0
LINE
  5
FFC
  8
0
 62
     0
 10
124.1965450341697
 20
739.3794446664657
 30
0.0
 11
125.9465450341696
 21
741.1294446664657
 31
0.0
  0
LINE
  5
FFD
  8
0
 62
     0
 10
124.1965450341696
 20
740.79365822883892
 30
0.0
 11
125.9465450341696
 21
742.54365822883892
 31
0.0
  0
LINE
  5
FFE
  8
0
 62
     0
 10
124.1965450341696
 20
742.20787179121203
 30
0.0
 11
125.9465450341696
 21
743.95787179121191
 31
0.0
  0
LINE
  5
FFF
  8
0
 62
     0
 10
124.1965450341696
 20
743.62208535358513
 30
0.0
 11
125.9465450341696
 21
745.37208535358513
 31
0.0
  0
LINE
  5
1000
  8
0
 62
     0
 10
125.1965450341696
 20
746.03629891595824
 30
0.0
 11
125.9465450341696
 21
746.78629891595824
 31
0.0
  0
LINE
  5
1001
  8
0
 62
     0
 10
124.1965450341696
 20
745.03629891595824
 30
0.0
 11
124.7904366551316
 21
745.63019053692005
 31
0.0
  0
LINE
  5
1002
  8
0
 62
     0
 10
125.1965450341697
 20
747.45051247833135
 30
0.0
 11
125.9465450341697
 21
748.20051247833135
 31
0.0
  0
ENDBLK
  5
1004
  8
0
  0
BLOCK
  8
0
  2
*X26
 70
     1
 10
0.0
 20
0.0
 30
0.0
  3
*X26
  1

  0
LINE
  5
1006
  8
0
 62
     0
 10
266.89214544354252
 20
754.17004658983205
 30
0.0
 11
266.14214544354252
 21
754.92004658983205
 31
0.0
  0
LINE
  5
1007
  8
0
 62
     0
 10
266.89214544354252
 20
752.75583302745895
 30
0.0
 11
266.14214544354252
 21
753.50583302745906
 31
0.0
  0
LINE
  5
1008
  8
0
 62
     0
 10
266.89214544354252
 20
751.34161946508596
 30
0.0
 11
266.10357437170819
 21
752.13019053692017
 31
0.0
  0
LINE
  5
1009
  8
0
 62
     0
 10
266.89214544354252
 20
749.92740590271285
 30
0.0
 11
264.68936080933503
 21
752.13019053692017
 31
0.0
  0
LINE
  5
100A
  8
0
 62
     0
 10
266.89214544354252
 20
748.51319234033963
 30
0.0
 11
264.64214544354252
 21
750.76319234033974
 31
0.0
  0
LINE
  5
100B
  8
0
 62
     0
 10
266.89214544354257
 20
747.09897877796641
 30
0.0
 11
264.64214544354252
 21
749.34897877796664
 31
0.0
  0
LINE
  5
100C
  8
0
 62
     0
 10
266.89214544354257
 20
745.68476521559342
 30
0.0
 11
264.64214544354252
 21
747.93476521559353
 31
0.0
  0
LINE
  5
100D
  8
0
 62
     0
 10
266.89214544354257
 20
744.2705516532202
 30
0.0
 11
264.64214544354252
 21
746.52055165322042
 31
0.0
  0
LINE
  5
100E
  8
0
 62
     0
 10
266.89214544354257
 20
742.85633809084732
 30
0.0
 11
264.64214544354252
 21
745.10633809084732
 31
0.0
  0
LINE
  5
100F
  8
0
 62
     0
 10
266.89214544354252
 20
741.44212452847432
 30
0.0
 11
264.64214544354252
 21
743.69212452847432
 31
0.0
  0
LINE
  5
1010
  8
0
 62
     0
 10
266.89214544354252
 20
740.02791096610122
 30
0.0
 11
264.64214544354252
 21
742.27791096610122
 31
0.0
  0
LINE
  5
1011
  8
0
 62
     0
 10
266.89214544354252
 20
738.61369740372811
 30
0.0
 11
263.29214544354238
 21
742.21369740372825
 31
0.0
  0
LINE
  5
1012
  8
0
 62
     0
 10
266.89214544354252
 20
737.199483841355
 30
0.0
 11
263.29214544354238
 21
740.79948384135514
 31
0.0
  0
LINE
  5
1013
  8
0
 62
     0
 10
263.44722518560422
 20
739.23019053692008
 30
0.0
 11
263.29214544354238
 21
739.38527027898192
 31
0.0
  0
LINE
  5
1014
  8
0
 62
     0
 10
266.89214544354252
 20
735.7852702789819
 30
0.0
 11
264.64214544354252
 21
738.0352702789819
 31
0.0
  0
LINE
  5
1015
  8
0
 62
     0
 10
266.89214544354252
 20
734.37105671660879
 30
0.0
 11
264.64214544354252
 21
736.62105671660879
 31
0.0
  0
LINE
  5
1016
  8
0
 62
     0
 10
266.89214544354257
 20
732.95684315423557
 30
0.0
 11
264.6421454435424
 21
735.2068431542358
 31
0.0
  0
LINE
  5
1017
  8
0
 62
     0
 10
266.89214544354252
 20
731.54262959186258
 30
0.0
 11
264.6421454435424
 21
733.79262959186258
 31
0.0
  0
LINE
  5
1018
  8
0
 62
     0
 10
265.79037093611191
 20
731.23019053692019
 30
0.0
 11
264.6421454435424
 21
732.37841602948959
 31
0.0
  0
LINE
  5
1019
  8
0
 62
     0
 10
265.95392851617203
 20
731.23019053692019
 30
0.0
 11
266.89214544354252
 21
732.16840746429068
 31
0.0
  0
LINE
  5
101A
  8
0
 62
     0
 10
264.64214544354252
 20
731.33262102666367
 30
0.0
 11
266.89214544354252
 21
733.58262102666367
 31
0.0
  0
LINE
  5
101B
  8
0
 62
     0
 10
264.64214544354257
 20
732.74683458903689
 30
0.0
 11
266.89214544354252
 21
734.99683458903689
 31
0.0
  0
LINE
  5
101C
  8
0
 62
     0
 10
264.64214544354252
 20
734.16104815140989
 30
0.0
 11
266.89214544354252
 21
736.41104815140989
 31
0.0
  0
LINE
  5
101D
  8
0
 62
     0
 10
264.64214544354252
 20
735.57526171378299
 30
0.0
 11
266.89214544354252
 21
737.82526171378299
 31
0.0
  0
LINE
  5
101E
  8
0
 62
     0
 10
264.64214544354252
 20
736.9894752761561
 30
0.0
 11
266.8921454435424
 21
739.23947527615599
 31
0.0
  0
LINE
  5
101F
  8
0
 62
     0
 10
264.64214544354252
 20
738.40368883852921
 30
0.0
 11
266.89214544354252
 21
740.65368883852921
 31
0.0
  0
LINE
  5
1020
  8
0
 62
     0
 10
264.0544335795604
 20
739.23019053692008
 30
0.0
 11
266.89214544354252
 21
742.06790240090231
 31
0.0
  0
LINE
  5
1021
  8
0
 62
     0
 10
263.29214544354249
 20
739.88211596327528
 30
0.0
 11
266.89214544354252
 21
743.48211596327542
 31
0.0
  0
LINE
  5
1022
  8
0
 62
     0
 10
264.6421454435424
 20
742.64632952564841
 30
0.0
 11
266.89214544354252
 21
744.89632952564853
 31
0.0
  0
LINE
  5
1023
  8
0
 62
     0
 10
263.29214544354249
 20
741.2963295256485
 30
0.0
 11
264.2260064548143
 21
742.23019053692019
 31
0.0
  0
LINE
  5
1024
  8
0
 62
     0
 10
264.6421454435424
 20
744.06054308802152
 30
0.0
 11
266.89214544354252
 21
746.31054308802163
 31
0.0
  0
LINE
  5
1025
  8
0
 62
     0
 10
264.64214544354252
 20
745.47475665039474
 30
0.0
 11
266.89214544354252
 21
747.72475665039474
 31
0.0
  0
LINE
  5
1026
  8
0
 62
     0
 10
264.64214544354257
 20
746.88897021276784
 30
0.0
 11
266.89214544354252
 21
749.13897021276773
 31
0.0
  0
LINE
  5
1027
  8
0
 62
     0
 10
264.64214544354252
 20
748.30318377514095
 30
0.0
 11
266.89214544354252
 21
750.55318377514084
 31
0.0
  0
LINE
  5
1028
  8
0
 62
     0
 10
264.64214544354252
 20
749.71739733751394
 30
0.0
 11
266.89214544354252
 21
751.96739733751383
 31
0.0
  0
LINE
  5
1029
  8
0
 62
     0
 10
266.14214544354252
 20
752.63161089988705
 30
0.0
 11
266.8921454435424
 21
753.38161089988694
 31
0.0
  0
LINE
  5
102A
  8
0
 62
     0
 10
264.64214544354252
 20
751.13161089988716
 30
0.0
 11
265.64072508057569
 21
752.13019053692017
 31
0.0
  0
LINE
  5
102B
  8
0
 62
     0
 10
266.14214544354252
 20
754.04582446226004
 30
0.0
 11
266.89214544354252
 21
754.79582446226004
 31
0.0
  0
ENDBLK
  5
102D
  8
0
  0
BLOCK
  8
0
  2
*X27
 70
     1
 10
0.0
 20
0.0
 30
0.0
  3
*X27
  1

  0
LINE
  5
102F
  8
0
 62
     0
 10
427.93337244488242
 20
753.64205891783831
 30
0.0
 11
426.3452408258006
 21
755.2301905369203
 31
0.0
  0
LINE
  5
1030
  8
0
 62
     0
 10
427.93337244488242
 20
751.52073857427888
 30
0.0
 11
426.03337244488239
 21
753.42073857427897
 31
0.0
  0
LINE
  5
1031
  8
0
 62
     0
 10
427.93337244488231
 20
749.39941823071922
 30
0.0
 11
425.60260013868128
 21
751.7301905369203
 31
0.0
  0
LINE
  5
1032
  8
0
 62
     0
 10
427.93337244488242
 20
747.27809788715967
 30
0.0
 11
425.43337244488231
 21
749.77809788715956
 31
0.0
  0
LINE
  5
1033
  8
0
 62
     0
 10
427.9333724448822
 20
745.15677754360001
 30
0.0
 11
425.43337244488231
 21
747.6567775435999
 31
0.0
  0
LINE
  5
1034
  8
0
 62
     0
 10
427.9333724448822
 20
743.03545720004036
 30
0.0
 11
425.43337244488242
 21
745.53545720004036
 31
0.0
  0
LINE
  5
1035
  8
0
 62
     0
 10
427.93337244488231
 20
740.9141368564807
 30
0.0
 11
425.43337244488248
 21
743.4141368564807
 31
0.0
  0
LINE
  5
1036
  8
0
 62
     0
 10
427.93337244488231
 20
738.79281651292104
 30
0.0
 11
424.49599842088321
 21
742.23019053692008
 31
0.0
  0
LINE
  5
1037
  8
0
 62
     0
 10
425.27467807732347
 20
739.33019053692033
 30
0.0
 11
424.28337244488227
 21
740.32149616936135
 31
0.0
  0
LINE
  5
1038
  8
0
 62
     0
 10
427.93337244488242
 20
736.67149616936149
 30
0.0
 11
425.43337244488231
 21
739.17149616936138
 31
0.0
  0
LINE
  5
1039
  8
0
 62
     0
 10
427.9333724448822
 20
734.55017582580183
 30
0.0
 11
425.68337244488231
 21
736.80017582580172
 31
0.0
  0
LINE
  5
103A
  8
0
 62
     0
 10
427.93337244488231
 20
732.42885548224206
 30
0.0
 11
425.68337244488231
 21
734.67885548224206
 31
0.0
  0
LINE
  5
103B
  8
0
 62
     0
 10
427.01071704664452
 20
731.23019053692019
 30
0.0
 11
425.68337244488231
 21
732.5575351386824
 31
0.0
  0
LINE
  5
103C
  8
0
 62
     0
 10
427.88138140789141
 20
731.2301905369203
 30
0.0
 11
427.9333724448822
 21
731.28218157391109
 31
0.0
  0
LINE
  5
103D
  8
0
 62
     0
 10
425.76006106433181
 20
731.23019053692019
 30
0.0
 11
427.9333724448822
 21
733.40350191747075
 31
0.0
  0
LINE
  5
103E
  8
0
 62
     0
 10
425.68337244488231
 20
733.27482226103052
 30
0.0
 11
427.9333724448822
 21
735.52482226103029
 31
0.0
  0
LINE
  5
103F
  8
0
 62
     0
 10
425.68337244488231
 20
735.39614260458995
 30
0.0
 11
427.9333724448822
 21
737.64614260458995
 31
0.0
  0
LINE
  5
1040
  8
0
 62
     0
 10
425.68337244488242
 20
737.51746294814984
 30
0.0
 11
427.93337244488231
 21
739.76746294814961
 31
0.0
  0
LINE
  5
1041
  8
0
 62
     0
 10
425.37477969009331
 20
739.33019053692033
 30
0.0
 11
427.9333724448822
 21
741.88878329170927
 31
0.0
  0
LINE
  5
1042
  8
0
 62
     0
 10
424.28337244488222
 20
740.36010363526884
 30
0.0
 11
427.9333724448822
 21
744.01010363526893
 31
0.0
  0
LINE
  5
1043
  8
0
 62
     0
 10
425.43337244488242
 20
743.63142397882871
 30
0.0
 11
427.9333724448822
 21
746.13142397882848
 31
0.0
  0
LINE
  5
1044
  8
0
 62
     0
 10
425.43337244488231
 20
745.75274432238825
 30
0.0
 11
427.93337244488231
 21
748.25274432238825
 31
0.0
  0
LINE
  5
1045
  8
0
 62
     0
 10
425.43337244488231
 20
747.87406466594791
 30
0.0
 11
427.9333724448822
 21
750.37406466594803
 31
0.0
  0
LINE
  5
1046
  8
0
 62
     0
 10
425.43337244488231
 20
749.99538500950746
 30
0.0
 11
427.93337244488242
 21
752.49538500950769
 31
0.0
  0
LINE
  5
1047
  8
0
 62
     0
 10
426.0333724448825
 20
752.71670535306725
 30
0.0
 11
427.93337244488242
 21
754.61670535306735
 31
0.0
  0
LINE
  5
1048
  8
0
 62
     0
 10
426.03337244488227
 20
754.83802569662691
 30
0.0
 11
426.42553728517578
 21
755.23019053692042
 31
0.0
  0
ENDBLK
  5
104A
  8
0
  0
BLOCK
  8
0
  2
*X28
 70
     1
 10
0.0
 20
0.0
 30
0.0
  3
*X28
  1

  0
LINE
  5
104C
  8
0
 62
     0
 10
606.20728774333293
 20
759.9230135090769
 30
0.0
 11
605.90011071548952
 21
760.2301905369203
 31
0.0
  0
LINE
  5
104D
  8
0
 62
     0
 10
606.20728774333304
 20
757.80169316551724
 30
0.0
 11
603.9572877433335
 21
760.05169316551667
 31
0.0
  0
LINE
  5
104E
  8
0
 62
     0
 10
606.20728774333304
 20
755.68037282195735
 30
0.0
 11
603.9572877433335
 21
757.93037282195701
 31
0.0
  0
LINE
  5
104F
  8
0
 62
     0
 10
606.20728774333315
 20
753.5590524783978
 30
0.0
 11
603.03614968481065
 21
756.7301905369203
 31
0.0
  0
LINE
  5
1050
  8
0
 62
     0
 10
606.20728774333315
 20
751.43773213483814
 30
0.0
 11
602.70728774333361
 21
754.93773213483757
 31
0.0
  0
LINE
  5
1051
  8
0
 62
     0
 10
606.20728774333315
 20
749.31641179127837
 30
0.0
 11
602.70728774333372
 21
752.81641179127791
 31
0.0
  0
LINE
  5
1052
  8
0
 62
     0
 10
606.20728774333315
 20
747.1950914477186
 30
0.0
 11
602.70728774333384
 21
750.69509144771814
 31
0.0
  0
LINE
  5
1053
  8
0
 62
     0
 10
606.20728774333315
 20
745.07377110415905
 30
0.0
 11
602.70728774333384
 21
748.57377110415848
 31
0.0
  0
LINE
  5
1054
  8
0
 62
     0
 10
606.20728774333315
 20
742.9524507605995
 30
0.0
 11
602.70728774333384
 21
746.45245076059894
 31
0.0
  0
LINE
  5
1055
  8
0
 62
     0
 10
606.20728774333327
 20
740.83113041703973
 30
0.0
 11
602.30822762345281
 21
744.73019053692019
 31
0.0
  0
LINE
  5
1056
  8
0
 62
     0
 10
606.20728774333327
 20
738.70981007347996
 30
0.0
 11
601.70728774333361
 21
743.20981007347984
 31
0.0
  0
LINE
  5
1057
  8
0
 62
     0
 10
602.0655869363336
 20
740.73019053692019
 30
0.0
 11
601.70728774333372
 21
741.08848972991996
 31
0.0
  0
LINE
  5
1058
  8
0
 62
     0
 10
606.2072877433335
 20
736.5884897299203
 30
0.0
 11
602.70728774333372
 21
740.08848972991996
 31
0.0
  0
LINE
  5
1059
  8
0
 62
     0
 10
606.2072877433335
 20
734.46716938636064
 30
0.0
 11
602.70728774333361
 21
737.96716938636052
 31
0.0
  0
LINE
  5
105A
  8
0
 62
     0
 10
606.20728774333361
 20
732.34584904280075
 30
0.0
 11
602.70728774333372
 21
735.84584904280075
 31
0.0
  0
LINE
  5
105B
  8
0
 62
     0
 10
605.2016259056544
 20
731.23019053692042
 30
0.0
 11
602.70728774333361
 21
733.7245286992412
 31
0.0
  0
LINE
  5
105C
  8
0
 62
     0
 10
603.08030556209485
 20
731.23019053692042
 30
0.0
 11
602.70728774333372
 21
731.60320835568155
 31
0.0
  0
LINE
  5
105D
  8
0
 62
     0
 10
606.07229026690163
 20
731.23019053692042
 30
0.0
 11
606.2072877433335
 21
731.36518801335217
 31
0.0
  0
LINE
  5
105E
  8
0
 62
     0
 10
603.95096992334197
 20
731.23019053692042
 30
0.0
 11
606.2072877433335
 21
733.48650835691194
 31
0.0
  0
LINE
  5
105F
  8
0
 62
     0
 10
602.70728774333361
 20
732.1078287004716
 30
0.0
 11
606.20728774333327
 21
735.60782870047149
 31
0.0
  0
LINE
  5
1060
  8
0
 62
     0
 10
602.70728774333361
 20
734.22914904403115
 30
0.0
 11
606.20728774333327
 21
737.72914904403115
 31
0.0
  0
LINE
  5
1061
  8
0
 62
     0
 10
602.70728774333361
 20
736.35046938759103
 30
0.0
 11
606.20728774333327
 21
739.85046938759069
 31
0.0
  0
LINE
  5
1062
  8
0
 62
     0
 10
602.70728774333361
 20
738.47178973115058
 30
0.0
 11
606.20728774333327
 21
741.97178973115035
 31
0.0
  0
LINE
  5
1063
  8
0
 62
     0
 10
602.70728774333361
 20
740.59311007471035
 30
0.0
 11
606.20728774333315
 21
744.0931100747099
 31
0.0
  0
LINE
  5
1064
  8
0
 62
     0
 10
601.70728774333361
 20
741.71443041826979
 30
0.0
 11
606.20728774333315
 21
746.21443041826944
 31
0.0
  0
LINE
  5
1065
  8
0
 62
     0
 10
602.70728774333395
 20
744.83575076182979
 30
0.0
 11
606.20728774333315
 21
748.3357507618291
 31
0.0
  0
LINE
  5
1066
  8
0
 62
     0
 10
601.70728774333361
 20
743.83575076182944
 30
0.0
 11
602.60172751842435
 21
744.73019053692042
 31
0.0
  0
LINE
  5
1067
  8
0
 62
     0
 10
602.70728774333372
 20
746.95707110538933
 30
0.0
 11
606.20728774333315
 21
750.45707110538865
 31
0.0
  0
LINE
  5
1068
  8
0
 62
     0
 10
602.70728774333384
 20
749.07839144894888
 30
0.0
 11
606.20728774333315
 21
752.5783914489482
 31
0.0
  0
LINE
  5
1069
  8
0
 62
     0
 10
602.70728774333361
 20
751.19971179250865
 30
0.0
 11
606.20728774333304
 21
754.69971179250786
 31
0.0
  0
LINE
  5
106A
  8
0
 62
     0
 10
602.70728774333372
 20
753.3210321360682
 30
0.0
 11
606.20728774333304
 21
756.82103213606763
 31
0.0
  0
LINE
  5
106B
  8
0
 62
     0
 10
602.70728774333361
 20
755.44235247962774
 30
0.0
 11
606.20728774333315
 21
758.94235247962729
 31
0.0
  0
LINE
  5
106C
  8
0
 62
     0
 10
603.9572877433335
 20
758.81367282318729
 30
0.0
 11
605.37380545706651
 21
760.2301905369203
 31
0.0
  0
ENDBLK
  5
106E
  8
0
  0
ENDSEC
  0
SECTION
  2
ENTITIES
  0
CIRCLE
  5
2EC
  8
0
 10
429.73337244488232
 20
761.26806285274654
 30
0.0
 40
0.3
  0
CIRCLE
  5
2ED
  8
0
 10
429.73337244488232
 20
759.46899888298765
 30
0.0
 40
0.3
  0
LINE
  5
2EE
  8
0
 10
430.43337244488231
 20
755.2301905369203
 30
0.0
 11
430.43337244488231
 21
763.2301905369203
 31
0.0
  0
LINE
  5
2EF
  8
0
 10
425.43337244488231
 20
742.23019053692019
 30
0.0
 11
425.43337244488231
 21
751.73019053692008
 31
0.0
1001
ACAD
1000
ASC_BOUNDS
1002
{
1070
    19
1005
A4F
1002
}
  0
LINE
  5
2F0
  8
0
 10
425.68337244488231
 20
731.2301905369203
 30
0.0
 11
440.18337244488231
 21
731.23019053692019
 31
0.0
1001
ACAD
1000
ASC_BOUNDS
1002
{
1070
    19
1005
A4F
1002
}
  0
LINE
  5
2F1
  8
0
 10
425.43337244488231
 20
751.7301905369203
 30
0.0
 11
426.03337244488227
 21
751.73019053692008
 31
0.0
1001
ACAD
1000
ASC_BOUNDS
1002
{
1070
    19
1005
A4F
1002
}
  0
LINE
  5
2F2
  8
0
 10
424.28337244488227
 20
739.33019053692033
 30
0.0
 11
424.28337244488227
 21
742.23019053692019
 31
0.0
1001
ACAD
1000
ASC_BOUNDS
1002
{
1070
    19
1005
A4F
1002
}
  0
LINE
  5
2F3
  8
0
 10
424.28337244488227
 20
742.23019053692019
 30
0.0
 11
425.43337244488231
 21
742.23019053692019
 31
0.0
1001
ACAD
1000
ASC_BOUNDS
1002
{
1070
    19
1005
A4F
1002
}
  0
LINE
  5
2F4
  8
0
 10
425.43337244488231
 20
737.73019053692019
 30
0.0
 11
425.43337244488231
 21
739.33019053692033
 31
0.0
1001
ACAD
1000
ASC_BOUNDS
1002
{
1070
    19
1005
A4F
1002
}
  0
LINE
  5
2F5
  8
0
 10
424.28337244488227
 20
739.33019053692033
 30
0.0
 11
425.43337244488231
 21
739.33019053692033
 31
0.0
1001
ACAD
1000
ASC_BOUNDS
1002
{
1070
    19
1005
A4F
1002
}
  0
LINE
  5
2F6
  8
0
 10
425.68337244488231
 20
731.2301905369203
 30
0.0
 11
425.68337244488231
 21
737.73019053692019
 31
0.0
1001
ACAD
1000
ASC_BOUNDS
1002
{
1070
    19
1005
A4F
1002
}
  0
LINE
  5
2F7
  8
0
  6
CENTER
 10
432.9333724448822
 20
714.7301905369203
 30
0.0
 11
432.93337244488231
 21
774.0075851431543
 31
0.0
  0
LINE
  5
2F8
  8
0
 10
518.37157788045943
 20
737.73019053692019
 30
0.0
 11
518.37157788045943
 21
731.2301905369203
 31
0.0
  0
LINE
  5
2F9
  8
0
 10
518.69956224182408
 20
737.73019053692019
 30
0.0
 11
518.69956224182408
 21
731.2301905369203
 31
0.0
  0
LINE
  5
2FA
  8
0
 10
519.11335080629772
 20
737.73019053692019
 30
0.0
 11
519.11335080629772
 21
731.2301905369203
 31
0.0
  0
LINE
  5
2FB
  8
0
 10
519.55499443313488
 20
737.73019053692019
 30
0.0
 11
519.55499443313488
 21
731.2301905369203
 31
0.0
  0
LINE
  5
2FC
  8
0
 10
520.09384161703633
 20
737.73019053692019
 30
0.0
 11
520.09384161703633
 21
731.2301905369203
 31
0.0
  0
LINE
  5
2FD
  8
0
 10
520.72139441602008
 20
737.73019053692019
 30
0.0
 11
520.72139441602019
 21
731.2301905369203
 31
0.0
  0
LINE
  5
2FE
  8
0
 10
521.42775594756461
 20
737.73019053692019
 30
0.0
 11
521.42775594756461
 21
731.2301905369203
 31
0.0
  0
LINE
  5
2FF
  8
0
 10
522.20178646835711
 20
737.73019053692019
 30
0.0
 11
522.20178646835711
 21
731.2301905369203
 31
0.0
  0
LINE
  5
300
  8
0
 10
523.03127905470149
 20
737.73019053692019
 30
0.0
 11
523.03127905470149
 21
731.2301905369203
 31
0.0
  0
LINE
  5
301
  8
0
 10
523.90315211299617
 20
737.73019053692019
 30
0.0
 11
523.90315211299617
 21
731.2301905369203
 31
0.0
  0
LINE
  5
302
  8
0
 10
524.80365568428022
 20
737.73019053692019
 30
0.0
 11
524.80365568428033
 21
731.2301905369203
 31
0.0
  0
LINE
  5
303
  8
0
 10
518.21858828929965
 20
731.2301905369203
 30
0.0
 11
533.21858828929953
 21
731.2301905369203
 31
0.0
  0
LINE
  5
304
  8
0
 10
533.21858828929965
 20
731.2301905369203
 30
0.0
 11
533.21858828929965
 21
739.2301905369203
 31
0.0
  0
LINE
  5
305
  8
0
 10
518.21858828929965
 20
731.2301905369203
 30
0.0
 11
518.21858828929953
 21
739.2301905369203
 31
0.0
  0
LINE
  5
306
  8
0
 10
429.53337244488227
 20
716.23019053692019
 30
0.0
 11
429.53337244488239
 21
731.2301905369203
 31
0.0
  0
LINE
  5
307
  8
0
 10
428.9333724448822
 20
716.83019053692044
 30
0.0
 11
428.93337244488242
 21
731.2301905369203
 31
0.0
  0
LINE
  5
308
  8
0
 10
427.93337244488231
 20
731.2301905369203
 30
0.0
 11
427.93337244488242
 21
755.2301905369203
 31
0.0
1001
ACAD
1000
ASC_BOUNDS
1002
{
1070
    19
1005
A4F
1002
}
  0
LINE
  5
30C
  8
0
 10
426.0333724448825
 20
755.2301905369203
 30
0.0
 11
432.9333724448822
 21
755.2301905369203
 31
0.0
1001
ACAD
1000
ASC_BOUNDS
1002
{
1070
    19
1005
A4F
1002
}
  0
LINE
  5
30D
  8
0
 10
425.43337244488231
 20
737.73019053692019
 30
0.0
 11
425.68337244488231
 21
737.73019053692019
 31
0.0
1001
ACAD
1000
ASC_BOUNDS
1002
{
1070
    19
1005
A4F
1002
}
  0
CIRCLE
  5
30E
  8
0
 10
429.73337244488232
 20
763.03344571157311
 30
0.0
 40
0.3
  0
LINE
  5
30F
  8
0
 10
425.43337244488231
 20
739.2301905369203
 30
0.0
 11
422.6333724448823
 21
739.2301905369203
 31
0.0
1001
ACAD
1000
ASC_BOUNDS
1002
{
1070
    19
1005
4E5
1002
}
  0
LINE
  5
310
  8
0
 10
422.58238659346011
 20
764.83670582275261
 30
0.0
 11
421.8833724448823
 21
751.7301905369203
 31
0.0
1001
ACAD
1000
ASC_BOUNDS
1002
{
1070
    19
1005
4E5
1002
}
  0
LINE
  5
311
  8
0
 10
421.8833724448823
 20
751.7301905369203
 30
0.0
 11
421.43337244488231
 21
740.42947224744887
 31
0.0
1001
ACAD
1000
ASC_BOUNDS
1002
{
1070
    19
1005
4E5
1002
}
  0
LINE
  5
312
  8
0
 10
421.43337244488231
 20
740.42947224744887
 30
0.0
 11
422.6333724448823
 21
739.2301905369203
 31
0.0
1001
ACAD
1000
ASC_BOUNDS
1002
{
1070
    19
1005
4E5
1002
}
  0
ARC
  5
313
  8
0
 10
424.57954820281577
 20
764.7301905369203
 30
0.0
 40
2.0
 50
90.0
 51
176.94711748520751
1001
ACAD
1000
ASC_BOUNDS
1002
{
1070
    19
1005
4E5
1002
}
  0
LINE
  5
314
  8
0
 10
424.57954820281577
 20
766.73019053692019
 30
0.0
 11
426.43337244488231
 21
766.73019053692008
 31
0.0
1001
ACAD
1000
ASC_BOUNDS
1002
{
1070
    19
1005
4E5
1002
}
  0
LINE
  5
315
  8
0
 10
439.43337244488242
 20
766.73019053692019
 30
0.0
 11
441.09522067223998
 21
766.73019053692019
 31
0.0
  0
LINE
  5
316
  8
0
 10
423.78337244488227
 20
739.2301905369203
 30
0.0
 11
423.78337244488227
 21
742.53019053692014
 31
0.0
1001
ACAD
1000
ASC_BOUNDS
1002
{
1070
    19
1005
4E5
1002
}
  0
LINE
  5
317
  8
0
 10
425.43337244488231
 20
742.53019053692014
 30
0.0
 11
423.78337244488227
 21
742.53019053692014
 31
0.0
1001
ACAD
1000
ASC_BOUNDS
1002
{
1070
    19
1005
4E5
1002
}
  0
LINE
  5
318
  8
0
 10
425.23337244488232
 20
742.53019053692014
 30
0.0
 11
425.23337244488232
 21
751.93019053692012
 31
0.0
1001
ACAD
1000
ASC_BOUNDS
1002
{
1070
    19
1005
4E5
1002
}
  0
LINE
  5
319
  8
0
 10
426.03337244488227
 20
751.73019053692008
 30
0.0
 11
426.0333724448825
 21
755.2301905369203
 31
0.0
1001
ACAD
1000
ASC_BOUNDS
1002
{
1070
    19
1005
A4F
1002
}
  0
LINE
  5
31A
  8
0
 10
425.8333724448824
 20
755.43019053692035
 30
0.0
 11
430.43337244488231
 21
755.43019053692035
 31
0.0
1001
ACAD
1000
ASC_BOUNDS
1002
{
1070
    19
1005
4E5
1002
}
  0
LINE
  5
31B
  8
0
 10
426.23337244488238
 20
757.73019053692019
 30
0.0
 11
430.43337244488231
 21
757.73019053692019
 31
0.0
1001
ACAD
1000
ASC_BOUNDS
1002
{
1070
    19
1005
4E5
1002
}
  0
LINE
  5
31C
  8
0
 10
430.23337244488232
 20
755.43019053692035
 30
0.0
 11
430.23337244488232
 21
757.73019053692008
 31
0.0
1001
ACAD
1000
ASC_BOUNDS
1002
{
1070
    19
1005
4E5
1002
}
  0
LINE
  5
31D
  8
0
 10
426.23337244488238
 20
766.73019053692008
 30
0.0
 11
426.23337244488238
 21
757.73019053692019
 31
0.0
1001
ACAD
1000
ASC_BOUNDS
1002
{
1070
    19
1005
4E5
1002
}
  0
CIRCLE
  5
31E
  8
0
 10
429.73337244488232
 20
758.19183274375985
 30
0.0
 40
0.3
  0
LINE
  5
31F
  8
0
 10
432.93337244488231
 20
739.23019053691985
 30
0.0
 11
443.23337244488232
 21
739.2301905369203
 31
0.0
  0
LINE
  5
320
  8
0
 10
444.43337244488231
 20
740.42947224744887
 30
0.0
 11
443.23337244488232
 21
739.2301905369203
 31
0.0
  0
LINE
  5
321
  8
0
 10
440.43337244488231
 20
737.73019053692019
 30
0.0
 11
440.43337244488231
 21
739.2301905369203
 31
0.0
  0
LINE
  5
322
  8
0
 10
440.43337244488231
 20
737.73019053692019
 30
0.0
 11
432.93337244488231
 21
737.73019053692019
 31
0.0
  0
LINE
  5
323
  8
0
 10
441.09522067223998
 20
766.73019053692019
 30
0.0
 11
432.93337244488231
 21
766.73019053692008
 31
0.0
  0
LINE
  5
324
  8
0
 10
440.18337244488231
 20
731.2301905369203
 30
0.0
 11
440.18337244488231
 21
737.73019053692019
 31
0.0
  0
LINE
  5
325
  8
0
 10
444.43337244488231
 20
740.42947224744887
 30
0.0
 11
444.43337244488231
 21
746.2323644990696
 31
0.0
  0
ARC
  5
326
  8
0
 10
458.78591232356717
 20
744.37076408029066
 30
0.0
 40
15.0
 50
122.24419117775319
 51
141.64489803375119
  0
ARC
  5
327
  8
0
 10
457.18532601150571
 20
746.9081098308028
 30
0.0
 40
12.0
 50
110.21393618726751
 51
122.24419117775319
  0
ARC
  5
328
  8
0
 10
456.43337244488242
 20
746.2323644990696
 30
0.0
 40
12.0
 50
141.64489803375119
 51
180.0
  0
LINE
  5
329
  8
0
 10
533.21858828929965
 20
737.73019053692019
 30
0.0
 11
518.21858828929953
 21
737.73019053692019
 31
0.0
  0
LINE
  5
32A
  8
0
 10
527.53402446560301
 20
737.73019053692019
 30
0.0
 11
527.53402446560278
 21
731.2301905369203
 31
0.0
  0
LINE
  5
32B
  8
0
 10
528.40589752389758
 20
737.73019053692019
 30
0.0
 11
528.40589752389758
 21
731.2301905369203
 31
0.0
  0
LINE
  5
32C
  8
0
 10
529.23539011024195
 20
737.73019053692019
 30
0.0
 11
529.23539011024195
 21
731.2301905369203
 31
0.0
  0
LINE
  5
32D
  8
0
 10
530.00942063103457
 20
737.73019053692019
 30
0.0
 11
530.00942063103457
 21
731.2301905369203
 31
0.0
  0
LINE
  5
32E
  8
0
 10
530.71578216257888
 20
737.73019053692019
 30
0.0
 11
530.71578216257888
 21
731.2301905369203
 31
0.0
  0
LINE
  5
32F
  8
0
 10
531.34333496156285
 20
737.73019053692019
 30
0.0
 11
531.34333496156273
 21
731.2301905369203
 31
0.0
  0
LINE
  5
330
  8
0
 10
531.88218214546407
 20
737.73019053692019
 30
0.0
 11
531.88218214546407
 21
731.2301905369203
 31
0.0
  0
LINE
  5
331
  8
0
 10
532.32382577230135
 20
737.73019053692019
 30
0.0
 11
532.32382577230135
 21
731.2301905369203
 31
0.0
  0
LINE
  5
332
  8
0
 10
532.73761433677487
 20
737.73019053692019
 30
0.0
 11
532.73761433677475
 21
731.2301905369203
 31
0.0
  0
LINE
  5
333
  8
0
 10
533.06559869813975
 20
737.73019053692019
 30
0.0
 11
533.06559869813975
 21
731.2301905369203
 31
0.0
  0
LINE
  5
334
  8
0
 10
527.53402446560301
 20
737.73019053692019
 30
0.0
 11
527.53402446560278
 21
731.2301905369203
 31
0.0
  0
LINE
  5
335
  8
0
 10
526.63352089431885
 20
737.73019053692019
 30
0.0
 11
526.63352089431885
 21
731.2301905369203
 31
0.0
  0
LINE
  5
336
  8
0
 10
525.71858828929953
 20
731.2301905369203
 30
0.0
 11
525.71858828929953
 21
737.73019053692019
 31
0.0
  0
LINE
  5
337
  8
0
 10
536.0185882892996
 20
739.2301905369203
 30
0.0
 11
515.41858828929958
 21
739.2301905369203
 31
0.0
  0
ARC
  5
338
  8
0
 10
517.36476404723305
 20
764.73019053692019
 30
0.0
 40
2.0
 50
90.0
 51
176.94711748520751
  0
LINE
  5
339
  8
0
 10
515.36760243787739
 20
764.83670582275249
 30
0.0
 11
514.66858828929946
 21
751.73019053692008
 31
0.0
  0
LINE
  5
33A
  8
0
 10
514.66858828929946
 20
751.73019053692008
 30
0.0
 11
514.21858828929965
 21
740.42947224744887
 31
0.0
  0
LINE
  5
33B
  8
0
 10
514.21858828929965
 20
740.42947224744887
 30
0.0
 11
515.41858828929958
 21
739.2301905369203
 31
0.0
  0
LINE
  5
33C
  8
0
 10
536.06957414072178
 20
764.83670582275249
 30
0.0
 11
536.76858828929971
 21
751.73019053692008
 31
0.0
  0
LINE
  5
33D
  8
0
 10
536.76858828929971
 20
751.73019053692008
 30
0.0
 11
537.21858828929965
 21
740.42947224744887
 31
0.0
  0
ARC
  5
33E
  8
0
 10
534.07241253136624
 20
764.73019053692019
 30
0.0
 40
2.0
 50
3.052882514792429
 51
90.0
  0
LINE
  5
33F
  8
0
 10
534.07241253136624
 20
766.73019053692008
 30
0.0
 11
517.36476404723294
 21
766.73019053691962
 31
0.0
  0
LINE
  5
340
  8
0
 10
537.21858828929965
 20
740.42947224744887
 30
0.0
 11
536.01858828929971
 21
739.2301905369203
 31
0.0
  0
LINE
  5
341
  8
0
 10
519.21858828929965
 20
773.73019008524898
 30
0.0
 11
519.21858828929965
 21
766.73019053691962
 31
0.0
  0
LINE
  5
342
  8
0
 10
532.21858828929965
 20
773.73019008524898
 30
0.0
 11
532.21858828929965
 21
766.73019053692008
 31
0.0
  0
LINE
  5
343
  8
0
 10
520.21858828929965
 20
774.73019008524909
 30
0.0
 11
531.21858828929965
 21
774.73019008524909
 31
0.0
  0
ARC
  5
344
  8
0
 10
520.21858828929965
 20
773.73019008524898
 30
0.0
 40
1.0
 50
90.0
 51
180.0
  0
ARC
  5
345
  8
0
 10
531.21858828929965
 20
773.73019008524898
 30
0.0
 40
1.0
 50
0.0
 51
90.0
  0
LINE
  5
346
  8
0
 10
519.47355094068496
 20
769.03859109863777
 30
0.0
 11
520.49983827694928
 21
773.73019008524886
 31
0.0
  0
LINE
  5
347
  8
0
 10
531.96362563791411
 20
769.03859109863777
 30
0.0
 11
530.93733830165002
 21
773.73019008524898
 31
0.0
  0
LINE
  5
348
  8
0
  6
CENTER
 10
525.71858828929965
 20
777.73019008524898
 30
0.0
 11
525.71858828929953
 21
714.73019053691985
 31
0.0
  0
CIRCLE
  5
349
  8
0
 10
432.93337244488231
 20
680.43013994158298
 30
0.0
 40
6.5
  0
CIRCLE
  5
34A
  8
0
 10
432.93337244488231
 20
680.43013994158298
 30
0.0
 40
7.0
  0
ARC
  5
34B
  8
0
 10
432.93337244488231
 20
680.43013994158298
 30
0.0
 40
10.35098585142228
 50
54.808397083335613
 51
305.19160291666429
  0
ARC
  5
34C
  8
0
 10
432.93337244488231
 20
680.43013994158298
 30
0.0
 40
11.5
 50
41.020785432330399
 51
318.9792145676696
  0
ARC
  5
34D
  8
0
 10
491.43337244488231
 20
680.43013994158298
 30
0.0
 40
6.5
 50
236.4066393499422
 51
123.59336065005679
  0
LINE
  5
34E
  8
0
 10
487.83872183969521
 20
685.84571812185413
 30
0.0
 11
441.54996473764089
 21
687.98072644807417
 31
0.0
  0
LINE
  5
34F
  8
0
 10
487.83872183969521
 20
675.01456176131205
 30
0.0
 11
441.54996473764089
 21
672.87955343509179
 31
0.0
  0
ARC
  5
350
  8
0
 10
441.78033827475281
 20
692.97541643178681
 30
0.0
 40
5.0
 50
234.80839708333559
 51
267.35917880262173
  0
ARC
  5
351
  8
0
 10
441.78033827475281
 20
667.88486345137926
 30
0.0
 40
5.0
 50
92.640821197378244
 51
125.19160291666429
  0
LINE
  5
352
  8
0
  6
CENTER
 10
432.93337244488231
 20
694.93013994158309
 30
0.0
 11
432.93337244488231
 21
665.93013994158309
 31
0.0
  0
LINE
  5
353
  8
0
  6
CENTER
 10
418.43337244488242
 20
680.43013994158298
 30
0.0
 11
500.93337244488231
 21
680.43013994158298
 31
0.0
  0
ARC
  5
354
  8
0
 10
507.00365563449878
 20
622.69013143984466
 30
0.0
 40
145.83110718771511
 50
98.359597166654424
 51
111.7186357893119
  0
ARC
  5
355
  8
0
 10
494.02294997777261
 20
598.52805159331683
 30
0.0
 40
176.33293530887241
 50
92.336029480027364
 51
107.4670891633603
  0
ARC
  5
356
  8
0
 10
487.28057031307208
 20
773.73086585309466
 30
0.0
 40
1.0
 50
90.183139855018226
 51
92.105792863845267
  0
LINE
  5
357
  8
0
 10
439.95239849235759
 20
737.73019053692008
 30
0.0
 11
439.95239849235759
 21
731.23019053692019
 31
0.0
  0
LINE
  5
358
  8
0
 10
439.53860992788429
 20
737.73019053692008
 30
0.0
 11
439.53860992788418
 21
731.23019053692019
 31
0.0
  0
LINE
  5
359
  8
0
 10
439.09696630104702
 20
737.73019053692008
 30
0.0
 11
439.09696630104702
 21
731.23019053692019
 31
0.0
  0
LINE
  5
35A
  8
0
 10
438.55811911714551
 20
737.73019053692008
 30
0.0
 11
438.55811911714551
 21
731.23019053692019
 31
0.0
  0
LINE
  5
35B
  8
0
 10
437.93056631816171
 20
737.73019053692008
 30
0.0
 11
437.93056631816171
 21
731.23019053692019
 31
0.0
  0
LINE
  5
35C
  8
0
 10
437.22420478661729
 20
737.73019053692008
 30
0.0
 11
437.22420478661729
 21
731.23019053692019
 31
0.0
  0
LINE
  5
35D
  8
0
 10
436.45017426582473
 20
737.73019053692008
 30
0.0
 11
436.45017426582473
 21
731.23019053692019
 31
0.0
  0
LINE
  5
35E
  8
0
 10
435.62068167948041
 20
737.73019053692008
 30
0.0
 11
435.62068167948041
 21
731.23019053692019
 31
0.0
  0
LINE
  5
35F
  8
0
 10
434.74880862118567
 20
737.73019053692008
 30
0.0
 11
434.74880862118567
 21
731.23019053692019
 31
0.0
  0
LINE
  5
360
  8
0
 10
433.84830504990163
 20
737.73019053692008
 30
0.0
 11
433.84830504990163
 21
731.23019053692019
 31
0.0
  0
LINE
  5
361
  8
0
 10
514.21858828929965
 20
740.42947224744887
 30
0.0
 11
537.21858828929965
 21
740.42947224744887
 31
0.0
  0
LINE
  5
362
  8
0
 10
444.43337244488231
 20
740.42947224744887
 30
0.0
 11
432.93337244488231
 21
740.42947224744887
 31
0.0
  0
LINE
  5
363
  8
0
 10
124.1965450341696
 20
731.23019053692019
 30
0.0
 11
135.69654503416959
 21
731.23019053692019
 31
0.0
1001
ACAD
1000
ASC_BOUNDS
1002
{
1070
    19
1005
713
1002
}
  0
LINE
  5
364
  8
0
 10
124.9465450341696
 20
748.43019053692012
 30
0.0
 11
129.94654503416959
 21
748.43019053692024
 31
0.0
1001
ACAD
1000
ASC_BOUNDS
1002
{
1070
    19
1005
713
1002
}
  0
LINE
  5
365
  8
0
 10
135.69654503416959
 20
737.23019053692019
 30
0.0
 11
135.69654503416959
 21
731.23019053692019
 31
0.0
  0
LINE
  5
366
  8
0
 10
130.846043208151
 20
731.23019053691996
 30
0.0
 11
130.846043208151
 21
737.23019053692019
 31
0.0
  0
LINE
  5
367
  8
0
 10
131.7233927518256
 20
731.23019053691996
 30
0.0
 11
131.7233927518256
 21
737.23019053692019
 31
0.0
  0
LINE
  5
368
  8
0
 10
132.55699040767209
 20
731.23019053691996
 30
0.0
 11
132.55699040767209
 21
737.23019053692019
 31
0.0
  0
LINE
  5
369
  8
0
 10
133.32631023485141
 20
731.23019053692019
 30
0.0
 11
133.32631023485141
 21
737.23019053692019
 31
0.0
  0
LINE
  5
36A
  8
0
 10
134.0124090259923
 20
731.23019053692019
 30
0.0
 11
134.0124090259923
 21
737.23019053692019
 31
0.0
  0
LINE
  5
36B
  8
0
 10
134.5983927518256
 20
731.23019053691996
 30
0.0
 11
134.5983927518256
 21
737.23019053692019
 31
0.0
  0
LINE
  5
36C
  8
0
 10
135.0698325482528
 20
731.23019053691996
 30
0.0
 11
135.0698325482528
 21
737.23019053692019
 31
0.0
  0
LINE
  5
36D
  8
0
 10
135.41512000286679
 20
731.23019053692019
 30
0.0
 11
135.41512000286679
 21
737.23019053692019
 31
0.0
  0
LINE
  5
36E
  8
0
 10
135.62575299259171
 20
731.23019053691996
 30
0.0
 11
135.62575299259171
 21
737.23019053692019
 31
0.0
  0
LINE
  5
36F
  8
0
 10
124.1965450341696
 20
745.63019053692005
 30
0.0
 11
125.1965450341696
 21
745.63019053692005
 31
0.0
1001
ACAD
1000
ASC_BOUNDS
1002
{
1070
    19
1005
713
1002
}
  0
LINE
  5
370
  8
0
  6
CENTER
 10
129.94654503416959
 20
719.73019053692042
 30
0.0
 11
129.94654503416959
 21
765.73019053692008
 31
0.0
  0
LINE
  5
371
  8
0
 10
134.44654503416959
 20
760.03019053692014
 30
0.0
 11
134.44654503416959
 21
761.73019053692008
 31
0.0
  0
LINE
  5
372
  8
0
 10
125.4465450341696
 20
757.23019053692019
 30
0.0
 11
125.4465450341696
 21
761.73019053692008
 31
0.0
  0
LINE
  5
373
  8
0
 10
124.1965450341696
 20
745.63019053692005
 30
0.0
 11
124.1965450341696
 21
731.23019053691996
 31
0.0
1001
ACAD
1000
ASC_BOUNDS
1002
{
1070
    19
1005
713
1002
}
  0
LINE
  5
374
  8
0
 10
125.9465450341696
 20
731.23019053691996
 30
0.0
 11
125.9465450341696
 21
748.43019053692012
 31
0.0
1001
ACAD
1000
ASC_BOUNDS
1002
{
1070
    19
1005
713
1002
}
  0
LINE
  5
375
  8
0
 10
129.94654503416959
 20
737.23019053692019
 30
0.0
 11
135.69654503416959
 21
737.23019053692019
 31
0.0
  0
LINE
  5
376
  8
0
 10
126.9465450341697
 20
721.73019053692008
 30
0.0
 11
126.9465450341696
 21
731.2301905369203
 31
0.0
  0
LINE
  5
377
  8
0
 10
127.4465450341696
 20
721.23019053692008
 30
0.0
 11
127.4465450341696
 21
731.2301905369203
 31
0.0
  0
LINE
  5
37A
  8
0
 10
125.1965450341696
 20
748.43019053692012
 30
0.0
 11
125.1965450341696
 21
745.63019053692005
 31
0.0
1001
ACAD
1000
ASC_BOUNDS
1002
{
1070
    19
1005
713
1002
}
  0
LINE
  5
37B
  8
0
 10
121.4465450341696
 20
738.23019053692008
 30
0.0
 11
121.4465450341696
 21
745.380872002876
 31
0.0
1001
ACAD
1000
ASC_BOUNDS
1002
{
1070
    19
1005
4DC
1002
}
  0
LINE
  5
37C
  8
0
 10
124.1965450341696
 20
737.23019053692019
 30
0.0
 11
122.4465450341696
 21
737.23019053692019
 31
0.0
1001
ACAD
1000
ASC_BOUNDS
1002
{
1070
    19
1005
4DC
1002
}
  0
LINE
  5
37D
  8
0
 10
125.4465450341696
 20
760.03019053692014
 30
0.0
 11
123.3752106912571
 21
760.03019053692014
 31
0.0
1001
ACAD
1000
ASC_BOUNDS
1002
{
1070
    19
1005
4DC
1002
}
  0
LINE
  5
37E
  8
0
 10
122.37794293680039
 20
759.10406222243546
 30
0.0
 11
121.5831573113342
 21
748.37445627864145
 31
0.0
1001
ACAD
1000
ASC_BOUNDS
1002
{
1070
    19
1005
4DC
1002
}
  0
ARC
  5
37F
  8
0
 10
154.31990449426681
 20
745.38060488873214
 30
0.0
 40
32.873359461182382
 50
174.77470314857899
 51
179.9995344402472
1001
ACAD
1000
ASC_BOUNDS
1002
{
1070
    19
1005
4DC
1002
}
  0
ARC
  5
380
  8
0
 10
123.3752106912571
 20
759.03019053692014
 30
0.0
 40
1.0
 50
90.0
 51
175.76360520094099
1001
ACAD
1000
ASC_BOUNDS
1002
{
1070
    19
1005
4DC
1002
}
  0
LINE
  5
381
  8
0
 10
122.4465450341696
 20
737.23019053692019
 30
0.0
 11
121.4465450341696
 21
738.23019053692008
 31
0.0
1001
ACAD
1000
ASC_BOUNDS
1002
{
1070
    19
1005
4DC
1002
}
  0
LINE
  5
382
  8
0
 10
138.44654503416959
 20
738.23019053692008
 30
0.0
 11
138.44654503416959
 21
745.380872002876
 31
0.0
  0
LINE
  5
383
  8
0
 10
135.69654503416959
 20
737.23019053692019
 30
0.0
 11
137.44654503416959
 21
737.23019053692019
 31
0.0
  0
LINE
  5
384
  8
0
 10
137.44654503416959
 20
737.23019053692019
 30
0.0
 11
138.44654503416959
 21
738.23019053692008
 31
0.0
  0
LINE
  5
385
  8
0
 10
129.94654503416959
 20
760.03019053692014
 30
0.0
 11
134.8228818615874
 21
760.03019053692003
 31
0.0
  0
LINE
  5
386
  8
0
 10
138.44654503416959
 20
738.23019053692008
 30
0.0
 11
129.94654503416959
 21
738.23019053692008
 31
0.0
  0
LINE
  5
387
  8
0
 10
123.6965450341696
 20
737.23019053692019
 30
0.0
 11
123.6965450341696
 21
745.88019053692017
 31
0.0
1001
ACAD
1000
ASC_BOUNDS
1002
{
1070
    19
1005
4DC
1002
}
  0
LINE
  5
388
  8
0
 10
124.9465450341696
 20
749.93019053692001
 30
0.0
 11
127.4465450341696
 21
749.93019053691989
 31
0.0
1001
ACAD
1000
ASC_BOUNDS
1002
{
1070
    19
1005
4DC
1002
}
  0
LINE
  5
389
  8
0
 10
124.9465450341696
 20
745.88019053692017
 30
0.0
 11
124.9465450341696
 21
748.68019053692012
 31
0.0
1001
ACAD
1000
ASC_BOUNDS
1002
{
1070
    19
1005
4DC
1002
}
  0
LINE
  5
38A
  8
0
 10
124.9465450341696
 20
748.68019053692012
 30
0.0
 11
127.4465450341696
 21
748.68019053692012
 31
0.0
1001
ACAD
1000
ASC_BOUNDS
1002
{
1070
    19
1005
4DC
1002
}
  0
LINE
  5
38B
  8
0
 10
123.6965450341696
 20
745.88019053692017
 30
0.0
 11
125.1965450341696
 21
745.88019053692017
 31
0.0
1001
ACAD
1000
ASC_BOUNDS
1002
{
1070
    19
1005
4DC
1002
}
  0
LINE
  5
38C
  8
0
 10
127.0715450341696
 20
748.68019053692012
 30
0.0
 11
127.0715450341696
 21
749.93019053691989
 31
0.0
1001
ACAD
1000
ASC_BOUNDS
1002
{
1070
    19
1005
4DC
1002
}
  0
LINE
  5
38D
  8
0
 10
124.9465450341696
 20
749.93019053692001
 30
0.0
 11
124.9465450341693
 21
760.03019053692014
 31
0.0
1001
ACAD
1000
ASC_BOUNDS
1002
{
1070
    19
1005
4DC
1002
}
  0
ARC
  5
38E
  8
0
 10
174.93107837418091
 20
584.43026647130159
 30
0.0
 40
180.0
 50
92.865631433515134
 51
102.5212131483957
  0
LINE
  5
38F
  8
0
 10
166.93206164569841
 20
764.23019053692008
 30
0.0
 11
171.94654503416959
 21
764.2301905369203
 31
0.0
  0
LINE
  5
390
  8
0
 10
172.94654503416959
 20
763.2301905369203
 30
0.0
 11
172.94654503416959
 21
759.63019053692017
 31
0.0
  0
LINE
  5
391
  8
0
 10
171.94654503416959
 20
758.63019053692005
 30
0.0
 11
167.8527845879585
 21
758.63019053692005
 31
0.0
  0
ARC
  5
392
  8
0
 10
176.8944331546187
 20
679.3153644712811
 30
0.0
 40
80.0
 50
98.667155279786243
 51
116.0701500457461
  0
ARC
  5
393
  8
0
 10
145.5573942945822
 20
745.24195273262455
 30
0.0
 40
7.1122061111835899
 50
149.60362500477811
 51
178.8807981718949
  0
ARC
  5
394
  8
0
 10
143.9340889710071
 20
746.68461347479808
 30
0.0
 40
5.0
 50
116.0701500457461
 51
154.45667260428411
  0
ARC
  5
395
  8
0
 10
134.8228818615874
 20
765.03019053692014
 30
0.0
 40
5.0
 50
269.99999999999829
 51
282.5212131483957
  0
ARC
  5
396
  8
0
 10
144.93987794080741
 20
742.75914051318978
 30
0.0
 40
9.0056607139326612
 50
110.8352063982517
 51
177.00171913814549
  0
ARC
  5
397
  8
0
 10
171.94654503416959
 20
763.2301905369203
 30
0.0
 40
1.0
 50
0.0
 51
90.0
  0
ARC
  5
398
  8
0
 10
171.94654503416959
 20
759.63019053692017
 30
0.0
 40
1.0
 50
270.0
 51
0.0
  0
ARC
  5
399
  8
0
 10
167.8527845879585
 20
738.63019053692005
 30
0.0
 40
20.0
 50
90.0
 51
98.667155279786243
  0
ARC
  5
39A
  8
0
 10
166.93206164569861
 20
744.23019053691996
 30
0.0
 40
20.0
 50
90.0
 51
92.865631433515134
  0
LINE
  5
39B
  8
0
 10
487.62899572174149
 20
774.73019053692019
 30
0.0
 11
496.43337244488231
 21
774.73019053692019
 31
0.0
  0
LINE
  5
39C
  8
0
 10
488.66735072653159
 20
767.1781259714578
 30
0.0
 11
496.43337244488231
 21
767.1781259714578
 31
0.0
  0
LINE
  5
39D
  8
0
 10
497.43337244488242
 20
773.73019053692019
 30
0.0
 11
497.43337244488242
 21
768.17812597145792
 31
0.0
  0
ARC
  5
39E
  8
0
 10
496.43337244488231
 20
773.73019053692019
 30
0.0
 40
1.0
 50
0.0
 51
90.0
  0
ARC
  5
39F
  8
0
 10
496.43337244488231
 20
768.17812597145792
 30
0.0
 40
1.0
 50
270.0
 51
0.0
  0
ARC
  5
3A0
  8
0
 10
487.62899572174149
 20
754.73019053692008
 30
0.0
 40
20.0
 50
90.0
 51
92.273508003233601
  0
ARC
  5
3A1
  8
0
 10
488.66735072653148
 20
747.17812597145792
 30
0.0
 40
20.0
 50
90.0
 51
98.237135128052003
  0
LINE
  5
3A2
  8
0
 10
487.33872183969532
 20
768.17812597145758
 30
0.0
 11
487.33872183969532
 21
773.73019053692008
 31
0.0
  0
CIRCLE
  5
3A3
  8
0
 10
129.94654503416959
 20
694.37017644995728
 30
0.0
 40
5.0000000000002842
  0
ARC
  5
3A4
  8
0
 10
129.94654503416959
 20
694.37017644995728
 30
0.0
 40
7.5686020973692223
 50
44.900978198524982
 51
315.09902180147498
  0
ARC
  5
3A5
  8
0
 10
129.94654503416959
 20
694.37017644995728
 30
0.0
 40
8.5
 50
31.698867305698549
 51
328.30113269430137
  0
ARC
  5
3A6
  8
0
 10
172.94654503416959
 20
694.37017644995728
 30
0.0
 40
4.5
 50
235.08140033254489
 51
124.9185996674551
  0
LINE
  5
3A7
  8
0
 10
169.76895365583951
 20
697.88042006513194
 30
0.0
 11
137.3446048384518
 21
698.83167022366047
 31
0.0
  0
LINE
  5
3A8
  8
0
 10
169.76895365583951
 20
690.85993283478274
 30
0.0
 11
137.3446048384518
 21
689.90868267625433
 31
0.0
  0
ARC
  5
3A9
  8
0
 10
169.79827856416719
 20
698.87998999752881
 30
0.0
 40
1.0
 50
268.31956561118147
 51
304.918599667455
  0
ARC
  5
3AA
  8
0
 10
169.79827856416711
 20
689.8603629023861
 30
0.0
 40
1.0
 50
55.081400332544924
 51
91.680434388820103
  0
ARC
  5
3AB
  8
0
 10
137.4325795634347
 20
686.90997287906396
 30
0.0
 40
3.0
 50
91.680434388818469
 51
135.099021801475
  0
ARC
  5
3AC
  8
0
 10
137.4325795634347
 20
701.83038002085061
 30
0.0
 40
3.0
 50
224.90097819852491
 51
268.31956561118147
  0
LINE
  5
3AD
  8
0
  6
CENTER
 10
180.44654503416959
 20
694.37017644995728
 30
0.0
 11
118.4465450341696
 21
694.37017644995728
 31
0.0
  0
LINE
  5
3AE
  8
0
  6
CENTER
 10
129.94654503416959
 20
705.87017644995728
 30
0.0
 11
129.94654503416959
 21
682.8701764499574
 31
0.0
  0
LINE
  5
3AF
  8
0
 10
197.8919752849682
 20
731.20519053692021
 30
0.0
 11
197.8919752849682
 21
737.20519053692021
 31
0.0
  0
LINE
  5
3B0
  8
0
 10
197.1226554577888
 20
731.20519053692021
 30
0.0
 11
197.1226554577888
 21
737.20519053692021
 31
0.0
  0
LINE
  5
3B1
  8
0
 10
199.16405780194239
 20
731.20519053692021
 30
0.0
 11
199.16405780194239
 21
737.20519053692021
 31
0.0
  0
LINE
  5
3B2
  8
0
 10
198.578074076109
 20
731.20519053692021
 30
0.0
 11
198.578074076109
 21
737.20519053692021
 31
0.0
  0
LINE
  5
3B3
  8
0
 10
196.28905780194239
 20
731.20519053692021
 30
0.0
 11
196.28905780194239
 21
737.20519053692021
 31
0.0
  0
LINE
  5
3B4
  8
0
 10
195.41170825826771
 20
731.20519053692021
 30
0.0
 11
195.41170825826771
 21
737.20519053692021
 31
0.0
  0
LINE
  5
3B5
  8
0
 10
200.26221008428641
 20
737.20519053692021
 30
0.0
 11
200.26221008428641
 21
731.20519053692021
 31
0.0
  0
LINE
  5
3B6
  8
0
 10
200.19141804270851
 20
731.20519053692021
 30
0.0
 11
200.19141804270851
 21
737.20519053692021
 31
0.0
  0
LINE
  5
3B7
  8
0
 10
199.98078505298349
 20
731.20519053692021
 30
0.0
 11
199.98078505298349
 21
737.20519053692021
 31
0.0
  0
LINE
  5
3B8
  8
0
 10
199.6354975983696
 20
731.20519053692021
 30
0.0
 11
199.6354975983696
 21
737.20519053692021
 31
0.0
  0
LINE
  5
3B9
  8
0
 10
188.76221008428641
 20
731.20519053692021
 30
0.0
 11
200.26221008428641
 21
731.20519053692021
 31
0.0
  0
LINE
  5
3BA
  8
0
 10
200.26221008428641
 20
737.20519053692021
 30
0.0
 11
202.01221008428641
 21
737.20519053692021
 31
0.0
  0
LINE
  5
3BB
  8
0
 10
203.01221008428641
 20
738.20519053692021
 30
0.0
 11
186.01221008428641
 21
738.20519053692021
 31
0.0
  0
ARC
  5
3BC
  8
0
 10
236.01221008428641
 20
744.68087200287596
 30
0.0
 40
50.0
 50
175.76360520094099
 51
180.0
  0
LINE
  5
3BD
  8
0
 10
186.01221008428641
 20
738.20519053692021
 30
0.0
 11
186.01221008428641
 21
744.68087200287596
 31
0.0
  0
LINE
  5
3BE
  8
0
 10
187.01221008428641
 20
737.20519053692021
 30
0.0
 11
186.01221008428641
 21
738.20519053692021
 31
0.0
  0
LINE
  5
3BF
  8
0
 10
187.01221008428641
 20
737.20519053692021
 30
0.0
 11
200.26221008428641
 21
737.20519053692021
 31
0.0
  0
LINE
  5
3C0
  8
0
 10
186.9436079869171
 20
759.10406222243546
 30
0.0
 11
186.1488223614509
 21
748.37445627864145
 31
0.0
  0
LINE
  5
3C1
  8
0
 10
190.01221008428641
 20
760.03019053692014
 30
0.0
 11
190.01221008428641
 21
763.20518104512234
 31
0.0
  0
LINE
  5
3C2
  8
0
 10
201.08354442719889
 20
760.03019053692049
 30
0.0
 11
187.94087574137379
 21
760.03019053692014
 31
0.0
  0
ARC
  5
3C3
  8
0
 10
187.94087574137379
 20
759.03019053692014
 30
0.0
 40
1.0
 50
90.0
 51
175.76360520094099
  0
LINE
  5
3C4
  8
0
 10
199.01221008428641
 20
760.03019053692014
 30
0.0
 11
199.01221008428641
 21
763.20518104512234
 31
0.0
  0
LINE
  5
3C5
  8
0
 10
203.01221008428641
 20
738.20519053692021
 30
0.0
 11
203.01221008428641
 21
744.68087200287596
 31
0.0
  0
LINE
  5
3C6
  8
0
 10
202.01221008428641
 20
737.20519053692021
 30
0.0
 11
203.01221008428641
 21
738.20519053692021
 31
0.0
  0
ARC
  5
3C7
  8
0
 10
153.01221008428641
 20
744.68087200287596
 30
0.0
 40
50.0
 50
0.0
 51
4.2363947990589601
  0
LINE
  5
3C8
  8
0
 10
202.08081218165569
 20
759.10406222243546
 30
0.0
 11
202.87559780712181
 21
748.37445627864145
 31
0.0
  0
ARC
  5
3C9
  8
0
 10
201.083544427199
 20
759.03019053692014
 30
0.0
 40
1.0
 50
4.2363947990589601
 51
90.0
  0
LINE
  5
3CA
  8
0
 10
189.38892257020319
 20
731.20519053692021
 30
0.0
 11
189.38892257020319
 21
737.20519053692021
 31
0.0
  0
LINE
  5
3CB
  8
0
 10
189.04363511558921
 20
731.20519053692021
 30
0.0
 11
189.04363511558921
 21
737.20519053692021
 31
0.0
  0
LINE
  5
3CC
  8
0
 10
188.83300212586431
 20
731.20519053692021
 30
0.0
 11
188.83300212586431
 21
737.20519053692021
 31
0.0
  0
LINE
  5
3CD
  8
0
 10
188.76221008428641
 20
737.20519053692021
 30
0.0
 11
188.76221008428641
 21
731.20519053692021
 31
0.0
  0
LINE
  5
3CE
  8
0
 10
193.61271191030511
 20
731.20519053692021
 30
0.0
 11
193.61271191030511
 21
737.20519053692021
 31
0.0
  0
LINE
  5
3CF
  8
0
 10
192.7353623666304
 20
731.20519053692021
 30
0.0
 11
192.7353623666304
 21
737.20519053692021
 31
0.0
  0
LINE
  5
3D0
  8
0
 10
190.4463460924637
 20
731.20519053692021
 30
0.0
 11
190.4463460924637
 21
737.20519053692021
 31
0.0
  0
LINE
  5
3D1
  8
0
 10
189.8603623666304
 20
731.20519053692021
 30
0.0
 11
189.8603623666304
 21
737.20519053692021
 31
0.0
  0
LINE
  5
3D2
  8
0
 10
191.90176471078391
 20
731.20519053692021
 30
0.0
 11
191.90176471078391
 21
737.20519053692021
 31
0.0
  0
LINE
  5
3D3
  8
0
 10
191.13244488360471
 20
731.20519053692021
 30
0.0
 11
191.13244488360471
 21
737.20519053692021
 31
0.0
  0
LINE
  5
3D4
  8
0
  6
CENTER
 10
194.51221008428641
 20
765.73019053692019
 30
0.0
 11
194.51221008428641
 21
719.70519053692033
 31
0.0
  0
LINE
  5
3D5
  8
0
 10
191.01221008428641
 20
764.20518104512234
 30
0.0
 11
198.01221008428641
 21
764.20518104512234
 31
0.0
  0
ARC
  5
3D6
  8
0
 10
191.01221008428641
 20
763.20518104512234
 30
0.0
 40
1.0
 50
90.0
 51
180.0
  0
ARC
  5
3D7
  8
0
 10
198.01221008428641
 20
763.20518104512234
 30
0.0
 40
1.0
 50
0.0
 51
90.0
  0
LINE
  5
3D8
  8
0
 10
190.63139269693261
 20
761.99608945491593
 30
0.0
 11
191.24843126292069
 21
763.95518104512234
 31
0.0
  0
LINE
  5
3D9
  8
0
 10
198.39302747164021
 20
761.99608945491593
 30
0.0
 11
197.7759889056523
 21
763.95518104512234
 31
0.0
  0
LINE
  5
3DA
  8
0
 10
264.64214544354252
 20
731.23019053692019
 30
0.0
 11
279.14214544354252
 21
731.23019053692019
 31
0.0
1001
ACAD
1000
ASC_BOUNDS
1002
{
1070
    19
1005
932
1002
}
  0
LINE
  5
3DB
  8
0
 10
264.64214544354252
 20
731.23019053692019
 30
0.0
 11
264.64214544354252
 21
739.23019053692008
 31
0.0
1001
ACAD
1000
ASC_BOUNDS
1002
{
1070
    19
1005
932
1002
}
  0
LINE
  5
3DC
  8
0
 10
279.14214544354252
 20
731.23019053692019
 30
0.0
 11
279.14214544354252
 21
739.23019053691996
 31
0.0
  0
LINE
  5
3DD
  8
0
 10
279.14214544354252
 20
737.43019053692001
 30
0.0
 11
271.89214544354252
 21
737.43019053692001
 31
0.0
  0
LINE
  5
3DE
  8
0
 10
273.0262953150841
 20
731.2301905369203
 30
0.0
 11
273.0262953150841
 21
737.43019053692001
 31
0.0
  0
LINE
  5
3DF
  8
0
 10
274.13251865276089
 20
731.23019053692019
 30
0.0
 11
274.13251865276089
 21
737.43019053692001
 31
0.0
  0
LINE
  5
3E0
  8
0
 10
275.18357656665421
 20
731.23019053692019
 30
0.0
 11
275.18357656665421
 21
737.43019053692001
 31
0.0
  0
LINE
  5
3E1
  8
0
 10
276.15358852266291
 20
731.2301905369203
 30
0.0
 11
276.15358852266291
 21
737.43019053692001
 31
0.0
  0
LINE
  5
3E2
  8
0
 10
277.018669607145
 20
731.23019053692019
 30
0.0
 11
277.018669607145
 21
737.43019053692001
 31
0.0
  0
LINE
  5
3E3
  8
0
 10
277.75751865276089
 20
731.2301905369203
 30
0.0
 11
277.75751865276089
 21
737.43019053692024
 31
0.0
  0
LINE
  5
3E4
  8
0
 10
278.35194274390818
 20
731.2301905369203
 30
0.0
 11
278.35194274390818
 21
737.43019053692001
 31
0.0
  0
LINE
  5
3E5
  8
0
 10
278.78730518668232
 20
731.23019053692019
 30
0.0
 11
278.78730518668232
 21
737.43019053692024
 31
0.0
  0
LINE
  5
3E6
  8
0
 10
279.05288591285722
 20
731.2301905369203
 30
0.0
 11
279.05288591285722
 21
737.43019053692001
 31
0.0
  0
LINE
  5
3E7
  8
0
 10
264.64214544354252
 20
739.23019053692008
 30
0.0
 11
263.29214544354238
 21
739.23019053692008
 31
0.0
1001
ACAD
1000
ASC_BOUNDS
1002
{
1070
    19
1005
932
1002
}
  0
LINE
  5
3E8
  8
0
 10
263.29214544354238
 20
739.23019053692008
 30
0.0
 11
263.29214544354238
 21
742.23019053692008
 31
0.0
1001
ACAD
1000
ASC_BOUNDS
1002
{
1070
    19
1005
932
1002
}
  0
LINE
  5
3E9
  8
0
 10
263.29214544354238
 20
742.23019053692008
 30
0.0
 11
264.64214544354252
 21
742.23019053692008
 31
0.0
1001
ACAD
1000
ASC_BOUNDS
1002
{
1070
    19
1005
932
1002
}
  0
LINE
  5
3EA
  8
0
 10
264.64214544354252
 20
742.23019053691996
 30
0.0
 11
264.64214544354252
 21
752.13019053692017
 31
0.0
1001
ACAD
1000
ASC_BOUNDS
1002
{
1070
    19
1005
932
1002
}
  0
LINE
  5
3EB
  8
0
 10
264.64214544354252
 20
752.13019053692017
 30
0.0
 11
266.14214544354252
 21
752.13019053692017
 31
0.0
1001
ACAD
1000
ASC_BOUNDS
1002
{
1070
    19
1005
932
1002
}
  0
LINE
  5
3EC
  8
0
 10
266.14214544354252
 20
752.13019053692017
 30
0.0
 11
266.14214544354252
 21
755.2301905369203
 31
0.0
1001
ACAD
1000
ASC_BOUNDS
1002
{
1070
    19
1005
932
1002
}
  0
LINE
  5
3ED
  8
0
 10
265.84214544354239
 20
752.43019053692012
 30
0.0
 11
265.84214544354239
 21
755.43019053692012
 31
0.0
1001
ACAD
1000
ASC_BOUNDS
1002
{
1070
    19
1005
4DD
1002
}
  0
LINE
  5
3EE
  8
0
 10
264.14214544354252
 20
752.43019053692024
 30
0.0
 11
266.14214544354252
 21
752.43019053692012
 31
0.0
1001
ACAD
1000
ASC_BOUNDS
1002
{
1070
    19
1005
4DD
1002
}
  0
LINE
  5
3EF
  8
0
 10
264.14214544354252
 20
742.53019053692014
 30
0.0
 11
264.14214544354252
 21
752.43019053692024
 31
0.0
1001
ACAD
1000
ASC_BOUNDS
1002
{
1070
    19
1005
4DD
1002
}
  0
LINE
  5
3F0
  8
0
 10
262.99214544354248
 20
742.53019053692014
 30
0.0
 11
264.64214544354252
 21
742.53019053692014
 31
0.0
1001
ACAD
1000
ASC_BOUNDS
1002
{
1070
    19
1005
4DD
1002
}
  0
LINE
  5
3F1
  8
0
 10
262.99214544354248
 20
739.23019053692008
 30
0.0
 11
262.99214544354248
 21
742.53019053692014
 31
0.0
1001
ACAD
1000
ASC_BOUNDS
1002
{
1070
    19
1005
4DD
1002
}
  0
LINE
  5
3F2
  8
0
 10
260.89214544354252
 20
740.23019053691996
 30
0.0
 11
260.89214544354252
 21
747.18356033783573
 31
0.0
1001
ACAD
1000
ASC_BOUNDS
1002
{
1070
    19
1005
4DD
1002
}
  0
LINE
  5
3F3
  8
0
 10
262.99214544354248
 20
739.23019053692008
 30
0.0
 11
261.89214544354252
 21
739.23019053692008
 31
0.0
1001
ACAD
1000
ASC_BOUNDS
1002
{
1070
    19
1005
4DD
1002
}
  0
LINE
  5
3F4
  8
0
 10
282.89214544354252
 20
740.23019053691996
 30
0.0
 11
282.89214544354252
 21
750.85636182810481
 31
0.0
  0
LINE
  5
3F5
  8
0
 10
281.89214544354252
 20
739.23019053691996
 30
0.0
 11
271.89214544354252
 21
739.23019053691996
 31
0.0
  0
LINE
  5
3F6
  8
0
 10
264.00048590633429
 20
766.73019053692008
 30
0.0
 11
265.89214544354252
 21
766.73019053692008
 31
0.0
1001
ACAD
1000
ASC_BOUNDS
1002
{
1070
    19
1005
4DD
1002
}
  0
ARC
  5
3F7
  8
0
 10
264.00048590633429
 20
764.73019053691996
 30
0.0
 40
2.0
 50
90.0
 51
174.57339166943851
1001
ACAD
1000
ASC_BOUNDS
1002
{
1070
    19
1005
4DD
1002
}
  0
LINE
  5
3F8
  8
0
 10
265.89214544354252
 20
764.48019053692019
 30
0.0
 11
265.89214544354252
 21
768.73019053692019
 31
0.0
  0
LINE
  5
3F9
  8
0
 10
277.89214544354252
 20
766.73019053692008
 30
0.0
 11
277.89214544354252
 21
768.73019053692019
 31
0.0
  0
LINE
  5
3FA
  8
0
 10
271.89214544354252
 20
766.73019053692008
 30
0.0
 11
279.10048455337773
 21
766.73019053692008
 31
0.0
  0
LINE
  5
3FB
  8
0
 10
269.39214544354252
 20
755.2301905369203
 30
0.0
 11
269.39214544354252
 21
764.48019053692019
 31
0.0
  0
LINE
  5
3FC
  8
0
 10
265.84214544354239
 20
755.43019053692024
 30
0.0
 11
269.39214544354252
 21
755.43019053692012
 31
0.0
1001
ACAD
1000
ASC_BOUNDS
1002
{
1070
    19
1005
4DD
1002
}
  0
LINE
  5
3FD
  8
0
 10
265.49214544354248
 20
757.93019053692012
 30
0.0
 11
269.39214544354252
 21
757.93019053692012
 31
0.0
1001
ACAD
1000
ASC_BOUNDS
1002
{
1070
    19
1005
4DD
1002
}
  0
LINE
  5
3FE
  8
0
 10
268.99214544354248
 20
755.43019053692012
 30
0.0
 11
268.99214544354248
 21
757.93019053692012
 31
0.0
1001
ACAD
1000
ASC_BOUNDS
1002
{
1070
    19
1005
4DD
1002
}
  0
LINE
  5
3FF
  8
0
 10
265.49214544354248
 20
757.93019053692012
 30
0.0
 11
265.49214544354248
 21
766.73019053692008
 31
0.0
1001
ACAD
1000
ASC_BOUNDS
1002
{
1070
    19
1005
4DD
1002
}
  0
LINE
  5
400
  8
0
 10
266.89214544354252
 20
731.23019053692019
 30
0.0
 11
266.89214544354252
 21
755.2301905369203
 31
0.0
1001
ACAD
1000
ASC_BOUNDS
1002
{
1070
    19
1005
932
1002
}
  0
LINE
  5
401
  8
0
 10
268.89214544354252
 20
721.73019053692008
 30
0.0
 11
268.89214544354252
 21
731.23019053692019
 31
0.0
  0
LINE
  5
403
  8
0
 10
269.39214544354252
 20
721.23019053692008
 30
0.0
 11
269.39214544354252
 21
731.23019053692019
 31
0.0
  0
LINE
  5
406
  8
0
 10
425.83337244488229
 20
751.93019053692024
 30
0.0
 11
425.23337244488232
 21
751.93019053692024
 31
0.0
1001
ACAD
1000
ASC_BOUNDS
1002
{
1070
    19
1005
4E5
1002
}
  0
LINE
  5
407
  8
0
 10
425.83337244488229
 20
751.93019053692024
 30
0.0
 11
425.8333724448824
 21
755.43019053692035
 31
0.0
1001
ACAD
1000
ASC_BOUNDS
1002
{
1070
    19
1005
4E5
1002
}
  0
LINE
  5
408
  8
0
 10
314.89214544354252
 20
772.23019053692008
 30
0.0
 11
322.39214544354252
 21
772.23019053692008
 31
0.0
  0
LINE
  5
409
  8
0
 10
323.89214544354252
 20
766.73019053692008
 30
0.0
 11
323.89214544354252
 21
770.73019053692019
 31
0.0
  0
LINE
  5
40A
  8
0
 10
314.89214544354252
 20
766.73019053692008
 30
0.0
 11
314.89214544354252
 21
770.73019053692019
 31
0.0
  0
ARC
  5
40B
  8
0
 10
314.24541811507709
 20
662.23209171806502
 30
0.0
 40
110.0
 50
89.663136728213829
 51
107.79475346968169
  0
ARC
  5
40C
  8
0
 10
322.39214544354252
 20
770.73019053692019
 30
0.0
 40
1.5
 50
0.0
 51
90.0
  0
ARC
  5
40D
  8
0
 10
279.10048455337773
 20
771.73019053691996
 30
0.0
 40
5.0
 50
270.0
 51
287.79475346968172
  0
ARC
  5
40E
  8
0
 10
316.46244537060022
 20
705.25074273903624
 30
0.0
 40
60.0
 50
91.499697210857747
 51
118.05660268516409
  0
LINE
  5
40F
  8
0
 10
314.89214544354252
 20
765.23019053692019
 30
0.0
 11
322.39214544354252
 21
765.23019053692019
 31
0.0
  0
ARC
  5
410
  8
0
 10
322.39214544354252
 20
766.73019053692008
 30
0.0
 40
1.5
 50
270.0
 51
0.0
  0
ARC
  5
411
  8
0
 10
292.93427001491182
 20
749.27622404743454
 30
0.0
 40
10.08207439298346
 50
117.7376742148642
 51
142.2683173087369
  0
ARC
  5
412
  8
0
 10
294.56100475648412
 20
744.5957740908932
 30
0.0
 40
15.0
 50
114.91532205862021
 51
172.23777969560589
  0
LINE
  5
413
  8
0
  6
CENTER
 10
271.89214544354252
 20
772.73019053692019
 30
0.0
 11
271.89214544354252
 21
719.73019053692008
 31
0.0
  0
LINE
  5
414
  8
0
  6
CENTER
 10
271.89214544354252
 20
708.3701764499574
 30
0.0
 11
271.89214544354252
 21
680.3701764499574
 31
0.0
  0
LINE
  5
415
  8
0
  6
CENTER
 10
326.89214544354252
 20
694.37017644995728
 30
0.0
 11
257.89214544354252
 21
694.37017644995728
 31
0.0
  0
ARC
  5
416
  8
0
 10
271.89214544354252
 20
694.37017644995728
 30
0.0
 40
9.8862747877888175
 50
45.887267029928388
 51
314.11273297007159
  0
ARC
  5
417
  8
0
 10
271.89214544354252
 20
694.37017644995728
 30
0.0
 40
11.0
 50
34.603223749822
 51
325.3967762501797
  0
CIRCLE
  5
418
  8
0
 10
271.89214544354252
 20
694.37017644995728
 30
0.0
 40
6.3999999999999906
  0
ARC
  5
419
  8
0
 10
317.89214544354252
 20
694.37017644995728
 30
0.0
 40
6.0
 50
241.35137037267791
 51
118.64862962732199
  0
LINE
  5
41A
  8
0
 10
313.98255215308109
 20
699.39216052894699
 30
0.0
 11
280.7507777941874
 21
700.62421577696955
 31
0.0
  0
LINE
  5
41B
  8
0
 10
313.98255215308109
 20
689.34819237096781
 30
0.0
 11
280.7507777941874
 21
688.11613712294525
 31
0.0
  0
ARC
  5
41C
  8
0
 10
280.86192527851728
 20
703.62215610938563
 30
0.0
 40
3.0
 50
225.8872670299283
 51
267.87675348344129
  0
ARC
  5
41D
  8
0
 10
280.86192527851728
 20
685.11819679052905
 30
0.0
 40
3.0
 50
92.123246516558623
 51
134.11273297007159
  0
ARC
  5
41E
  8
0
 10
314.05665047596767
 20
701.39078741722426
 30
0.0
 40
2.0
 50
267.87675348344129
 51
298.64862962732201
  0
ARC
  5
41F
  8
0
 10
314.05665047596767
 20
687.34956548269031
 30
0.0
 40
2.0
 50
61.35137037267797
 51
92.123246516558623
  0
ARC
  5
420
  8
0
 10
458.1284624922767
 20
741.52745085241884
 30
0.0
 40
17.179589801427252
 50
115.3134614646295
 51
171.2363153756805
  0
LINE
  5
421
  8
0
 10
165.94654503416959
 20
763.2301905369203
 30
0.0
 11
165.94654503416959
 21
759.63019053692017
 31
0.0
  0
LINE
  5
422
  8
0
 10
344.589946070689
 20
766.73019053692019
 30
0.0
 11
344.589946070689
 21
771.23019053692008
 31
0.0
  0
LINE
  5
423
  8
0
  6
CENTER
 10
350.589946070689
 20
772.73019053692019
 30
0.0
 11
350.589946070689
 21
719.73019053692008
 31
0.0
  0
LINE
  5
424
  8
0
 10
339.72456480617222
 20
751.56100533949154
 30
0.0
 11
340.70367128290019
 21
764.87685342299221
 31
0.0
  0
LINE
  5
425
  8
0
 10
360.589946070689
 20
739.23019053691996
 30
0.0
 11
343.339946070689
 21
739.23019053692008
 31
0.0
  0
LINE
  5
426
  8
0
 10
352.83031927990748
 20
731.23019053692019
 30
0.0
 11
352.83031927990748
 21
737.43019053692001
 31
0.0
  0
LINE
  5
427
  8
0
 10
353.88137719380069
 20
731.23019053692019
 30
0.0
 11
353.88137719380069
 21
737.43019053692001
 31
0.0
  0
LINE
  5
428
  8
0
 10
354.85138914980951
 20
731.2301905369203
 30
0.0
 11
354.85138914980951
 21
737.43019053692001
 31
0.0
  0
LINE
  5
429
  8
0
 10
351.72409594223069
 20
731.2301905369203
 30
0.0
 11
351.72409594223069
 21
737.43019053692001
 31
0.0
  0
LINE
  5
42A
  8
0
 10
357.839946070689
 20
731.23019053692019
 30
0.0
 11
357.839946070689
 21
739.23019053691996
 31
0.0
  0
LINE
  5
42B
  8
0
 10
355.71647023429148
 20
731.23019053692019
 30
0.0
 11
355.71647023429148
 21
737.43019053692001
 31
0.0
  0
LINE
  5
42C
  8
0
 10
356.45531927990748
 20
731.2301905369203
 30
0.0
 11
356.45531927990748
 21
737.43019053692024
 31
0.0
  0
LINE
  5
42D
  8
0
 10
357.04974337105472
 20
731.2301905369203
 30
0.0
 11
357.04974337105472
 21
737.43019053692001
 31
0.0
  0
LINE
  5
42E
  8
0
 10
357.48510581382891
 20
731.23019053692019
 30
0.0
 11
357.48510581382891
 21
737.43019053692024
 31
0.0
  0
LINE
  5
42F
  8
0
 10
357.75068654000381
 20
731.2301905369203
 30
0.0
 11
357.75068654000381
 21
737.43019053692001
 31
0.0
  0
LINE
  5
430
  8
0
 10
343.339946070689
 20
731.23019053692019
 30
0.0
 11
343.339946070689
 21
739.23019053692008
 31
0.0
  0
LINE
  5
431
  8
0
 10
343.339946070689
 20
731.23019053692019
 30
0.0
 11
357.839946070689
 21
731.23019053692019
 31
0.0
  0
ARC
  5
432
  8
0
 10
389.589946070689
 20
747.89443318768883
 30
0.0
 40
50.0
 50
175.79464299829061
 51
180.0
  0
LINE
  5
433
  8
0
 10
339.589946070689
 20
740.23019053691996
 30
0.0
 11
339.589946070689
 21
747.89443318768883
 31
0.0
  0
LINE
  5
434
  8
0
 10
343.339946070689
 20
739.23019053692008
 30
0.0
 11
340.589946070689
 21
739.23019053691996
 31
0.0
  0
LINE
  5
435
  8
0
 10
339.589946070689
 20
740.23019053691996
 30
0.0
 11
340.589946070689
 21
739.23019053691996
 31
0.0
  0
LINE
  5
436
  8
0
 10
357.839946070689
 20
737.43019053692001
 30
0.0
 11
343.339946070689
 21
737.43019053692001
 31
0.0
  0
LINE
  5
437
  8
0
 10
361.589946070689
 20
740.23019053691996
 30
0.0
 11
360.589946070689
 21
739.23019053691996
 31
0.0
  0
ARC
  5
438
  8
0
 10
342.69828653348083
 20
764.73019053691996
 30
0.0
 40
2.0
 50
90.0
 51
175.79464299829061
  0
LINE
  5
439
  8
0
 10
342.69828653348083
 20
766.73019053692008
 30
0.0
 11
358.48160560789711
 21
766.73019053692053
 31
0.0
  0
LINE
  5
43A
  8
0
 10
356.589946070689
 20
766.73019053692008
 30
0.0
 11
356.589946070689
 21
771.23019053692008
 31
0.0
  0
LINE
  5
43B
  8
0
 10
343.42920560137429
 20
731.2301905369203
 30
0.0
 11
343.42920560137429
 21
737.43019053692001
 31
0.0
  0
LINE
  5
43C
  8
0
 10
343.69478632754908
 20
731.23019053692019
 30
0.0
 11
343.69478632754908
 21
737.43019053692024
 31
0.0
  0
LINE
  5
43D
  8
0
 10
344.13014877032327
 20
731.2301905369203
 30
0.0
 11
344.13014877032327
 21
737.43019053692001
 31
0.0
  0
LINE
  5
43E
  8
0
 10
344.72457286147062
 20
731.2301905369203
 30
0.0
 11
344.72457286147062
 21
737.43019053692024
 31
0.0
  0
LINE
  5
43F
  8
0
 10
345.46342190708651
 20
731.23019053692019
 30
0.0
 11
345.46342190708651
 21
737.43019053692001
 31
0.0
  0
LINE
  5
440
  8
0
 10
349.4557961991473
 20
731.2301905369203
 30
0.0
 11
349.4557961991473
 21
737.43019053692001
 31
0.0
  0
LINE
  5
441
  8
0
 10
346.32850299156848
 20
731.2301905369203
 30
0.0
 11
346.32850299156848
 21
737.43019053692001
 31
0.0
  0
LINE
  5
442
  8
0
 10
347.2985149475773
 20
731.23019053692019
 30
0.0
 11
347.2985149475773
 21
737.43019053692001
 31
0.0
  0
LINE
  5
443
  8
0
 10
348.34957286147062
 20
731.23019053692019
 30
0.0
 11
348.34957286147062
 21
737.43019053692001
 31
0.0
  0
LINE
  5
444
  8
0
 10
339.589946070689
 20
740.23019053691996
 30
0.0
 11
361.589946070689
 21
740.23019053691996
 31
0.0
  0
LINE
  5
445
  8
0
 10
361.45532733520582
 20
751.56100533949154
 30
0.0
 11
360.4762208584778
 21
764.87685342299221
 31
0.0
  0
ARC
  5
446
  8
0
 10
311.589946070689
 20
747.89443318768883
 30
0.0
 40
50.0
 50
0.0
 51
4.2053570017093849
  0
LINE
  5
447
  8
0
 10
361.589946070689
 20
740.23019053691996
 30
0.0
 11
361.589946070689
 21
747.89443318768883
 31
0.0
  0
ARC
  5
448
  8
0
 10
358.48160560789722
 20
764.73019053691996
 30
0.0
 40
2.0
 50
4.2053570017093849
 51
90.0
  0
LINE
  5
449
  8
0
 10
345.589946070689
 20
772.23019053691996
 30
0.0
 11
355.589946070689
 21
772.23019053691996
 31
0.0
  0
ARC
  5
44A
  8
0
 10
355.589946070689
 20
771.23019053692008
 30
0.0
 40
1.0
 50
0.0
 51
90.0
  0
ARC
  5
44B
  8
0
 10
345.589946070689
 20
771.23019053692008
 30
0.0
 40
1.0
 50
90.0
 51
180.0
  0
LINE
  5
44C
  8
0
 10
345.589946070689
 20
771.73019053691996
 30
0.0
 11
345.01814706157393
 21
768.87119549134445
 31
0.0
  0
LINE
  5
44D
  8
0
 10
355.589946070689
 20
771.73019053691996
 30
0.0
 11
356.16174507980418
 21
768.87119549134445
 31
0.0
  0
LINE
  5
44E
  8
0
 10
602.70728774333361
 20
731.2301905369203
 30
0.0
 11
621.70728774333361
 21
731.2301905369203
 31
0.0
1001
ACAD
1000
ASC_BOUNDS
1002
{
1070
    19
1005
C34
1002
}
  0
LINE
  5
44F
  8
0
 10
602.70728774333361
 20
731.2301905369203
 30
0.0
 11
602.70728774333361
 21
740.7301905369203
 31
0.0
1001
ACAD
1000
ASC_BOUNDS
1002
{
1070
    19
1005
C34
1002
}
  0
LINE
  5
450
  8
0
 10
621.70728774333361
 20
731.2301905369203
 30
0.0
 11
621.70728774333361
 21
740.7301905369203
 31
0.0
  0
LINE
  5
451
  8
0
 10
599.7072877433335
 20
740.7301905369203
 30
0.0
 11
602.70728774333361
 21
740.7301905369203
 31
0.0
1001
ACAD
1000
ASC_BOUNDS
1002
{
1070
    19
1005
C34
1005
4E4
1002
}
  0
LINE
  5
452
  8
0
 10
601.70728774333361
 20
744.7301905369203
 30
0.0
 11
602.70728774333384
 21
744.7301905369203
 31
0.0
1001
ACAD
1000
ASC_BOUNDS
1002
{
1070
    19
1005
C34
1002
}
  0
LINE
  5
453
  8
0
 10
601.70728774333361
 20
742.23019053692019
 30
0.0
 11
601.70728774333361
 21
744.7301905369203
 31
0.0
1001
ACAD
1000
ASC_BOUNDS
1002
{
1070
    19
1005
C34
1002
}
  0
LINE
  5
454
  8
0
 10
601.70728774333361
 20
742.23019053692019
 30
0.0
 11
601.70728774333361
 21
740.7301905369203
 31
0.0
1001
ACAD
1000
ASC_BOUNDS
1002
{
1070
    19
1005
C34
1002
}
  0
LINE
  5
455
  8
0
 10
602.70728774333372
 20
756.7301905369203
 30
0.0
 11
603.95728774333361
 21
756.7301905369203
 31
0.0
1001
ACAD
1000
ASC_BOUNDS
1002
{
1070
    19
1005
C34
1002
}
  0
LINE
  5
456
  8
0
 10
602.70728774333372
 20
756.7301905369203
 30
0.0
 11
602.70728774333384
 21
744.7301905369203
 31
0.0
1001
ACAD
1000
ASC_BOUNDS
1002
{
1070
    19
1005
C34
1002
}
  0
LINE
  5
457
  8
0
 10
603.95728774333361
 20
760.2301905369203
 30
0.0
 11
603.95728774333361
 21
756.7301905369203
 31
0.0
1001
ACAD
1000
ASC_BOUNDS
1002
{
1070
    19
1005
C34
1002
}
  0
LINE
  5
458
  8
0
 10
603.95728774333361
 20
760.2301905369203
 30
0.0
 11
612.2072877433335
 21
760.2301905369203
 31
0.0
1001
ACAD
1000
ASC_BOUNDS
1002
{
1070
    19
1005
C34
1002
}
  0
LINE
  5
459
  8
0
 10
608.55728774333363
 20
760.23019053692042
 30
0.0
 11
608.55728774333363
 21
772.1301905369204
 31
0.0
  0
LINE
  5
45A
  8
0
 10
281.89214544354252
 20
739.23019053691996
 30
0.0
 11
282.89214544354252
 21
740.23019053691996
 31
0.0
  0
LINE
  5
45B
  8
0
 10
261.89214544354252
 20
739.23019053692008
 30
0.0
 11
260.89214544354252
 21
740.23019053691996
 31
0.0
1001
ACAD
1000
ASC_BOUNDS
1002
{
1070
    19
1005
4DD
1002
}
  0
LINE
  5
45C
  8
0
 10
282.89214544354252
 20
740.23019053691996
 30
0.0
 11
271.89214544354252
 21
740.23019053691996
 31
0.0
  0
ARC
  5
45D
  8
0
 10
290.91105594604471
 20
750.00356422383106
 30
0.0
 40
8.0641297981241955
 50
137.553134333667
 51
173.9295075709978
  0
LINE
  5
45E
  8
0
 10
260.95937314753257
 20
748.60212001424031
 30
0.0
 11
262.00944960019967
 21
764.91933182710727
 31
0.0
1001
ACAD
1000
ASC_BOUNDS
1002
{
1070
    19
1005
4DD
1002
}
  0
ARC
  5
45F
  8
0
 10
275.89214544354252
 20
747.18356033783573
 30
0.0
 40
15.0
 50
174.57339166943851
 51
180.0
1001
ACAD
1000
ASC_BOUNDS
1002
{
1070
    19
1005
4DD
1002
}
  0
LINE
  5
460
  8
0
 10
598.70728774333361
 20
741.73019053692019
 30
0.0
 11
598.70728774333361
 21
756.57679257777511
 31
0.0
1001
ACAD
1000
ASC_BOUNDS
1002
{
1070
    19
1005
4E4
1002
}
  0
LINE
  5
461
  8
0
 10
601.81080269869062
 20
775.63019053692028
 30
0.0
 11
604.70728774333361
 21
775.63019053692028
 31
0.0
1001
ACAD
1000
ASC_BOUNDS
1002
{
1070
    19
1005
4E4
1002
}
  0
LINE
  5
462
  8
0
 10
598.9175557877262
 20
760.67279439673473
 30
0.0
 11
600.31868775035525
 21
774.28379060513123
 31
0.0
1001
ACAD
1000
ASC_BOUNDS
1002
{
1070
    19
1005
4E4
1002
}
  0
ARC
  5
463
  8
0
 10
638.70728774333361
 20
756.57679257777511
 30
0.0
 40
40.0
 50
174.1226073933571
 51
180.0
1001
ACAD
1000
ASC_BOUNDS
1002
{
1070
    19
1005
4E4
1002
}
  0
LINE
  5
464
  8
0
 10
602.20728774333361
 20
744.93019053692024
 30
0.0
 11
602.20728774333361
 21
756.93019053692035
 31
0.0
1001
ACAD
1000
ASC_BOUNDS
1002
{
1070
    19
1005
4E4
1002
}
  0
LINE
  5
465
  8
0
 10
601.50728774333345
 20
744.93019053692024
 30
0.0
 11
602.70728774333384
 21
744.93019053692024
 31
0.0
1001
ACAD
1000
ASC_BOUNDS
1002
{
1070
    19
1005
4E4
1002
}
  0
LINE
  5
466
  8
0
 10
601.50728774333345
 20
740.7301905369203
 30
0.0
 11
601.50728774333356
 21
744.93019053692035
 31
0.0
1001
ACAD
1000
ASC_BOUNDS
1002
{
1070
    19
1005
4E4
1002
}
  0
LINE
  5
467
  8
0
 10
602.20728774333361
 20
756.93019053692035
 30
0.0
 11
603.95728774333361
 21
756.93019053692035
 31
0.0
1001
ACAD
1000
ASC_BOUNDS
1002
{
1070
    19
1005
4E4
1002
}
  0
LINE
  5
468
  8
0
 10
603.75728774333356
 20
760.43019053692035
 30
0.0
 11
603.75728774333356
 21
756.93019053692035
 31
0.0
1001
ACAD
1000
ASC_BOUNDS
1002
{
1070
    19
1005
4E4
1002
}
  0
LINE
  5
469
  8
0
 10
603.75728774333345
 20
760.43019053692035
 30
0.0
 11
608.55728774333352
 21
760.43019053692035
 31
0.0
1001
ACAD
1000
ASC_BOUNDS
1002
{
1070
    19
1005
4E4
1002
}
  0
LINE
  5
46A
  8
0
 10
608.2072877433335
 20
760.43019053692035
 30
0.0
 11
608.2072877433335
 21
762.93019053692035
 31
0.0
1001
ACAD
1000
ASC_BOUNDS
1002
{
1070
    19
1005
4E4
1002
}
  0
LINE
  5
46B
  8
0
 10
604.35728774333347
 20
762.93019053692035
 30
0.0
 11
604.35728774333347
 21
775.63019053692028
 31
0.0
1001
ACAD
1000
ASC_BOUNDS
1002
{
1070
    19
1005
4E4
1002
}
  0
LINE
  5
46C
  8
0
 10
608.55728774333363
 20
762.93019053692035
 30
0.0
 11
604.35728774333347
 21
762.93019053692035
 31
0.0
1001
ACAD
1000
ASC_BOUNDS
1002
{
1070
    19
1005
4E4
1002
}
  0
ARC
  5
46D
  8
0
 10
601.81080269869062
 20
774.13019053692017
 30
0.0
 40
1.5
 50
90.0
 51
174.1226073933571
1001
ACAD
1000
ASC_BOUNDS
1002
{
1070
    19
1005
4E4
1002
}
  0
LINE
  5
46E
  8
0
 10
604.70728774333361
 20
772.1301905369204
 30
0.0
 11
604.70728774333361
 21
778.73019053692019
 31
0.0
  0
LINE
  5
46F
  8
0
 10
604.70728774333361
 20
772.1301905369204
 30
0.0
 11
612.2072877433335
 21
772.1301905369204
 31
0.0
  0
LINE
  5
470
  8
0
 10
619.70728774333361
 20
775.63019053692005
 30
0.0
 11
619.70728774333361
 21
778.73019053692019
 31
0.0
  0
LINE
  5
471
  8
0
 10
621.36977049340078
 20
775.63019053692028
 30
0.0
 11
612.2072877433335
 21
775.63019053692005
 31
0.0
  0
LINE
  5
472
  8
0
 10
625.70728774333361
 20
741.73019053692019
 30
0.0
 11
625.70728774333361
 21
752.10546232307843
 31
0.0
  0
LINE
  5
473
  8
0
 10
624.7072877433335
 20
740.7301905369203
 30
0.0
 11
612.2072877433335
 21
740.7301905369203
 31
0.0
  0
LINE
  5
474
  8
0
 10
607.20728774333361
 20
711.98019053692053
 30
0.0
 11
607.20728774333361
 21
731.2301905369203
 31
0.0
  0
LINE
  5
477
  8
0
 10
607.95728774333361
 20
731.2301905369203
 30
0.0
 11
607.95728774333372
 21
711.2301905369203
 31
0.0
  0
LINE
  5
479
  8
0
 10
606.20728774333315
 20
760.2301905369203
 30
0.0
 11
606.20728774333361
 21
731.2301905369203
 31
0.0
1001
ACAD
1000
ASC_BOUNDS
1002
{
1070
    19
1005
C34
1002
}
  0
CIRCLE
  5
47A
  8
0
 10
127.0715450341696
 20
750.23019053691996
 30
0.0
 40
0.3
  0
CIRCLE
  5
47B
  8
0
 10
127.0715450341696
 20
751.44118779718076
 30
0.0
 40
0.3
  0
CIRCLE
  5
47C
  8
0
 10
127.0715450341696
 20
753.14415154566086
 30
0.0
 40
0.3
  0
CIRCLE
  5
47D
  8
0
 10
127.0715450341696
 20
754.66739983716855
 30
0.0
 40
0.3
  0
CIRCLE
  5
47E
  8
0
 10
127.0715450341696
 20
755.93019053692012
 30
0.0
 40
0.3
  0
CIRCLE
  5
47F
  8
0
 10
268.79214544354249
 20
758.23019053692008
 30
0.0
 40
0.3
  0
CIRCLE
  5
480
  8
0
 10
268.79214544354249
 20
759.50762436602417
 30
0.0
 40
0.3
  0
CIRCLE
  5
481
  8
0
 10
268.79214544354249
 20
761.33497698552196
 30
0.0
 40
0.3
  0
CIRCLE
  5
482
  8
0
 10
268.79214544354249
 20
763.03019053692003
 30
0.0
 40
0.3
  0
CIRCLE
  5
483
  8
0
 10
607.79087388265771
 20
763.33019053692033
 30
0.0
 40
0.4
  0
CIRCLE
  5
484
  8
0
 10
607.79087388265771
 20
765.2531635642024
 30
0.0
 40
0.4
  0
CIRCLE
  5
485
  8
0
 10
607.79087388265771
 20
767.77599799304051
 30
0.0
 40
0.4
  0
CIRCLE
  5
486
  8
0
 10
607.79087388265771
 20
770.29176819655527
 30
0.0
 40
0.4
  0
LINE
  5
487
  8
0
 10
679.2072877433335
 20
777.2301905369203
 30
0.0
 11
679.20728774333338
 21
783.73019053692019
 31
0.0
  0
LINE
  5
488
  8
0
 10
679.2072877433335
 20
785.2301905369203
 30
0.0
 11
690.70728774333361
 21
785.2301905369203
 31
0.0
  0
LINE
  5
489
  8
0
 10
692.20728774333372
 20
783.73019053692019
 30
0.0
 11
692.20728774333338
 21
777.2301905369203
 31
0.0
  0
LINE
  5
48A
  8
0
 10
690.7072877433335
 20
775.7301905369203
 30
0.0
 11
679.2072877433335
 21
775.7301905369203
 31
0.0
  0
ARC
  5
48B
  8
0
 10
690.70728774333361
 20
783.73019053692019
 30
0.0
 40
1.5
 50
0.0
 51
90.0
  0
ARC
  5
48C
  8
0
 10
690.7072877433335
 20
777.2301905369203
 30
0.0
 40
1.5
 50
270.0
 51
0.0
  0
ARC
  5
48D
  8
0
 10
681.78927266644257
 20
675.76352932501004
 30
0.0
 40
100.0
 50
91.479532811696103
 51
120.3585489277478
  0
ARC
  5
48E
  8
0
 10
683.51448208997226
 20
585.27657572373334
 30
0.0
 40
200.0
 50
91.234015689580232
 51
107.646593485805
  0
ARC
  5
48F
  8
0
 10
621.36977049340078
 20
780.63019053692028
 30
0.0
 40
5.0
 50
270.0
 51
287.646593485805
  0
ARC
  5
490
  8
0
 10
640.51353621819919
 20
750.72706629948732
 30
0.0
 40
15.0
 50
147.3759553507999
 51
163.99750559041721
  0
ARC
  5
491
  8
0
 10
636.30240510219539
 20
753.42268769794543
 30
0.0
 40
10.0
 50
120.3585489277478
 51
147.3759553507999
  0
ARC
  5
492
  8
0
 10
635.70728774333361
 20
752.10546232307854
 30
0.0
 40
10.0
 50
163.99750559041721
 51
180.0
  0
ARC
  5
493
  8
0
 10
640.4248630344207
 20
744.28097799658985
 30
0.0
 40
20.0
 50
117.31148802260481
 51
170.3597927622157
  0
LINE
  5
494
  8
0
  6
CENTER
 10
612.2072877433335
 20
782.7301905369203
 30
0.0
 11
612.2072877433335
 21
709.73019053692042
 31
0.0
  0
LINE
  5
495
  8
0
 10
613.39795346219444
 20
731.2301905369203
 30
0.0
 11
613.39795346219444
 21
740.7301905369203
 31
0.0
  0
LINE
  5
496
  8
0
 10
614.56984167139956
 20
731.2301905369203
 30
0.0
 11
614.56984167139956
 21
740.7301905369203
 31
0.0
  0
LINE
  5
497
  8
0
 10
615.70447099383796
 20
731.2301905369203
 30
0.0
 11
615.70447099383796
 21
740.7301905369203
 31
0.0
  0
LINE
  5
498
  8
0
 10
616.78394764729967
 20
731.2301905369203
 30
0.0
 11
616.78394764729967
 21
740.7301905369203
 31
0.0
  0
LINE
  5
499
  8
0
 10
617.79124764011203
 20
731.2301905369203
 30
0.0
 11
617.79124764011237
 21
740.7301905369203
 31
0.0
  0
LINE
  5
49A
  8
0
 10
618.71048524965613
 20
731.2301905369203
 30
0.0
 11
618.71048524965613
 21
740.7301905369203
 31
0.0
  0
LINE
  5
49B
  8
0
 10
619.52716354970335
 20
731.2301905369203
 30
0.0
 11
619.52716354970357
 21
740.7301905369203
 31
0.0
  0
LINE
  5
49C
  8
0
 10
620.22840303560258
 20
731.2301905369203
 30
0.0
 11
620.22840303560258
 21
740.7301905369203
 31
0.0
  0
LINE
  5
49D
  8
0
 10
620.80314474176066
 20
731.2301905369203
 30
0.0
 11
620.80314474176043
 21
740.7301905369203
 31
0.0
  0
LINE
  5
49E
  8
0
 10
621.24232464813736
 20
731.2301905369203
 30
0.0
 11
621.24232464813758
 21
740.7301905369203
 31
0.0
  0
LINE
  5
49F
  8
0
 10
621.53901662525607
 20
731.2301905369203
 30
0.0
 11
621.53901662525595
 21
740.7301905369203
 31
0.0
  0
LINE
  5
4A0
  8
0
  6
CENTER
 10
595.70732279167726
 20
663.52394231391372
 30
0.0
 11
703.20728774333361
 21
663.52394231391372
 31
0.0
  0
LINE
  5
4A1
  8
0
  6
CENTER
 10
612.2072877433335
 20
680.02390726556985
 30
0.0
 11
612.2072877433335
 21
647.02397736225748
 31
0.0
  0
CIRCLE
  5
4A2
  8
0
 10
612.2072877433335
 20
663.52394231391372
 30
0.0
 40
7.5
  0
CIRCLE
  5
4A3
  8
0
 10
612.2072877433335
 20
663.52394231391372
 30
0.0
 40
7.8500000000000218
  0
ARC
  5
4A4
  8
0
 10
612.2072877433335
 20
663.52394231391372
 30
0.0
 40
11.888599992978291
 50
45.640793429554357
 51
314.35920657044562
  0
ARC
  5
4A5
  8
0
 10
612.2072877433335
 20
663.52394231391372
 30
0.0
 40
13.49996495165618
 50
38.611878216796491
 51
321.38812178320342
  0
ARC
  5
4A6
  8
0
 10
692.20728774333372
 20
663.52394231391372
 30
0.0
 40
8.0
 50
237.5490242753844
 51
122.4509757246155
  0
LINE
  5
4A7
  8
0
 10
686.20378167573381
 20
669.80800760026534
 30
0.0
 11
620.51925560858933
 21
672.02394231391372
 31
0.0
  0
LINE
  5
4A8
  8
0
 10
686.20378167573381
 20
657.23987702756222
 30
0.0
 11
620.51925560858933
 21
655.02394231391372
 31
0.0
  0
ARC
  5
4A9
  8
0
 10
686.30493220185895
 20
672.80630187719407
 30
0.0
 40
3.0
 50
268.0678010390223
 51
302.45097572461549
  0
ARC
  5
4AA
  8
0
 10
686.30493220185895
 20
654.24158275063326
 30
0.0
 40
3.0
 50
57.549024275384468
 51
91.932198960977644
  0
LINE
  5
4AB
  8
0
 10
732.11345202672965
 20
731.2301905369203
 30
0.0
 11
751.11345202672953
 21
731.2301905369203
 31
0.0
  0
LINE
  5
4AC
  8
0
 10
728.32372007112224
 20
760.67279439673473
 30
0.0
 11
729.72485203375129
 21
774.28379060513123
 31
0.0
  0
LINE
  5
4AD
  8
0
 10
728.11345202672965
 20
741.73019053692019
 30
0.0
 11
728.11345202672965
 21
756.57679257777511
 31
0.0
  0
LINE
  5
4AE
  8
0
 10
729.11345202672965
 20
740.7301905369203
 30
0.0
 11
732.11345202672965
 21
740.7301905369203
 31
0.0
  0
ARC
  5
4AF
  8
0
 10
768.11345202672965
 20
756.57679257777511
 30
0.0
 40
40.0
 50
174.1226073933571
 51
180.0
  0
ARC
  5
4B0
  8
0
 10
731.21696698208655
 20
774.13019053692017
 30
0.0
 40
1.5
 50
90.0
 51
174.1226073933571
  0
LINE
  5
4B1
  8
0
 10
734.11345202672953
 20
775.63019053692028
 30
0.0
 11
734.11345202672965
 21
778.73019053692019
 31
0.0
  0
LINE
  5
4B2
  8
0
  6
CENTER
 10
741.61345202672965
 20
782.7301905369203
 30
0.0
 11
741.61345202672965
 21
709.73019053692042
 31
0.0
  0
LINE
  5
4B3
  8
0
 10
750.94518090865199
 20
731.2301905369203
 30
0.0
 11
750.94518090865188
 21
740.7301905369203
 31
0.0
  0
LINE
  5
4B4
  8
0
 10
750.64848893153351
 20
731.2301905369203
 30
0.0
 11
750.64848893153351
 21
740.7301905369203
 31
0.0
  0
LINE
  5
4B5
  8
0
 10
750.20930902515681
 20
731.2301905369203
 30
0.0
 11
750.20930902515647
 21
740.7301905369203
 31
0.0
  0
LINE
  5
4B6
  8
0
 10
749.63456731899862
 20
731.2301905369203
 30
0.0
 11
749.63456731899862
 21
740.7301905369203
 31
0.0
  0
LINE
  5
4B7
  8
0
 10
748.93332783309938
 20
731.2301905369203
 30
0.0
 11
748.93332783309972
 21
740.7301905369203
 31
0.0
  0
LINE
  5
4B8
  8
0
 10
748.11664953305205
 20
731.2301905369203
 30
0.0
 11
748.11664953305205
 21
740.7301905369203
 31
0.0
  0
LINE
  5
4B9
  8
0
 10
747.19741192350784
 20
731.2301905369203
 30
0.0
 11
747.19741192350853
 21
740.7301905369203
 31
0.0
  0
LINE
  5
4BA
  8
0
 10
746.19011193069593
 20
731.2301905369203
 30
0.0
 11
746.19011193069593
 21
740.7301905369203
 31
0.0
  0
LINE
  5
4BB
  8
0
 10
745.110635277234
 20
731.2301905369203
 30
0.0
 11
745.11063527723411
 21
740.7301905369203
 31
0.0
  0
LINE
  5
4BC
  8
0
 10
743.97600595479571
 20
731.2301905369203
 30
0.0
 11
743.9760059547956
 21
740.7301905369203
 31
0.0
  0
LINE
  5
4BD
  8
0
 10
751.11345202672953
 20
731.2301905369203
 30
0.0
 11
751.11345202672953
 21
740.7301905369203
 31
0.0
  0
LINE
  5
4BE
  8
0
 10
742.80411774559036
 20
731.2301905369203
 30
0.0
 11
742.80411774559036
 21
740.7301905369203
 31
0.0
  0
LINE
  5
4BF
  8
0
 10
754.11345202672965
 20
740.73019053692019
 30
0.0
 11
732.11345202672953
 21
740.7301905369203
 31
0.0
  0
LINE
  5
4C0
  8
0
 10
752.00993707137275
 20
775.63019053692028
 30
0.0
 11
731.21696698208655
 21
775.63019053692005
 31
0.0
  0
LINE
  5
4C1
  8
0
 10
749.11345202672965
 20
775.63019053692005
 30
0.0
 11
749.11345202672965
 21
778.73019053692019
 31
0.0
  0
LINE
  5
4C2
  8
0
 10
754.90318398233705
 20
760.67279439673473
 30
0.0
 11
753.502052019708
 21
774.28379060513123
 31
0.0
  0
LINE
  5
4C3
  8
0
 10
755.11345202672965
 20
741.73019053692008
 30
0.0
 11
755.11345202672965
 21
756.57679257777511
 31
0.0
  0
ARC
  5
4C4
  8
0
 10
715.11345202672965
 20
756.57679257777511
 30
0.0
 40
40.0
 50
0.0
 51
5.8773926066428608
  0
ARC
  5
4C5
  8
0
 10
752.00993707137275
 20
774.13019053692017
 30
0.0
 40
1.5
 50
5.8773926066428608
 51
90.0
  0
LINE
  5
4C6
  8
0
 10
732.28172314480707
 20
731.2301905369203
 30
0.0
 11
732.28172314480719
 21
740.7301905369203
 31
0.0
  0
LINE
  5
4C7
  8
0
 10
732.57841512192579
 20
731.2301905369203
 30
0.0
 11
732.57841512192579
 21
740.7301905369203
 31
0.0
  0
LINE
  5
4C8
  8
0
 10
733.01759502830248
 20
731.2301905369203
 30
0.0
 11
733.01759502830271
 21
740.7301905369203
 31
0.0
  0
LINE
  5
4C9
  8
0
 10
733.59233673446056
 20
731.2301905369203
 30
0.0
 11
733.59233673446056
 21
740.7301905369203
 31
0.0
  0
LINE
  5
4CA
  8
0
 10
734.29357622035968
 20
731.2301905369203
 30
0.0
 11
734.29357622035957
 21
740.7301905369203
 31
0.0
  0
LINE
  5
4CB
  8
0
 10
735.11025452040724
 20
731.2301905369203
 30
0.0
 11
735.11025452040724
 21
740.7301905369203
 31
0.0
  0
LINE
  5
4CC
  8
0
 10
736.02949212995134
 20
731.2301905369203
 30
0.0
 11
736.02949212995065
 21
740.7301905369203
 31
0.0
  0
LINE
  5
4CD
  8
0
 10
732.11345202672965
 20
731.2301905369203
 30
0.0
 11
732.11345202672965
 21
740.7301905369203
 31
0.0
  0
LINE
  5
4CE
  8
0
 10
737.03679212276325
 20
731.2301905369203
 30
0.0
 11
737.03679212276325
 21
740.7301905369203
 31
0.0
  0
LINE
  5
4CF
  8
0
 10
738.1162687762253
 20
731.2301905369203
 30
0.0
 11
738.11626877622518
 21
740.7301905369203
 31
0.0
  0
LINE
  5
4D0
  8
0
 10
739.25089809866358
 20
731.2301905369203
 30
0.0
 11
739.2508980986637
 21
740.7301905369203
 31
0.0
  0
LINE
  5
4D1
  8
0
 10
740.42278630786882
 20
731.2301905369203
 30
0.0
 11
740.42278630786882
 21
740.7301905369203
 31
0.0
  0
LINE
  5
4D2
  8
0
 10
733.61345202672965
 20
783.73019053692042
 30
0.0
 11
733.61345202672976
 21
775.63019053692005
 31
0.0
  0
LINE
  5
4D3
  8
0
 10
735.11345202672965
 20
785.23019053692042
 30
0.0
 11
748.11345202672965
 21
785.23019053692042
 31
0.0
  0
ARC
  5
4D4
  8
0
 10
735.11345202672965
 20
783.73019053692042
 30
0.0
 40
1.5
 50
90.0
 51
180.0
  0
LINE
  5
4D5
  8
0
 10
735.36345202672953
 20
784.73019053692042
 30
0.0
 11
734.21486212194554
 21
778.75752303204297
 31
0.0
  0
LINE
  5
4D6
  8
0
 10
734.11345202672965
 20
778.2301905369203
 30
0.0
 11
733.61345202672965
 21
775.63019053692005
 31
0.0
  0
LINE
  5
4D7
  8
0
 10
747.86345202672976
 20
784.73019053692042
 30
0.0
 11
749.01204193151375
 21
778.75752303204297
 31
0.0
  0
LINE
  5
4D8
  8
0
 10
749.11345202672965
 20
778.2301905369203
 30
0.0
 11
749.61345202672965
 21
775.63019053692005
 31
0.0
  0
LINE
  5
4D9
  8
0
 10
749.11345202672965
 20
775.63019053692028
 30
0.0
 11
749.11345202672965
 21
778.73019053692019
 31
0.0
  0
ARC
  5
4DA
  8
0
 10
748.11345202672965
 20
783.73019053692042
 30
0.0
 40
1.5
 50
0.0
 51
90.0
  0
LINE
  5
4DB
  8
0
 10
749.61345202672965
 20
783.73019053692042
 30
0.0
 11
749.61345202672965
 21
775.63019053692028
 31
0.0
  0
INSERT
  5
4DC
  8
0
  6
CONTINUOUS
  2
*X17
 10
0.0
 20
0.0
 30
0.0
1001
ACAD
1000
HATCH
1002
{
1070
    19
1000
_USER
1040
1.5
1040
2.3561944901923439
1000
ASC_BOUNDS
1070
     1
1070
     1
1070
    14
1005
38D
1005
388
1005
38C
1005
38A
1005
389
1005
38B
1005
387
1005
37C
1005
381
1005
37B
1005
37F
1005
37E
1005
380
1005
37D
1000
ASC_SEEDPOINT
1011
123.1148216066083
1021
6.0742595294983384E+197
1031
0.0
1021
755.06639137345405
1031
0.0
1000
R14_HATCH_DATA
1000
4DC
1011
1.0
1021
6.0742595294983384E+197
1031
0.0
1021
0.0
1031
0.0
1011
0.0
1021
6.0742595294983384E+197
1031
0.0
1021
1.0
1031
0.0
1011
0.0
1021
6.0742595294983384E+197
1031
0.0
1021
0.0
1031
1.0
1040
0.0
1010
0.0
1020
0.0
1030
1.0
1000
_USER
1070
     0
1070
     1
1071
        1
1071
        7
1070
     1
1070
     1
1071
       14
1040
121.5831573113342
1040
748.37445627864133
1040
0.022803610040628
1040
121.4465450341696
1040
745.38060488873214
1040
0.0
1040
121.4465450341696
1040
738.2301905369203
1040
0.0
1040
122.4465450341696
1040
737.23019053692019
1040
0.0
1040
123.6965450341696
1040
737.23019053692019
1040
0.0
1040
123.6965450341696
1040
745.88019053692017
1040
0.0
1040
124.9465450341696
1040
745.88019053692017
1040
0.0
1040
124.9465450341696
1040
748.68019053692012
1040
0.0
1040
127.0715450341696
1040
748.68019053692012
1040
0.0
1040
127.0715450341696
1040
749.93019053691989
1040
0.0
1040
124.9465450341696
1040
749.93019053692001
1040
0.0
1040
124.9465450341693
1040
760.03019053692014
1040
0.0
1040
123.375210691257
1040
760.03019053692014
1040
0.3927194441826968
1040
122.37794293680039
1040
759.10406222243546
1040
0.0
1071
       14
1005
37D
1005
380
1005
37E
1005
37F
1005
37B
1005
381
1005
37C
1005
387
1005
38B
1005
389
1005
38A
1005
38C
1005
388
1005
38D
1070
     0
1070
     0
1040
2.3561944901923439
1040
1.5
1070
     1
1070
     2
1040
2.3561944901923439
1040
257.90216692596641
1040
359.21542043119251
1040
-1.060660171779821
1040
-1.060660171779821
1070
     0
1040
3.926990816987241
1040
257.90216692596641
1040
359.21542043119251
1040
1.060660171779821
1040
-1.060660171779821
1070
     0
1040
0.0530386348753856
1071
        1
1040
123.1148216066083
1040
755.06639137345405
1040
0.0
1002
}
  0
INSERT
  5
4DD
  8
0
  6
CONTINUOUS
  2
*X18
 10
0.0
 20
0.0
 30
0.0
1001
ACAD
1000
HATCH
1002
{
1070
    19
1000
_USER
1040
1.5
1040
2.3561944901923439
1000
ASC_BOUNDS
1070
     1
1070
     1
1070
    16
1005
3FE
1005
3FC
1005
3ED
1005
3EE
1005
3EF
1005
3F0
1005
3F1
1005
3F3
1005
45B
1005
3F2
1005
45F
1005
45E
1005
3F7
1005
3F6
1005
3FF
1005
3FD
1000
ASC_SEEDPOINT
1011
263.93887406285489
1021
6.0742595294983384E+197
1031
0.0
1021
755.66217750638475
1031
0.0
1000
R14_HATCH_DATA
1000
4DD
1011
1.0
1021
6.0742595294983384E+197
1031
0.0
1021
0.0
1031
0.0
1011
0.0
1021
6.0742595294983384E+197
1031
0.0
1021
1.0
1031
0.0
1011
0.0
1021
6.0742595294983384E+197
1031
0.0
1021
0.0
1031
1.0
1040
0.0
1010
0.0
1020
0.0
1030
1.0
1000
_USER
1070
     0
1070
     1
1071
        1
1071
        7
1070
     1
1070
     1
1071
       16
1040
268.99214544354248
1040
757.93019053692012
1040
0.0
1040
265.49214544354248
1040
757.93019053692012
1040
0.0
1040
265.49214544354248
1040
766.73019053692008
1040
0.0
1040
264.00048590633418
1040
766.73019053692008
1040
0.3867373516094132
1040
262.00944960019967
1040
764.91933182710727
1040
0.0
1040
260.95937314753257
1040
748.60212001424009
1040
0.0236824716695726
1040
260.89214544354252
1040
747.18356033783573
1040
0.0
1040
260.89214544354252
1040
740.23019053691996
1040
0.0
1040
261.89214544354252
1040
739.2301905369203
1040
0.0
1040
262.99214544354248
1040
739.2301905369203
1040
0.0
1040
262.99214544354248
1040
742.53019053692014
1040
0.0
1040
264.14214544354252
1040
742.53019053692014
1040
0.0
1040
264.14214544354252
1040
752.43019053692035
1040
0.0
1040
265.84214544354239
1040
752.43019053692012
1040
0.0
1040
265.84214544354239
1040
755.43019053692035
1040
0.0
1040
268.99214544354248
1040
755.43019053692012
1040
0.0
1071
       16
1005
3FD
1005
3FF
1005
3F6
1005
3F7
1005
45E
1005
45F
1005
3F2
1005
45B
1005
3F3
1005
3F1
1005
3F0
1005
3EF
1005
3EE
1005
3ED
1005
3FC
1005
3FE
1070
     0
1070
     0
1040
2.3561944901923439
1040
1.5
1070
     1
1070
     2
1040
2.3561944901923439
1040
257.90216692596641
1040
359.21542043119251
1040
-1.060660171779821
1040
-1.060660171779821
1070
     0
1040
3.926990816987241
1040
257.90216692596641
1040
359.21542043119251
1040
1.060660171779821
1040
-1.060660171779821
1070
     0
1040
0.0707165409840762
1071
        1
1040
263.93887406285489
1040
755.66217750638475
1040
0.0
1002
}
  0
LINE
  5
4DE
  8
0
 10
625.70728774333361
 20
741.73019053692019
 30
0.0
 11
624.7072877433335
 21
740.7301905369203
 31
0.0
  0
LINE
  5
4DF
  8
0
 10
598.70728774333361
 20
741.73019053692019
 30
0.0
 11
599.7072877433335
 21
740.7301905369203
 31
0.0
1001
ACAD
1000
ASC_BOUNDS
1002
{
1070
    19
1005
4E4
1002
}
  0
LINE
  5
4E0
  8
0
 10
625.70728774333361
 20
741.73019053692019
 30
0.0
 11
612.2072877433335
 21
741.73019053692019
 31
0.0
  0
LINE
  5
4E1
  8
0
 10
728.11345202672965
 20
741.73019053692019
 30
0.0
 11
729.11345202672965
 21
740.7301905369203
 31
0.0
  0
LINE
  5
4E2
  8
0
 10
755.11345202672965
 20
741.73019053692008
 30
0.0
 11
754.11345202672965
 21
740.73019053692019
 31
0.0
  0
LINE
  5
4E3
  8
0
 10
728.11345202672965
 20
741.73019053692019
 30
0.0
 11
755.11345202672965
 21
741.73019053692008
 31
0.0
  0
INSERT
  5
4E4
  8
0
  6
CONTINUOUS
  2
*X19
 10
0.0
 20
0.0
 30
0.0
1001
ACAD
1000
HATCH
1002
{
1070
    19
1000
_USER
1040
2.0
1040
2.3561944901923439
1000
ASC_BOUNDS
1070
     1
1070
     1
1070
    16
1005
46A
1005
469
1005
468
1005
467
1005
464
1005
465
1005
466
1005
451
1005
4DF
1005
460
1005
463
1005
462
1005
46D
1005
461
1005
46B
1005
46C
1000
ASC_SEEDPOINT
1011
602.35909375474557
1021
6.0742595294983384E+197
1031
0.0
1021
760.4868022417985
1031
0.0
1000
R14_HATCH_DATA
1000
4E4
1011
1.0
1021
6.0742595294983384E+197
1031
0.0
1021
0.0
1031
0.0
1011
0.0
1021
6.0742595294983384E+197
1031
0.0
1021
1.0
1031
0.0
1011
0.0
1021
6.0742595294983384E+197
1031
0.0
1021
0.0
1031
1.0
1040
0.0
1010
0.0
1020
0.0
1030
1.0
1000
_USER
1070
     0
1070
     1
1071
        1
1071
        7
1070
     1
1070
     1
1071
       16
1040
608.2072877433335
1040
762.93019053692035
1040
0.0
1040
604.35728774333347
1040
762.93019053692035
1040
0.0
1040
604.35728774333359
1040
775.6301905369204
1040
0.0
1040
601.8108026986904
1040
775.63019053692028
1040
0.3844779663653147
1040
600.31868775035525
1040
774.28379060513123
1040
0.0
1040
598.9175557877262
1040
760.67279439673473
1040
0.0256505865080408
1040
598.70728774333361
1040
756.57679257777534
1040
0.0
1040
598.70728774333361
1040
741.73019053692019
1040
0.0
1040
599.7072877433335
1040
740.7301905369203
1040
0.0
1040
601.50728774333356
1040
740.7301905369203
1040
0.0
1040
601.50728774333379
1040
744.93019053692035
1040
0.0
1040
602.20728774333361
1040
744.93019053692035
1040
0.0
1040
602.20728774333361
1040
756.93019053692035
1040
0.0
1040
603.75728774333356
1040
756.93019053692035
1040
0.0
1040
603.75728774333356
1040
760.43019053692035
1040
0.0
1040
608.2072877433335
1040
760.43019053692035
1040
0.0
1071
       16
1005
46C
1005
46B
1005
461
1005
46D
1005
462
1005
463
1005
460
1005
4DF
1005
451
1005
466
1005
465
1005
464
1005
467
1005
468
1005
469
1005
46A
1070
     0
1070
     0
1040
2.3561944901923439
1040
2.0
1070
     1
1070
     2
1040
2.3561944901923439
1040
257.90216692596641
1040
359.21542043119251
1040
-1.4142135623730949
1040
-1.414213562373094
1070
     0
1040
3.926990816987241
1040
257.90216692596641
1040
359.21542043119251
1040
1.414213562373094
1040
-1.4142135623730949
1070
     0
1040
0.1086710000507886
1071
        1
1040
602.35909375474557
1040
760.4868022417985
1040
0.0
1002
}
  0
INSERT
  5
4E5
  8
0
  6
CONTINUOUS
  2
*X20
 10
0.0
 20
0.0
 30
0.0
1001
ACAD
1000
HATCH
1002
{
1070
    19
1000
_USER
1040
2.0
1040
2.3561944901923439
1000
ASC_BOUNDS
1070
     1
1070
     1
1070
    15
1005
31C
1005
31A
1005
407
1005
406
1005
318
1005
317
1005
316
1005
30F
1005
312
1005
311
1005
310
1005
313
1005
314
1005
31D
1005
31B
1000
ASC_SEEDPOINT
1011
425.48573435345128
1021
6.0742595294983384E+197
1031
0.0
1021
756.66531594581306
1031
0.0
1000
R14_HATCH_DATA
1000
4E5
1011
1.0
1021
6.0742595294983384E+197
1031
0.0
1021
0.0
1031
0.0
1011
0.0
1021
6.0742595294983384E+197
1031
0.0
1021
1.0
1031
0.0
1011
0.0
1021
6.0742595294983384E+197
1031
0.0
1021
0.0
1031
1.0
1040
0.0
1010
0.0
1020
0.0
1030
1.0
1000
_USER
1070
     0
1070
     1
1071
        1
1071
        7
1070
     1
1070
     1
1071
       15
1040
430.23337244488232
1040
757.73019053692019
1040
0.0
1040
426.23337244488238
1040
757.73019053692019
1040
0.0
1040
426.23337244488238
1040
766.73019053692008
1040
0.0
1040
424.57954820281577
1040
766.73019053692019
1040
0.398692099941999
1040
422.58238659346011
1040
764.83670582275261
1040
0.0
1040
421.88337244488241
1040
751.73019053691985
1040
0.0
1040
421.43337244488231
1040
740.42947224744887
1040
0.0
1040
422.6333724448823
1040
739.23019053692042
1040
0.0
1040
423.78337244488227
1040
739.23019053692042
1040
0.0
1040
423.78337244488227
1040
742.53019053692026
1040
0.0
1040
425.23337244488221
1040
742.53019053692014
1040
0.0
1040
425.23337244488232
1040
751.93019053692024
1040
0.0
1040
425.83337244488229
1040
751.93019053692024
1040
0.0
1040
425.8333724448824
1040
755.43019053692035
1040
0.0
1040
430.23337244488232
1040
755.43019053692035
1040
0.0
1071
       15
1005
31B
1005
31D
1005
314
1005
313
1005
310
1005
311
1005
312
1005
30F
1005
316
1005
317
1005
318
1005
406
1005
407
1005
31A
1005
31C
1070
     0
1070
     0
1040
2.3561944901923439
1040
2.0
1070
     1
1070
     2
1040
2.3561944901923439
1040
0.0
1040
0.0
1040
-1.4142135623730949
1040
-1.414213562373094
1070
     0
1040
3.926990816987241
1040
0.0
1040
0.0
1040
1.414213562373094
1040
-1.4142135623730949
1070
     0
1040
0.0993372950902932
1071
        1
1040
425.48573435345128
1040
756.66531594581306
1040
0.0
1002
}
  0
LINE
  5
4E7
  8
0
 10
130.69654503416959
 20
698.80723628728219
 30
0.0
 11
130.69654503416959
 21
689.9331166126326
 31
0.0
  0
LINE
  5
4E8
  8
0
 10
129.19654503416959
 20
698.80723628728219
 30
0.0
 11
129.19654503416959
 21
689.9331166126326
 31
0.0
  0
LINE
  5
4E9
  8
0
 10
125.4465450341696
 20
757.23019053692019
 30
0.0
 11
129.94654503416959
 21
757.23019053692008
 31
0.0
  0
CIRCLE
  5
4EA
  8
0
 10
127.0715450341697
 20
756.93019053692024
 30
0.0
 40
0.3
  0
INSERT
  5
4EB
  8
0
  6
CONTINUOUS
  2
*U21
 10
0.0
 20
0.0
 30
0.0
1001
ACAD
1002
{
1000
R14_HATCH_DATA
1000
4EB
1011
1.0
1021
6.0742595294983384E+197
1031
0.0
1021
0.0
1031
0.0
1011
0.0
1021
6.0742595294983384E+197
1031
0.0
1021
1.0
1031
0.0
1011
0.0
1021
6.0742595294983384E+197
1031
0.0
1021
0.0
1031
1.0
1040
0.0
1010
0.0
1020
0.0
1030
1.0
1000
SOLID
1070
     1
1070
     1
1071
        6
1071
        7
1070
     1
1070
     1
1071
        2
1040
127.3715450341696
1040
756.93019053692024
1040
1.0
1040
126.77154503416961
1040
756.93019053692024
1040
1.0
1071
        1
1005
4EA
1071
        7
1070
     1
1070
     1
1071
        2
1040
127.3715450341696
1040
755.93019053692012
1040
1.0
1040
126.77154503416961
1040
755.93019053692012
1040
1.0
1071
        1
1005
47E
1071
        7
1070
     1
1070
     1
1071
        2
1040
127.3715450341696
1040
754.66739983716855
1040
1.0
1040
126.77154503416961
1040
754.66739983716855
1040
1.0
1071
        1
1005
47D
1071
        7
1070
     1
1070
     1
1071
        2
1040
127.3715450341696
1040
753.14415154566086
1040
1.0
1040
126.77154503416961
1040
753.14415154566086
1040
1.0
1071
        1
1005
47C
1071
        7
1070
     1
1070
     1
1071
        2
1040
127.3715450341696
1040
751.44118779718076
1040
1.0
1040
126.77154503416961
1040
751.44118779718076
1040
1.0
1071
        1
1005
47B
1071
        7
1070
     1
1070
     1
1071
        2
1040
126.77154503416961
1040
750.23019053691996
1040
1.0
1040
127.3715450341696
1040
750.23019053691996
1040
1.0
1071
        1
1005
47A
1070
     0
1070
     1
1040
0.019646419543371
1071
        6
1040
127.20832873750859
1040
756.8865416656696
1040
0.0
1040
127.1297087155158
1040
755.90422031343894
1040
0.0
1040
127.1493633481173
1040
754.56826327440535
1040
0.0
1040
126.992124795718
1040
753.07513579630336
1040
0.0
1040
127.1297087155158
1040
751.26766450819912
1040
0.0
1040
127.22798337011029
1040
750.32463698734625
1040
0.0
1002
}
  0
LINE
  5
4EC
  8
0
 10
127.4465450341696
 20
748.43019053692024
 30
0.0
 11
127.4465450341696
 21
757.23019053692019
 31
0.0
  0
LINE
  5
4F5
  8
0
 10
129.19654503416959
 20
761.98019053691996
 30
0.0
 11
129.19654503416959
 21
762.73019053692008
 31
0.0
  0
LINE
  5
4F6
  8
0
 10
130.69654503416959
 20
761.98019053691985
 30
0.0
 11
130.69654503416959
 21
762.73019053692008
 31
0.0
  0
LINE
  5
4F7
  8
0
 10
129.19654503416959
 20
761.98019053691996
 30
0.0
 11
130.69654503416959
 21
761.98019053691985
 31
0.0
  0
LINE
  5
4F8
  8
0
 10
266.14214544354252
 20
755.23019053692008
 30
0.0
 11
271.89214544354252
 21
755.23019053692008
 31
0.0
1001
ACAD
1000
ASC_BOUNDS
1002
{
1070
    19
1005
932
1002
}
  0
LINE
  5
4FA
  8
0
 10
265.89214544354252
 20
764.48019053692019
 30
0.0
 11
271.89214544354252
 21
764.48019053692019
 31
0.0
  0
CIRCLE
  5
500
  8
0
 10
268.79214544354249
 20
764.18019053692024
 30
0.0
 40
0.3
  0
INSERT
  5
503
  8
0
  6
CONTINUOUS
  2
*U22
 10
0.0
 20
0.0
 30
0.0
1001
ACAD
1002
{
1000
R14_HATCH_DATA
1000
503
1011
1.0
1021
6.0742595294983384E+197
1031
0.0
1021
0.0
1031
0.0
1011
0.0
1021
6.0742595294983384E+197
1031
0.0
1021
1.0
1031
0.0
1011
0.0
1021
6.0742595294983384E+197
1031
0.0
1021
0.0
1031
1.0
1040
0.0
1010
0.0
1020
0.0
1030
1.0
1000
SOLID
1070
     1
1070
     1
1071
        5
1071
        7
1070
     1
1070
     1
1071
        2
1040
269.09214544354251
1040
764.18019053692024
1040
1.0
1040
268.49214544354248
1040
764.18019053692024
1040
1.0
1071
        1
1005
500
1071
        7
1070
     1
1070
     1
1071
        2
1040
268.49214544354248
1040
763.03019053692003
1040
1.0
1040
269.09214544354251
1040
763.03019053692003
1040
1.0
1071
        1
1005
482
1071
        7
1070
     1
1070
     1
1071
        2
1040
268.49214544354248
1040
761.33497698552196
1040
1.0
1040
269.09214544354251
1040
761.33497698552196
1040
1.0
1071
        1
1005
481
1071
        7
1070
     1
1070
     1
1071
        2
1040
269.09214544354251
1040
759.50762436602417
1040
1.0
1040
268.49214544354248
1040
759.50762436602417
1040
1.0
1071
        1
1005
480
1071
        7
1070
     1
1070
     1
1071
        2
1040
269.09214544354251
1040
758.23019053692008
1040
1.0
1040
268.49214544354248
1040
758.23019053692008
1040
1.0
1071
        1
1005
47F
1070
     0
1070
     1
1040
0.0180486512733748
1071
        5
1040
268.90010795856421
1040
764.08963584339267
1040
0.0
1040
268.68343054955272
1040
763.13305728952776
1040
0.0
1040
268.7195436981138
1040
761.43648387703763
1040
0.0
1040
268.7737119386
1040
759.46918108830778
1040
0.0
1040
268.7195436981138
1040
758.11553226463025
1040
0.0
1002
}
  0
LINE
  5
504
  8
0
 10
272.64214544354252
 20
769.71498158253382
 30
0.0
 11
272.64214544354252
 21
768.98019053692008
 31
0.0
  0
LINE
  5
505
  8
0
 10
271.14214544354252
 20
769.71498158253382
 30
0.0
 11
271.14214544354252
 21
768.98019053692008
 31
0.0
  0
LINE
  5
506
  8
0
 10
271.14214544354252
 20
768.98019053692008
 30
0.0
 11
272.64214544354252
 21
768.98019053692008
 31
0.0
  0
LINE
  5
507
  8
0
 10
272.64214544354252
 20
700.32311689985272
 30
0.0
 11
272.64214544354252
 21
688.41723600006196
 31
0.0
  0
LINE
  5
508
  8
0
 10
271.14214544354252
 20
700.32311689985272
 30
0.0
 11
271.14214544354252
 21
688.41723600006196
 31
0.0
  0
LINE
  5
509
  8
0
 10
439.43337244488242
 20
766.73019053692008
 30
0.0
 11
439.43337244488242
 21
768.73019053692019
 31
0.0
  0
LINE
  5
50A
  8
0
 10
432.18337244488231
 20
768.98019053692008
 30
0.0
 11
433.68337244488231
 21
768.98019053692008
 31
0.0
  0
LINE
  5
50B
  8
0
 10
432.18337244488231
 20
769.71718084322924
 30
0.0
 11
432.18337244488231
 21
768.98019053692008
 31
0.0
  0
LINE
  5
50C
  8
0
 10
433.68337244488231
 20
769.71718084322924
 30
0.0
 11
433.68337244488231
 21
768.98019053692008
 31
0.0
  0
LINE
  5
50D
  8
0
 10
426.43337244488231
 20
764.48019053692019
 30
0.0
 11
426.43337244488231
 21
768.73019053692019
 31
0.0
  0
LINE
  5
50E
  8
0
 10
426.43337244488231
 20
764.48019053692019
 30
0.0
 11
432.93337244488231
 21
764.48019053692019
 31
0.0
  0
LINE
  5
50F
  8
0
 10
430.43337244488231
 20
755.2301905369203
 30
0.0
 11
430.43337244488231
 21
764.48019053692019
 31
0.0
  0
ARC
  5
514
  8
0
 10
129.94654503416959
 20
752.10519053691996
 30
0.0
 40
10.625
 50
64.94238458169707
 51
85.952225803186735
  0
ARC
  5
515
  8
0
 10
129.94654503416959
 20
752.10519053691996
 30
0.0
 40
10.625
 50
94.047774196812455
 51
115.0576154183029
  0
ARC
  5
516
  8
0
 10
194.51221008428641
 20
752.10519053691996
 30
0.0
 40
10.625
 50
64.94238458169707
 51
115.0576154183029
  0
ARC
  5
517
  8
0
 10
271.89214544354252
 20
751.23019053692008
 30
0.0
 40
18.5
 50
71.075355583948678
 51
87.676561388947547
  0
ARC
  5
518
  8
0
 10
271.89214544354252
 20
751.23019053692008
 30
0.0
 40
18.5
 50
92.323438611052438
 51
108.92464441605129
  0
ARC
  5
519
  8
0
 10
350.589946070689
 20
751.23019053692008
 30
0.0
 40
18.5
 50
71.075355583948678
 51
108.92464441605129
  0
ARC
  5
51A
  8
0
 10
432.93337244488231
 20
748.1051905369203
 30
0.0
 40
21.62499999999989
 50
72.50767547488978
 51
88.012464552308217
  0
ARC
  5
51B
  8
0
 10
432.93337244488231
 20
748.1051905369203
 30
0.0
 40
21.62499999999989
 50
91.987535447691755
 51
107.49232452511021
  0
ARC
  5
51C
  8
0
 10
525.71858828929965
 20
741.18852387025356
 30
0.0
 40
28.541666666666622
 50
76.836110689644201
 51
103.1638893103558
  0
CIRCLE
  5
51D
  8
0
 10
429.73337244488232
 20
764.18019053692024
 30
0.0
 40
0.3
  0
INSERT
  5
51E
  8
0
  6
CONTINUOUS
  2
*U23
 10
0.0
 20
0.0
 30
0.0
1001
ACAD
1002
{
1000
R14_HATCH_DATA
1000
51E
1011
1.0
1021
6.0742595294983384E+197
1031
0.0
1021
0.0
1031
0.0
1011
0.0
1021
6.0742595294983384E+197
1031
0.0
1021
1.0
1031
0.0
1011
0.0
1021
6.0742595294983384E+197
1031
0.0
1021
0.0
1031
1.0
1040
0.0
1010
0.0
1020
0.0
1030
1.0
1000
SOLID
1070
     1
1070
     1
1071
        5
1071
        7
1070
     1
1070
     1
1071
        2
1040
430.03337244488227
1040
764.18019053692024
1040
1.0
1040
429.43337244488231
1040
764.18019053692024
1040
1.0
1071
        1
1005
51D
1071
        7
1070
     1
1070
     1
1071
        2
1040
430.03337244488227
1040
763.03344571157311
1040
1.0
1040
429.43337244488231
1040
763.03344571157311
1040
1.0
1071
        1
1005
30E
1071
        7
1070
     1
1070
     1
1071
        2
1040
430.03337244488227
1040
761.26806285274654
1040
1.0
1040
429.43337244488231
1040
761.26806285274654
1040
1.0
1071
        1
1005
2EC
1071
        7
1070
     1
1070
     1
1071
        2
1040
430.03337244488227
1040
759.46899888298765
1040
1.0
1040
429.43337244488231
1040
759.46899888298765
1040
1.0
1071
        1
1005
2ED
1071
        7
1070
     1
1070
     1
1071
        2
1040
430.03337244488227
1040
758.19183274375985
1040
1.0
1040
429.43337244488231
1040
758.19183274375985
1040
1.0
1071
        1
1005
31E
1070
     0
1070
     1
1040
0.0379068803075116
1071
        5
1040
429.8352854153182
1040
764.11890559759524
1040
0.0
1040
429.68359255740398
1040
762.90588587041805
1040
0.0
1040
429.7973622008397
1040
761.20007563442607
1040
0.0
1040
429.64566934292549
1040
759.38054555794349
1040
0.0
1040
429.72151577188271
1040
758.01589775772334
1040
0.0
1002
}
  0
LINE
  5
523
  8
0
 10
432.18337244488231
 20
686.88672572665564
 30
0.0
 11
432.18337244488231
 21
673.97355415651054
 31
0.0
  0
LINE
  5
524
  8
0
 10
433.68337244488231
 20
686.88672572665564
 30
0.0
 11
433.68337244488231
 21
673.97355415651054
 31
0.0
  0
CIRCLE
  5
525
  8
0
 10
271.89214544354252
 20
694.37017644995728
 30
0.0
 40
6.0
  0
CIRCLE
  5
526
  8
0
 10
129.94654503416959
 20
694.37017644995728
 30
0.0
 40
4.5
  0
ARC
  5
527
  8
0
 10
612.2072877433335
 20
751.10519053692019
 30
0.0
 40
28.625
 50
74.810713262816847
 51
88.498628725017255
  0
LINE
  5
528
  8
0
 10
611.45728774333361
 20
779.72036352259352
 30
0.0
 11
611.45728774333361
 21
778.2203635225934
 31
0.0
  0
LINE
  5
529
  8
0
 10
612.95728774333361
 20
779.72036352259352
 30
0.0
 11
612.95728774333361
 21
778.2203635225934
 31
0.0
  0
ARC
  5
52A
  8
0
 10
612.2072877433335
 20
751.10519053692019
 30
0.0
 40
28.625
 50
91.501371274982745
 51
105.1892867371831
  0
LINE
  5
52B
  8
0
 10
611.45728774333361
 20
778.2203635225934
 30
0.0
 11
612.95728774333361
 21
778.2203635225934
 31
0.0
  0
LINE
  5
52C
  8
0
 10
612.95728774333361
 20
670.98634809221335
 30
0.0
 11
612.95728774333361
 21
656.0615365356141
 31
0.0
  0
LINE
  5
52D
  8
0
 10
611.45728774333361
 20
670.98634809221335
 30
0.0
 11
611.45728774333361
 21
656.0615365356141
 31
0.0
  0
ARC
  5
52E
  8
0
 10
741.61345202672965
 20
751.10519053692019
 30
0.0
 40
28.625
 50
74.810713262816847
 51
105.1892867371831
  0
CIRCLE
  5
52F
  8
0
 10
607.79087388265771
 20
771.73019053692042
 30
0.0
 40
0.4
  0
INSERT
  5
530
  8
0
  6
CONTINUOUS
  2
*U24
 10
0.0
 20
0.0
 30
0.0
1001
ACAD
1002
{
1000
R14_HATCH_DATA
1000
530
1011
1.0
1021
6.0742595294983384E+197
1031
0.0
1021
0.0
1031
0.0
1011
0.0
1021
6.0742595294983384E+197
1031
0.0
1021
1.0
1031
0.0
1011
0.0
1021
6.0742595294983384E+197
1031
0.0
1021
0.0
1031
1.0
1040
0.0
1010
0.0
1020
0.0
1030
1.0
1000
SOLID
1070
     1
1070
     1
1071
        5
1071
        7
1070
     1
1070
     1
1071
        2
1040
607.39087388265784
1040
771.73019053692042
1040
1.0
1040
608.1908738826578
1040
771.73019053692042
1040
1.0
1071
        1
1005
52F
1071
        7
1070
     1
1070
     1
1071
        2
1040
608.1908738826578
1040
770.29176819655527
1040
1.0
1040
607.39087388265784
1040
770.29176819655527
1040
1.0
1071
        1
1005
486
1071
        7
1070
     1
1070
     1
1071
        2
1040
608.1908738826578
1040
767.77599799304051
1040
1.0
1040
607.39087388265784
1040
767.77599799304051
1040
1.0
1071
        1
1005
485
1071
        7
1070
     1
1070
     1
1071
        2
1040
608.1908738826578
1040
765.2531635642024
1040
1.0
1040
607.39087388265784
1040
765.2531635642024
1040
1.0
1071
        1
1005
484
1071
        7
1070
     1
1070
     1
1071
        2
1040
608.1908738826578
1040
763.33019053692033
1040
1.0
1040
607.39087388265784
1040
763.33019053692033
1040
1.0
1071
        1
1005
483
1070
     0
1070
     1
1040
0.062540119365266
1071
        5
1040
607.68571006213995
1040
771.8283800036595
1040
0.0
1040
607.68571006213995
1040
770.07725681665534
1040
0.0
1040
608.06111353424944
1040
768.32613362965139
1040
0.0
1040
607.74827755458102
1040
765.19912807733829
1040
0.0
1040
607.8108450470221
1040
763.19784401875131
1040
0.0
1002
}
  0
LINE
  5
5BF
  8
0
 10
127.4465450341696
 20
721.23019053692019
 30
0.0
 11
132.4465450341697
 21
721.23019053692019
 31
0.0
  0
LINE
  5
5C0
  8
0
 10
126.9465450341696
 20
721.7301905369203
 30
0.0
 11
132.9465450341697
 21
721.73019053692008
 31
0.0
  0
LINE
  5
5C1
  8
0
 10
126.9465450341696
 20
721.73019053692008
 30
0.0
 11
127.4465450341696
 21
721.23019053692008
 31
0.0
  0
LINE
  5
5D7
  8
0
 10
132.44654503416959
 20
721.23019053692008
 30
0.0
 11
132.4465450341697
 21
731.2301905369203
 31
0.0
  0
LINE
  5
5D8
  8
0
 10
132.94654503416959
 20
721.73019053692008
 30
0.0
 11
132.94654503416959
 21
731.2301905369203
 31
0.0
  0
LINE
  5
5D9
  8
0
 10
132.94654503416959
 20
721.73019053692008
 30
0.0
 11
132.44654503416959
 21
721.23019053692008
 31
0.0
  0
LINE
  5
6C4
  8
0
 10
126.1423189689889
 20
739.46436930759035
 30
0.0
 11
126.1423189689889
 21
746.36119495419427
 31
0.0
  0
LINE
  5
6C5
  8
0
 10
126.42416290674279
 20
739.46436930759035
 30
0.0
 11
126.42416290674279
 21
746.36119495419427
 31
0.0
  0
LINE
  5
6C6
  8
0
 10
126.8192191042975
 20
739.46436930759035
 30
0.0
 11
126.8192191042975
 21
746.36119495419427
 31
0.0
  0
LINE
  5
6C7
  8
0
 10
127.3147901304108
 20
739.46436930759035
 30
0.0
 11
127.3147901304108
 21
746.36119495419427
 31
0.0
  0
LINE
  5
6C8
  8
0
 10
127.894947924546
 20
739.46436930759035
 30
0.0
 11
127.894947924546
 21
746.36119495419427
 31
0.0
  0
LINE
  5
6C9
  8
0
 10
128.54104573784431
 20
739.46436930759035
 30
0.0
 11
128.54104573784431
 21
746.36119495419427
 31
0.0
  0
LINE
  5
6CA
  8
0
 10
129.23231745497509
 20
739.46436930759035
 30
0.0
 11
129.23231745497509
 21
746.36119495419427
 31
0.0
  0
INSERT
  5
713
  8
0
  6
CONTINUOUS
  2
*X25
 10
0.0
 20
0.0
 30
0.0
1001
ACAD
1000
HATCH
1002
{
1070
    19
1000
_USER
1040
1.0
1040
0.7853981633974483
1000
ASC_BOUNDS
1070
     1
1070
     1
1070
     6
1005
374
1005
363
1005
373
1005
36F
1005
37A
1005
364
1000
ASC_SEEDPOINT
1011
125.1144904506679
1021
6.0742595294983384E+197
1031
0.0
1021
740.0930561359047
1031
0.0
1000
R14_HATCH_DATA
1000
713
1011
1.0
1021
6.0742595294983384E+197
1031
0.0
1021
0.0
1031
0.0
1011
0.0
1021
6.0742595294983384E+197
1031
0.0
1021
1.0
1031
0.0
1011
0.0
1021
6.0742595294983384E+197
1031
0.0
1021
0.0
1031
1.0
1040
0.0
1010
0.0
1020
0.0
1030
1.0
1000
_USER
1070
     0
1070
     1
1071
        1
1071
        7
1070
     0
1070
     1
1071
        6
1040
125.9465450341696
1040
748.43019053692024
1040
125.1965450341696
1040
748.43019053692024
1040
125.1965450341696
1040
745.63019053692005
1040
124.1965450341696
1040
745.63019053692005
1040
124.1965450341696
1040
731.23019053692019
1040
125.9465450341696
1040
731.2301905369203
1071
        6
1005
364
1005
37A
1005
36F
1005
373
1005
363
1005
374
1070
     0
1070
     0
1040
0.7853981633974483
1040
1.0
1070
     1
1070
     2
1040
0.7853981633974483
1040
0.0
1040
0.0
1040
-0.7071067811865475
1040
0.7071067811865476
1070
     0
1040
2.3561944901923439
1040
0.0
1040
0.0
1040
-0.7071067811865476
1040
-0.7071067811865475
1070
     0
1040
0.0729747329324044
1071
        1
1040
125.1144904506679
1040
740.0930561359047
1040
0.0
1002
}
  0
LINE
  5
81D
  8
0
 10
191.51221008428629
 20
721.70519053692033
 30
0.0
 11
197.51221008428649
 21
721.70519053692021
 31
0.0
  0
LINE
  5
81E
  8
0
 10
192.01221008428629
 20
721.20519053692033
 30
0.0
 11
197.01221008428641
 21
721.20519053692033
 31
0.0
  0
LINE
  5
81F
  8
0
 10
197.51221008428641
 20
721.70519053692021
 30
0.0
 11
197.01221008428641
 21
721.20519053692021
 31
0.0
  0
LINE
  5
820
  8
0
 10
197.51221008428641
 20
721.70519053692021
 30
0.0
 11
197.51221008428641
 21
731.20519053692033
 31
0.0
  0
LINE
  5
821
  8
0
 10
197.01221008428641
 20
721.20519053692021
 30
0.0
 11
197.01221008428641
 21
731.20519053692033
 31
0.0
  0
LINE
  5
822
  8
0
 10
191.51221008428641
 20
721.70519053692021
 30
0.0
 11
192.01221008428641
 21
721.20519053692021
 31
0.0
  0
LINE
  5
823
  8
0
 10
192.01221008428641
 20
721.20519053692021
 30
0.0
 11
192.01221008428641
 21
731.20519053692033
 31
0.0
  0
LINE
  5
824
  8
0
 10
191.51221008428641
 20
721.70519053692021
 30
0.0
 11
191.51221008428641
 21
731.20519053692033
 31
0.0
  0
LINE
  5
825
  8
0
 10
269.39214544354252
 20
721.23019053692008
 30
0.0
 11
274.39214544354257
 21
721.23019053692008
 31
0.0
  0
LINE
  5
826
  8
0
 10
268.89214544354252
 20
721.73019053692008
 30
0.0
 11
274.89214544354252
 21
721.73019053691996
 31
0.0
  0
LINE
  5
827
  8
0
 10
268.89214544354252
 20
721.73019053692008
 30
0.0
 11
269.39214544354252
 21
721.23019053692008
 31
0.0
  0
LINE
  5
828
  8
0
 10
274.89214544354252
 20
721.73019053692008
 30
0.0
 11
274.89214544354252
 21
731.23019053692019
 31
0.0
  0
LINE
  5
829
  8
0
 10
274.89214544354252
 20
721.73019053692008
 30
0.0
 11
274.39214544354252
 21
721.23019053692008
 31
0.0
  0
LINE
  5
82A
  8
0
 10
274.39214544354252
 20
721.23019053692008
 30
0.0
 11
274.39214544354252
 21
731.23019053692019
 31
0.0
  0
LINE
  5
899
  8
0
 10
271.10997311834132
 20
742.7799707436053
 30
0.0
 11
271.10997311834132
 21
751.71546660547619
 31
0.0
  0
LINE
  5
89A
  8
0
 10
270.3470604716677
 20
742.7799707436053
 30
0.0
 11
270.3470604716677
 21
751.71546660547619
 31
0.0
  0
LINE
  5
89B
  8
0
 10
269.6221929448447
 20
742.7799707436053
 30
0.0
 11
269.6221929448447
 21
751.71546660547631
 31
0.0
  0
LINE
  5
89C
  8
0
 10
268.95321918207998
 20
742.7799707436053
 30
0.0
 11
268.95321918207998
 21
751.71546660547619
 31
0.0
  0
LINE
  5
89D
  8
0
 10
268.35661153760969
 20
742.7799707436053
 30
0.0
 11
268.35661153760969
 21
751.71546660547619
 31
0.0
  0
LINE
  5
89E
  8
0
 10
267.84706047166782
 20
742.7799707436053
 30
0.0
 11
267.8470604716677
 21
751.71546660547608
 31
0.0
  0
LINE
  5
89F
  8
0
 10
267.43711282260062
 20
742.7799707436053
 30
0.0
 11
267.43711282260062
 21
751.71546660547619
 31
0.0
  0
LINE
  5
8A0
  8
0
 10
267.13686286206672
 20
742.7799707436053
 30
0.0
 11
267.13686286206661
 21
751.71546660547619
 31
0.0
  0
LINE
  5
8A1
  8
0
 10
266.9537037405666
 20
742.7799707436053
 30
0.0
 11
266.9537037405666
 21
751.71546660547619
 31
0.0
  0
INSERT
  5
932
  8
0
  6
CONTINUOUS
  2
*X26
 10
0.0
 20
0.0
 30
0.0
1001
ACAD
1000
HATCH
1002
{
1070
    19
1000
_USER
1040
1.0
1040
0.7853981633974483
1000
ASC_BOUNDS
1070
     1
1070
     1
1070
    10
1005
400
1005
3DA
1005
3DB
1005
3E7
1005
3E8
1005
3E9
1005
3EA
1005
3EB
1005
3EC
1005
4F8
1000
ASC_SEEDPOINT
1011
265.60576408311681
1021
6.0742595294983384E+197
1031
0.0
1021
743.45996522417715
1031
0.0
1000
R14_HATCH_DATA
1000
932
1011
1.0
1021
6.0742595294983384E+197
1031
0.0
1021
0.0
1031
0.0
1011
0.0
1021
6.0742595294983384E+197
1031
0.0
1021
1.0
1031
0.0
1011
0.0
1021
6.0742595294983384E+197
1031
0.0
1021
0.0
1031
1.0
1040
0.0
1010
0.0
1020
0.0
1030
1.0
1000
_USER
1070
     0
1070
     1
1071
        1
1071
        7
1070
     0
1070
     1
1071
       10
1040
266.89214544354252
1040
755.2301905369203
1040
266.14214544354252
1040
755.23019053692008
1040
266.14214544354252
1040
752.13019053692017
1040
264.64214544354252
1040
752.13019053692017
1040
264.64214544354252
1040
742.23019053692019
1040
263.29214544354238
1040
742.23019053692008
1040
263.29214544354238
1040
739.23019053692008
1040
264.64214544354252
1040
739.23019053692008
1040
264.64214544354252
1040
731.23019053692019
1040
266.89214544354252
1040
731.23019053692019
1071
       10
1005
4F8
1005
3EC
1005
3EB
1005
3EA
1005
3E9
1005
3E8
1005
3E7
1005
3DB
1005
3DA
1005
400
1070
     0
1070
     0
1040
0.7853981633974483
1040
1.0
1070
     1
1070
     2
1040
0.7853981633974483
1040
0.0
1040
0.0
1040
-0.7071067811865475
1040
0.7071067811865476
1070
     0
1040
2.3561944901923439
1040
0.0
1040
0.0
1040
-0.7071067811865476
1040
-0.7071067811865475
1070
     0
1040
0.0540587520170155
1071
        1
1040
265.60576408311681
1040
743.45996522417715
1040
0.0
1002
}
  0
LINE
  5
933
  8
0
 10
348.089946070689
 20
721.23019053692008
 30
0.0
 11
353.08994607068911
 21
721.23019053692008
 31
0.0
  0
LINE
  5
934
  8
0
 10
347.589946070689
 20
721.73019053692008
 30
0.0
 11
353.589946070689
 21
721.73019053691996
 31
0.0
  0
LINE
  5
935
  8
0
 10
347.589946070689
 20
721.73019053692008
 30
0.0
 11
348.089946070689
 21
721.23019053692008
 31
0.0
  0
LINE
  5
936
  8
0
 10
353.589946070689
 20
721.73019053692008
 30
0.0
 11
353.089946070689
 21
721.23019053692008
 31
0.0
  0
LINE
  5
937
  8
0
 10
353.089946070689
 20
721.23019053692008
 30
0.0
 11
353.089946070689
 21
731.23019053692019
 31
0.0
  0
LINE
  5
938
  8
0
 10
353.589946070689
 20
721.73019053692008
 30
0.0
 11
353.589946070689
 21
731.23019053692019
 31
0.0
  0
LINE
  5
939
  8
0
 10
347.589946070689
 20
721.73019053692008
 30
0.0
 11
347.589946070689
 21
731.23019053692019
 31
0.0
  0
LINE
  5
93A
  8
0
 10
348.089946070689
 20
721.23019053692008
 30
0.0
 11
348.089946070689
 21
731.23019053692019
 31
0.0
  0
LINE
  5
9C1
  8
0
 10
429.53337244488222
 20
716.23019053692042
 30
0.0
 11
436.3333724448824
 21
716.23019053692019
 31
0.0
  0
LINE
  5
9C3
  8
0
 10
436.33337244488229
 20
716.23019053692019
 30
0.0
 11
436.33337244488217
 21
731.2301905369203
 31
0.0
  0
LINE
  5
9C4
  8
0
 10
436.93337244488242
 20
716.83019053692033
 30
0.0
 11
436.9333724448822
 21
731.2301905369203
 31
0.0
  0
LINE
  5
9C5
  8
0
 10
428.9333724448822
 20
716.83019053692044
 30
0.0
 11
436.93337244488242
 21
716.83019053692021
 31
0.0
  0
LINE
  5
9C6
  8
0
 10
428.9333724448822
 20
716.83019053692033
 30
0.0
 11
429.53337244488227
 21
716.23019053692019
 31
0.0
  0
LINE
  5
9C7
  8
0
 10
436.93337244488242
 20
716.83019053692021
 30
0.0
 11
436.33337244488229
 21
716.23019053692019
 31
0.0
  0
LINE
  5
9F5
  8
0
 10
432.15120011968099
 20
741.39684395690347
 30
0.0
 11
432.15120011968099
 21
751.52457526151647
 31
0.0
  0
LINE
  5
9F6
  8
0
 10
431.38828747300761
 20
741.39684395690347
 30
0.0
 11
431.38828747300761
 21
751.52457526151647
 31
0.0
  0
LINE
  5
9F7
  8
0
 10
430.6634199461846
 20
741.39684395690347
 30
0.0
 11
430.6634199461846
 21
751.52457526151647
 31
0.0
  0
LINE
  5
9F8
  8
0
 10
429.99444618342
 20
741.39684395690347
 30
0.0
 11
429.99444618342
 21
751.52457526151636
 31
0.0
  0
LINE
  5
9F9
  8
0
 10
429.39783853894949
 20
741.39684395690347
 30
0.0
 11
429.39783853894949
 21
751.52457526151647
 31
0.0
  0
LINE
  5
9FA
  8
0
 10
428.88828747300749
 20
741.39684395690347
 30
0.0
 11
428.88828747300738
 21
751.52457526151647
 31
0.0
  0
LINE
  5
9FB
  8
0
 10
428.47833982394047
 20
741.39684395690347
 30
0.0
 11
428.47833982394047
 21
751.52457526151647
 31
0.0
  0
LINE
  5
9FC
  8
0
 10
428.17808986340651
 20
741.39684395690347
 30
0.0
 11
428.17808986340651
 21
751.52457526151647
 31
0.0
  0
LINE
  5
9FD
  8
0
 10
427.99493074190661
 20
741.39684395690347
 30
0.0
 11
427.99493074190661
 21
751.52457526151647
 31
0.0
  0
INSERT
  5
A4F
  8
0
  6
CONTINUOUS
  2
*X27
 10
0.0
 20
0.0
 30
0.0
1001
ACAD
1000
HATCH
1002
{
1070
    19
1000
_USER
1040
1.5
1040
0.7853981633974483
1000
ASC_BOUNDS
1070
     1
1070
     1
1070
    12
1005
308
1005
2F0
1005
2F6
1005
30D
1005
2F4
1005
2F5
1005
2F2
1005
2F3
1005
2EF
1005
2F1
1005
319
1005
30C
1000
ASC_SEEDPOINT
1011
425.76884540888
1021
6.0742595294983384E+197
1031
0.0
1021
741.17142576492643
1031
0.0
1000
R14_HATCH_DATA
1000
A4F
1011
1.0
1021
6.0742595294983384E+197
1031
0.0
1021
0.0
1031
0.0
1011
0.0
1021
6.0742595294983384E+197
1031
0.0
1021
1.0
1031
0.0
1011
0.0
1021
6.0742595294983384E+197
1031
0.0
1021
0.0
1031
1.0
1040
0.0
1010
0.0
1020
0.0
1030
1.0
1000
_USER
1070
     0
1070
     1
1071
        1
1071
        7
1070
     0
1070
     1
1071
       12
1040
427.93337244488242
1040
755.2301905369203
1040
426.0333724448825
1040
755.23019053692042
1040
426.03337244488227
1040
751.73019053692008
1040
425.43337244488231
1040
751.7301905369203
1040
425.43337244488242
1040
742.23019053692008
1040
424.28337244488227
1040
742.23019053692008
1040
424.28337244488227
1040
739.33019053692044
1040
425.43337244488231
1040
739.33019053692033
1040
425.43337244488231
1040
737.73019053692019
1040
425.68337244488231
1040
737.73019053692019
1040
425.68337244488231
1040
731.23019053692019
1040
427.9333724448822
1040
731.23019053692019
1071
       12
1005
30C
1005
319
1005
2F1
1005
2EF
1005
2F3
1005
2F2
1005
2F5
1005
2F4
1005
30D
1005
2F6
1005
2F0
1005
308
1070
     0
1070
     0
1040
0.7853981633974483
1040
1.5
1070
     1
1070
     2
1040
0.7853981633974483
1040
0.0
1040
0.0
1040
-1.060660171779821
1040
1.060660171779821
1070
     0
1040
2.3561944901923439
1040
0.0
1040
0.0
1040
-1.060660171779821
1040
-1.060660171779821
1070
     0
1040
0.1339490537253756
1071
        1
1040
425.76884540888
1040
741.17142576492643
1040
0.0
1002
}
  0
LINE
  5
A92
  8
0
 10
521.71858828929953
 20
716.83019053692021
 30
0.0
 11
529.71858828929965
 21
716.83019053691987
 31
0.0
  0
LINE
  5
A93
  8
0
 10
529.71858828929965
 20
716.83019053691987
 30
0.0
 11
529.11858828929962
 21
716.23019053691985
 31
0.0
  0
LINE
  5
A94
  8
0
 10
521.71858828929953
 20
716.8301905369201
 30
0.0
 11
522.31858828929956
 21
716.23019053692008
 31
0.0
  0
LINE
  5
A95
  8
0
 10
522.31858828929944
 20
716.23019053692019
 30
0.0
 11
529.11858828929962
 21
716.23019053692008
 31
0.0
  0
LINE
  5
A96
  8
0
 10
529.11858828929962
 20
716.23019053692008
 30
0.0
 11
529.11858828929951
 21
731.23019053691996
 31
0.0
  0
LINE
  5
A97
  8
0
 10
529.71858828929965
 20
716.8301905369201
 30
0.0
 11
529.71858828929953
 21
731.23019053691996
 31
0.0
  0
LINE
  5
A98
  8
0
 10
522.31858828929956
 20
716.23019053692008
 30
0.0
 11
522.31858828929956
 21
731.23019053691996
 31
0.0
  0
LINE
  5
A99
  8
0
 10
521.71858828929953
 20
716.83019053692021
 30
0.0
 11
521.71858828929965
 21
731.23019053691996
 31
0.0
  0
LINE
  5
B68
  8
0
 10
607.95728774333384
 20
711.2301905369203
 30
0.0
 11
616.45728774333361
 21
711.23019053692042
 31
0.0
  0
LINE
  5
B69
  8
0
 10
607.2072877433335
 20
711.9801905369203
 30
0.0
 11
617.20728774333372
 21
711.9801905369203
 31
0.0
  0
LINE
  5
B6A
  8
0
 10
607.20728774333361
 20
711.9801905369203
 30
0.0
 11
607.95728774333372
 21
711.2301905369203
 31
0.0
  0
LINE
  5
B6B
  8
0
 10
617.20728774333361
 20
711.98019053692053
 30
0.0
 11
617.20728774333361
 21
731.2301905369203
 31
0.0
  0
LINE
  5
B6C
  8
0
 10
616.45728774333361
 20
731.2301905369203
 30
0.0
 11
616.4572877433335
 21
711.2301905369203
 31
0.0
  0
LINE
  5
B6D
  8
0
 10
617.20728774333361
 20
711.9801905369203
 30
0.0
 11
616.4572877433335
 21
711.2301905369203
 31
0.0
  0
LINE
  5
BDE
  8
0
 10
611.26868095309214
 20
743.5689595322159
 30
0.0
 11
611.26868095309214
 21
754.5547446936763
 31
0.0
  0
LINE
  5
BDF
  8
0
 10
610.35318577708392
 20
743.56895953221567
 30
0.0
 11
610.35318577708392
 21
754.55474469367641
 31
0.0
  0
LINE
  5
BE0
  8
0
 10
609.48334474489627
 20
743.56895953221567
 30
0.0
 11
609.48334474489627
 21
754.5547446936763
 31
0.0
  0
LINE
  5
BE1
  8
0
 10
608.68057622957861
 20
743.5689595322159
 30
0.0
 11
608.68057622957872
 21
754.5547446936763
 31
0.0
  0
LINE
  5
BE2
  8
0
 10
607.96464705621429
 20
743.5689595322159
 30
0.0
 11
607.96464705621406
 21
754.55474469367641
 31
0.0
  0
LINE
  5
BE3
  8
0
 10
607.35318577708392
 20
743.56895953221567
 30
0.0
 11
607.35318577708404
 21
754.5547446936763
 31
0.0
  0
LINE
  5
BE4
  8
0
 10
606.86124859820336
 20
743.56895953221601
 30
0.0
 11
606.86124859820336
 21
754.55474469367641
 31
0.0
  0
LINE
  5
BE5
  8
0
 10
606.50094864556263
 20
743.5689595322159
 30
0.0
 11
606.50094864556274
 21
754.55474469367641
 31
0.0
  0
LINE
  5
BE6
  8
0
 10
606.28115769976296
 20
743.5689595322159
 30
0.0
 11
606.28115769976284
 21
754.5547446936763
 31
0.0
  0
INSERT
  5
C34
  8
0
  6
CONTINUOUS
  2
*X28
 10
0.0
 20
0.0
 30
0.0
1001
ACAD
1000
HATCH
1002
{
1070
    19
1000
_USER
1040
1.5
1040
0.7853981633974483
1000
ASC_BOUNDS
1070
     1
1070
     1
1070
    11
1005
479
1005
44E
1005
44F
1005
451
1005
454
1005
453
1005
452
1005
456
1005
455
1005
457
1005
458
1000
ASC_SEEDPOINT
1011
604.73943682464073
1021
6.0742595294983384E+197
1031
0.0
1021
747.3476621064483
1031
0.0
1000
R14_HATCH_DATA
1000
C34
1011
1.0
1021
6.0742595294983384E+197
1031
0.0
1021
0.0
1031
0.0
1011
0.0
1021
6.0742595294983384E+197
1031
0.0
1021
1.0
1031
0.0
1011
0.0
1021
6.0742595294983384E+197
1031
0.0
1021
0.0
1031
1.0
1040
0.0
1010
0.0
1020
0.0
1030
1.0
1000
_USER
1070
     0
1070
     1
1071
        1
1071
        7
1070
     0
1070
     1
1071
       11
1040
606.20728774333304
1040
760.2301905369203
1040
603.9572877433335
1040
760.23019053692019
1040
603.95728774333361
1040
756.7301905369203
1040
602.70728774333372
1040
756.73019053692042
1040
602.70728774333384
1040
744.7301905369203
1040
601.70728774333361
1040
744.7301905369203
1040
601.70728774333361
1040
742.23019053692019
1040
601.70728774333361
1040
740.73019053692019
1040
602.70728774333361
1040
740.7301905369203
1040
602.70728774333361
1040
731.23019053692042
1040
606.2072877433335
1040
731.23019053692042
1071
       11
1005
458
1005
457
1005
455
1005
456
1005
452
1005
453
1005
454
1005
451
1005
44F
1005
44E
1005
479
1070
     0
1070
     0
1040
0.7853981633974483
1040
1.5
1070
     1
1070
     2
1040
0.7853981633974483
1040
0.0
1040
0.0
1040
-1.060660171779821
1040
1.060660171779821
1070
     0
1040
2.3561944901923439
1040
0.0
1040
0.0
1040
-1.060660171779821
1040
-1.060660171779821
1070
     0
1040
0.0946929114558891
1071
        1
1040
604.73943682464073
1040
747.3476621064483
1040
0.0
1002
}
  0
LINE
  5
C35
  8
0
 10
737.36345202672976
 20
711.2301905369203
 30
0.0
 11
745.86345202672965
 21
711.23019053692042
 31
0.0
  0
LINE
  5
C36
  8
0
 10
736.61345202672953
 20
711.9801905369203
 30
0.0
 11
746.61345202672965
 21
711.9801905369203
 31
0.0
  0
LINE
  5
C37
  8
0
 10
736.61345202672965
 20
711.9801905369203
 30
0.0
 11
737.36345202672965
 21
711.2301905369203
 31
0.0
  0
LINE
  5
C38
  8
0
 10
746.61345202672965
 20
711.9801905369203
 30
0.0
 11
745.86345202672953
 21
711.2301905369203
 31
0.0
  0
LINE
  5
C39
  8
0
 10
746.61345202672965
 20
711.98019053692053
 30
0.0
 11
746.61345202672965
 21
731.2301905369203
 31
0.0
  0
LINE
  5
C3A
  8
0
 10
745.86345202672965
 20
731.2301905369203
 30
0.0
 11
745.86345202672953
 21
711.2301905369203
 31
0.0
  0
LINE
  5
C3B
  8
0
 10
736.61345202672965
 20
711.98019053692053
 30
0.0
 11
736.61345202672965
 21
731.2301905369203
 31
0.0
  0
LINE
  5
C3C
  8
0
 10
737.36345202672965
 20
731.2301905369203
 30
0.0
 11
737.36345202672965
 21
711.2301905369203
 31
0.0
  0
VIEWPORT
  5
8D
 67
     1
  8
0
 10
143.47825622558591
 20
99.980751991271987
 30
0.0
 40
339.12752973873143
 41
222.1965796813964
 68
     1
 69
     1
1001
ACAD
1000
MVIEW
1002
{
1070
    16
1010
0.0
1020
0.0
1030
0.0
1010
0.0
1020
0.0
1030
1.0
1040
0.0
1040
222.1965796813964
1040
143.47825622558591
1040
99.980751991271987
1040
50.0
1040
0.0
1040
0.0
1070
     0
1070
   100
1070
     1
1070
     1
1070
     0
1070
     0
1070
     0
1070
     0
1040
0.0
1040
0.0
1040
0.0
1040
10.0
1040
10.0
1040
10.0
1040
10.0
1070
     0
1002
{
1002
}
1002
}
  0
VIEWPORT
  5
8F
 67
     1
  8
0
 10
143.37242841720581
 20
99.874916553497314
 30
0.0
 40
229.3958854675293
 41
159.79986648559569
 68
     2
 69
     2
1001
ACAD
1000
MVIEW
1002
{
1070
    16
1010
0.0
1020
0.0
1030
0.0
1010
0.0
1020
0.0
1030
1.0
1040
0.0
1040
300.10452961672468
1040
210.0
1040
148.5
1040
50.0
1040
0.0
1040
0.0
1070
     0
1070
   100
1070
     1
1070
     2
1070
     0
1070
     0
1070
     0
1070
     0
1040
0.0
1040
0.0
1040
0.0
1040
10.0
1040
10.0
1040
10.0
1040
10.0
1070
     0
1002
{
1002
}
1002
}
  0
ENDSEC
  0
EOF
