  0
SECTION
  2
HEADER
  9
$ACADVER
  1
AC1009
  9
$INSBASE
 10
0.0
 20
0.0
 30
0.0
  9
$EXTMIN
 10
-0.5113781938941884
 20
488.12276654006899
 30
-0.0015258207003583
  9
$EXTMAX
 10
636.19834565553367
 20
595.52472657243788
 30
0.0000000349246037
  9
$LIMMIN
 10
0.0
 20
0.0
  9
$LIMMAX
 10
420.0
 20
297.0
  9
$ORTHOMODE
 70
     1
  9
$REGENMODE
 70
     1
  9
$FILLMODE
 70
     1
  9
$QTEXTMODE
 70
     0
  9
$MIRRTEXT
 70
     1
  9
$DRAGMODE
 70
     2
  9
$LTSCALE
 40
1.0
  9
$OSMODE
 70
    40
  9
$ATTMODE
 70
     1
  9
$TEXTSIZE
 40
2.5
  9
$TRACEWID
 40
1.0
  9
$TEXTSTYLE
  7
STANDARD
  9
$CLAYER
  8
0
  9
$CELTYPE
  6
BYLAYER
  9
$CECOLOR
 62
   256
  9
$DIMSCALE
 40
1.0
  9
$DIMASZ
 40
2.5
  9
$DIMEXO
 40
0.625
  9
$DIMDLI
 40
3.75
  9
$DIMRND
 40
0.0
  9
$DIMDLE
 40
0.0
  9
$DIMEXE
 40
1.25
  9
$DIMTP
 40
0.0
  9
$DIMTM
 40
0.0
  9
$DIMTXT
 40
2.5
  9
$DIMCEN
 40
2.5
  9
$DIMTSZ
 40
0.0
  9
$DIMTOL
 70
     0
  9
$DIMLIM
 70
     0
  9
$DIMTIH
 70
     1
  9
$DIMTOH
 70
     1
  9
$DIMSE1
 70
     0
  9
$DIMSE2
 70
     0
  9
$DIMTAD
 70
     1
  9
$DIMZIN
 70
     8
  9
$DIMBLK
  1

  9
$DIMASO
 70
     1
  9
$DIMSHO
 70
     1
  9
$DIMPOST
  1

  9
$DIMAPOST
  1

  9
$DIMALT
 70
     0
  9
$DIMALTD
 70
     3
  9
$DIMALTF
 40
0.03937007874016
  9
$DIMLFAC
 40
1.0
  9
$DIMTOFL
 70
     1
  9
$DIMTVP
 40
0.0
  9
$DIMTIX
 70
     0
  9
$DIMSOXD
 70
     0
  9
$DIMSAH
 70
     0
  9
$DIMBLK1
  1

  9
$DIMBLK2
  1

  9
$DIMSTYLE
  2
ISO-25
  9
$DIMCLRD
 70
     0
  9
$DIMCLRE
 70
     0
  9
$DIMCLRT
 70
     0
  9
$DIMTFAC
 40
1.0
  9
$DIMGAP
 40
0.625
  9
$LUNITS
 70
     2
  9
$LUPREC
 70
     4
  9
$SKETCHINC
 40
1.0
  9
$FILLETRAD
 40
1.0
  9
$AUNITS
 70
     0
  9
$AUPREC
 70
     0
  9
$MENU
  1
.
  9
$ELEVATION
 40
0.0
  9
$PELEVATION
 40
0.0
  9
$THICKNESS
 40
0.0
  9
$LIMCHECK
 70
     0
  9
$BLIPMODE
 70
     0
  9
$CHAMFERA
 40
0.35
  9
$CHAMFERB
 40
0.35
  9
$SKPOLY
 70
     0
  9
$TDCREATE
 40
2452865.5884886342
  9
$TDUPDATE
 40
2452867.6064805319
  9
$TDINDWG
 40
0.1479359954
  9
$TDUSRTIMER
 40
0.1479308912
  9
$USRTIMER
 70
     1
  9
$ANGBASE
 50
0.0
  9
$ANGDIR
 70
     0
  9
$PDMODE
 70
     3
  9
$PDSIZE
 40
2.0
  9
$PLINEWID
 40
0.0
  9
$COORDS
 70
     0
  9
$SPLFRAME
 70
     0
  9
$SPLINETYPE
 70
     6
  9
$SPLINESEGS
 70
     8
  9
$ATTDIA
 70
     0
  9
$ATTREQ
 70
     1
  9
$HANDLING
 70
-16383
  9
$HANDSEED
  5
150A
  9
$SURFTAB1
 70
     6
  9
$SURFTAB2
 70
     6
  9
$SURFTYPE
 70
     6
  9
$SURFU
 70
     6
  9
$SURFV
 70
     6
  9
$UCSNAME
  2

  9
$UCSORG
 10
0.0
 20
0.0
 30
0.0
  9
$UCSXDIR
 10
1.0
 20
0.0
 30
0.0
  9
$UCSYDIR
 10
0.0
 20
1.0
 30
0.0
  9
$PUCSNAME
  2

  9
$PUCSORG
 10
0.0
 20
0.0
 30
0.0
  9
$PUCSXDIR
 10
1.0
 20
0.0
 30
0.0
  9
$PUCSYDIR
 10
0.0
 20
1.0
 30
0.0
  9
$USERI1
 70
     0
  9
$USERI2
 70
     0
  9
$USERI3
 70
     0
  9
$USERI4
 70
     0
  9
$USERI5
 70
     0
  9
$USERR1
 40
0.0
  9
$USERR2
 40
0.0
  9
$USERR3
 40
0.0
  9
$USERR4
 40
0.0
  9
$USERR5
 40
0.0
  9
$WORLDVIEW
 70
     1
  9
$SHADEDGE
 70
     3
  9
$SHADEDIF
 70
    70
  9
$TILEMODE
 70
     1
  9
$MAXACTVP
 70
    48
  9
$PLIMCHECK
 70
     0
  9
$PEXTMIN
 10
28.674485683441159
 20
19.97498331069945
 30
0.0
  9
$PEXTMAX
 10
258.0703711509704
 20
179.77484979629509
 30
0.0
  9
$PLIMMIN
 10
-5.027069091796875
 20
-5.0270833969116211
  9
$PLIMMAX
 10
291.98358154296869
 20
204.98858737945551
  9
$UNITMODE
 70
     0
  9
$VISRETAIN
 70
     1
  9
$PLINEGEN
 70
     0
  9
$PSLTSCALE
 70
     1
  0
ENDSEC
  0
SECTION
  2
TABLES
  0
TABLE
  2
VPORT
 70
     5
  0
VPORT
  2
*ACTIVE
 70
     0
 10
0.0
 20
0.0
 11
1.0
 21
1.0
 12
317.84348373081968
 22
541.82374655625335
 13
0.0
 23
0.0
 14
10.0
 24
10.0
 15
10.0
 25
10.0
 16
0.0
 26
0.0
 36
1.0
 17
0.0
 27
0.0
 37
0.0
 40
419.22005729760349
 41
1.5262500000000001
 42
50.0
 43
0.0
 44
0.0
 50
0.0
 51
0.0
 71
     0
 72
   100
 73
     1
 74
     2
 75
     0
 76
     0
 77
     0
 78
     0
  0
ENDTAB
  0
TABLE
  2
LTYPE
 70
     2
  0
LTYPE
  2
CONTINUOUS
 70
     0
  3
Solid line
 72
    65
 73
     0
 40
0.0
  0
LTYPE
  2
CENTER
 70
     0
  3
Center (.5x) ___ _ ___ _ ___ _ ___ _ ___ _ ___
 72
    65
 73
     4
 40
28.574999999999989
 49
19.050000000000001
 49
-3.1749999999999989
 49
3.1749999999999989
 49
-3.1749999999999989
  0
ENDTAB
  0
TABLE
  2
LAYER
 70
     1
  0
LAYER
  2
0
 70
     0
 62
     7
  6
CONTINUOUS
  0
ENDTAB
  0
TABLE
  2
STYLE
 70
     1
  0
STYLE
  2
STANDARD
 70
     0
 40
0.0
 41
1.0
 50
0.0
 71
     0
 42
2.5
  3
txt
  4

  0
ENDTAB
  0
TABLE
  2
VIEW
 70
     0
  0
ENDTAB
  0
TABLE
  2
UCS
 70
     0
  0
ENDTAB
  0
TABLE
  2
APPID
 70
     1
  0
APPID
  2
ACAD
 70
     0
  0
ENDTAB
  0
TABLE
  2
DIMSTYLE
 70
     1
  0
DIMSTYLE
  2
ISO-25
 70
     0
  3

  4

  5

  6

  7

 40
1.0
 41
2.5
 42
0.625
 43
3.75
 44
1.25
 45
0.0
 46
0.0
 47
0.0
 48
0.0
140
2.5
141
2.5
142
0.0
143
0.03937007874016
144
1.0
145
0.0
146
1.0
147
0.625
 71
     0
 72
     0
 73
     1
 74
     1
 75
     0
 76
     0
 77
     1
 78
     8
170
     0
171
     3
172
     1
173
     0
174
     0
175
     0
176
     0
177
     0
178
     0
  0
ENDTAB
  0
ENDSEC
  0
SECTION
  2
BLOCKS
  0
BLOCK
  8
0
  2
$MODEL_SPACE
 70
     0
 10
0.0
 20
0.0
 30
0.0
  3
$MODEL_SPACE
  1

  0
ENDBLK
  5
21
  8
0
  0
BLOCK
 67
     1
  8
0
  2
$PAPER_SPACE
 70
     0
 10
0.0
 20
0.0
 30
0.0
  3
$PAPER_SPACE
  1

  0
ENDBLK
  5
53
 67
     1
  8
0
  0
BLOCK
  8
0
  2
*X0
 70
     1
 10
0.0
 20
0.0
 30
0.0
  3
*X0
  1

  0
LINE
  5
12B2
  8
0
 62
     0
 10
5.2057168793809581
 20
570.29214807617677
 30
0.0
 11
3.372238225246917
 21
568.4586694220427
 31
0.0
  0
LINE
  5
12B3
  8
0
 62
     0
 10
6.008051458886257
 20
568.97316231212233
 30
0.0
 11
3.2025325977621431
 21
566.16764345099807
 31
0.0
  0
LINE
  5
12B4
  8
0
 62
     0
 10
6.0080514588862846
 20
566.85184196856255
 30
0.0
 11
3.032826970277398
 21
563.87661747995367
 31
0.0
  0
LINE
  5
12B5
  8
0
 62
     0
 10
6.0080514588863991
 20
564.73052162500312
 30
0.0
 11
2.8631213427925668
 21
561.58559150890937
 31
0.0
  0
LINE
  5
12B6
  8
0
 62
     0
 10
6.0080514588864267
 20
562.60920128144346
 30
0.0
 11
2.6934157153078071
 21
559.29456553786486
 31
0.0
  0
LINE
  5
12B7
  8
0
 62
     0
 10
6.0080514588864844
 20
560.4878809378838
 30
0.0
 11
2.536780369824938
 21
557.01660984882233
 31
0.0
  0
LINE
  5
12B8
  8
0
 62
     0
 10
6.0080514588864844
 20
558.36656059432426
 30
0.0
 11
2.5080514588865119
 21
554.86656059432426
 31
0.0
  0
LINE
  5
12B9
  8
0
 62
     0
 10
7.8336389407386093
 20
560.19214807617641
 30
0.0
 11
6.583638940738779
 21
558.94214807617664
 31
0.0
  0
LINE
  5
12BA
  8
0
 62
     0
 10
4.758051458886527
 20
554.9952402507646
 30
0.0
 11
2.508051458886527
 21
552.74524025076471
 31
0.0
  0
LINE
  5
12BB
  8
0
 62
     0
 10
6.0080514588864551
 20
556.24524025076471
 30
0.0
 11
5.9049592842985126
 21
556.1421480761768
 31
0.0
  0
LINE
  5
12BC
  8
0
 62
     0
 10
4.7580514588865412
 20
552.87391990720516
 30
0.0
 11
2.5080514588864982
 21
550.62391990720505
 31
0.0
  0
LINE
  5
12BD
  8
0
 62
     0
 10
4.7580514588864977
 20
550.75259956364539
 30
0.0
 11
2.5080514588864982
 21
548.50259956364539
 31
0.0
  0
LINE
  5
12BE
  8
0
 62
     0
 10
4.7580514588865119
 20
548.63127922008573
 30
0.0
 11
3.6189203149775011
 21
547.49214807617682
 31
0.0
  0
LINE
  5
12BF
  8
0
 62
     0
 10
6.008051458886313
 20
569.71936315076107
 30
0.0
 11
5.4352665334706671
 21
570.29214807617677
 31
0.0
  0
LINE
  5
12C0
  8
0
 62
     0
 10
6.008051458886313
 20
567.59804280720141
 30
0.0
 11
3.6708944130634791
 21
569.93519985302407
 31
0.0
  0
LINE
  5
12C1
  8
0
 62
     0
 10
6.0080514588864267
 20
565.47672246364164
 30
0.0
 11
3.3483669338840509
 21
568.13640698864401
 31
0.0
  0
LINE
  5
12C2
  8
0
 62
     0
 10
6.008051458886313
 20
563.35540212008198
 30
0.0
 11
3.202068979155797
 21
566.16138459981255
 31
0.0
  0
LINE
  5
12C3
  8
0
 62
     0
 10
6.0080514588864267
 20
561.23408177652243
 30
0.0
 11
3.0557710244275418
 21
564.18636221098132
 31
0.0
  0
LINE
  5
12C4
  8
0
 62
     0
 10
8.1330514588864844
 20
559.1090817765222
 30
0.0
 11
7.0499851592323921
 21
560.19214807617641
 31
0.0
  0
LINE
  5
12C5
  8
0
 62
     0
 10
6.178664815672561
 20
558.94214807617652
 30
0.0
 11
2.9094730696993452
 21
562.21133982214974
 31
0.0
  0
LINE
  5
12C6
  8
0
 62
     0
 10
6.0080514588864267
 20
556.99144108940288
 30
0.0
 11
2.7631751149710331
 21
560.23631743331839
 31
0.0
  0
LINE
  5
12C7
  8
0
 62
     0
 10
4.7580514588864844
 20
556.12012074584345
 30
0.0
 11
2.6128456386544481
 21
558.26532656607526
 31
0.0
  0
LINE
  5
12C8
  8
0
 62
     0
 10
4.7580514588864844
 20
553.99880040228368
 30
0.0
 11
2.5135411416875959
 21
556.24331071948257
 31
0.0
  0
LINE
  5
12C9
  8
0
 62
     0
 10
4.7580514588864844
 20
551.87748005872413
 30
0.0
 11
2.5080514588865408
 21
554.12748005872413
 31
0.0
  0
LINE
  5
12CA
  8
0
 62
     0
 10
4.7580514588864844
 20
549.75615971516424
 30
0.0
 11
2.5080514588865408
 21
552.00615971516424
 31
0.0
  0
LINE
  5
12CB
  8
0
 62
     0
 10
4.7580514588865412
 20
547.6348393716047
 30
0.0
 11
2.5080514588865408
 21
549.8848393716047
 31
0.0
  0
ENDBLK
  5
12CD
  8
0
  0
BLOCK
  8
0
  2
*X1
 70
     1
 10
0.0
 20
0.0
 30
0.0
  3
*X1
  1

  0
LINE
  5
12CF
  8
0
 62
     0
 10
145.5488985236384
 20
576.9921480761767
 30
0.0
 11
143.0250738759631
 21
574.46832342850121
 31
0.0
  0
LINE
  5
12D0
  8
0
 62
     0
 10
146.55365186825929
 20
575.87558107723794
 30
0.0
 11
142.8791690622059
 21
572.20109827118449
 31
0.0
  0
LINE
  5
12D1
  8
0
 62
     0
 10
146.55365186825941
 20
573.75426073367828
 30
0.0
 11
142.73326424844879
 21
569.93387311386755
 31
0.0
  0
LINE
  5
12D2
  8
0
 62
     0
 10
146.55365186825941
 20
571.63294039011862
 30
0.0
 11
142.58735943469159
 21
567.66664795655083
 31
0.0
  0
LINE
  5
12D3
  8
0
 62
     0
 10
146.55365186825941
 20
569.51162004655896
 30
0.0
 11
142.44145462093439
 21
565.39942279923412
 31
0.0
  0
LINE
  5
12D4
  8
0
 62
     0
 10
147.3555002414366
 20
568.19214807617664
 30
0.0
 11
142.29554980717731
 21
563.13219764191717
 31
0.0
  0
LINE
  5
12D5
  8
0
 62
     0
 10
146.90365186825929
 20
565.61897935943955
 30
0.0
 11
142.14964499342011
 21
560.86497248460034
 31
0.0
  0
LINE
  5
12D6
  8
0
 62
     0
 10
149.47682058499629
 20
568.19214807617664
 30
0.0
 11
146.97682058499649
 21
565.69214807617675
 31
0.0
  0
LINE
  5
12D7
  8
0
 62
     0
 10
146.90365186825929
 20
563.49765901588
 30
0.0
 11
146.09814092855601
 21
562.69214807617675
 31
0.0
  0
LINE
  5
12D8
  8
0
 62
     0
 10
145.2036518682593
 20
561.79765901587996
 30
0.0
 11
141.9974916769533
 21
558.59149882457405
 31
0.0
  0
LINE
  5
12D9
  8
0
 62
     0
 10
150.05365186825941
 20
566.64765901588009
 30
0.0
 11
149.09814092855601
 21
565.69214807617675
 31
0.0
  0
LINE
  5
12DA
  8
0
 62
     0
 10
145.2036518682593
 20
559.6763386723203
 30
0.0
 11
141.9536518682593
 21
556.42633867232041
 31
0.0
  0
LINE
  5
12DB
  8
0
 62
     0
 10
145.2036518682593
 20
557.55501832876075
 30
0.0
 11
141.95365186825941
 21
554.30501832876087
 31
0.0
  0
LINE
  5
12DC
  8
0
 62
     0
 10
145.20365186825941
 20
555.43369798520109
 30
0.0
 11
141.95365186825941
 21
552.18369798520121
 31
0.0
  0
LINE
  5
12DD
  8
0
 62
     0
 10
144.05365186825929
 20
552.16237764164146
 30
0.0
 11
142.16853708552691
 21
550.27726285890913
 31
0.0
  0
LINE
  5
12DE
  8
0
 62
     0
 10
145.2036518682593
 20
553.31237764164155
 30
0.0
 11
144.68342230279461
 21
552.79214807617677
 31
0.0
  0
LINE
  5
12DF
  8
0
 62
     0
 10
144.05365186825929
 20
550.04105729808168
 30
0.0
 11
143.50474264635429
 21
549.4921480761767
 31
0.0
  0
LINE
  5
12E0
  8
0
 62
     0
 10
146.55365186825941
 20
575.5448664470033
 30
0.0
 11
145.10637023908609
 21
576.99214807617648
 31
0.0
  0
LINE
  5
12E1
  8
0
 62
     0
 10
146.55365186825941
 20
573.42354610344364
 30
0.0
 11
143.60983091900869
 21
576.36736705269436
 31
0.0
  0
LINE
  5
12E2
  8
0
 62
     0
 10
146.55365186825941
 20
571.30222575988387
 30
0.0
 11
143.04699048416529
 21
574.80888714397804
 31
0.0
  0
LINE
  5
12E3
  8
0
 62
     0
 10
150.05365186825941
 20
567.80222575988387
 30
0.0
 11
149.6637295519667
 21
568.19214807617664
 31
0.0
  0
LINE
  5
12E4
  8
0
 62
     0
 10
146.55365186825941
 20
569.18090541632421
 30
0.0
 11
142.91872932403041
 21
572.81582796055329
 31
0.0
  0
LINE
  5
12E5
  8
0
 62
     0
 10
150.04240920840709
 20
565.69214807617664
 30
0.0
 11
147.54240920840709
 21
568.19214807617664
 31
0.0
  0
LINE
  5
12E6
  8
0
 62
     0
 10
147.92108886484729
 20
565.69214807617675
 30
0.0
 11
142.7904681638953
 21
570.82276877712854
 31
0.0
  0
LINE
  5
12E7
  8
0
 62
     0
 10
146.90365186825929
 20
564.58826472920509
 30
0.0
 11
142.6622070037605
 21
568.82970959370402
 31
0.0
  0
LINE
  5
12E8
  8
0
 62
     0
 10
146.6784481777282
 20
562.69214807617664
 30
0.0
 11
142.5339458436255
 21
566.83665041027928
 31
0.0
  0
LINE
  5
12E9
  8
0
 62
     0
 10
145.2036518682593
 20
562.04562404208582
 30
0.0
 11
142.40568468349051
 21
564.84359122685464
 31
0.0
  0
LINE
  5
12EA
  8
0
 62
     0
 10
145.2036518682593
 20
559.92430369852605
 30
0.0
 11
142.27742352335551
 21
562.85053204342989
 31
0.0
  0
LINE
  5
12EB
  8
0
 62
     0
 10
145.2036518682593
 20
557.80298335496639
 30
0.0
 11
142.14916236322051
 21
560.85747286000537
 31
0.0
  0
LINE
  5
12EC
  8
0
 62
     0
 10
145.2036518682593
 20
555.68166301140695
 30
0.0
 11
142.02090120308571
 21
558.86441367658063
 31
0.0
  0
LINE
  5
12ED
  8
0
 62
     0
 10
145.2036518682593
 20
553.56034266784729
 30
0.0
 11
141.9536518682593
 21
556.81034266784718
 31
0.0
  0
LINE
  5
12EE
  8
0
 62
     0
 10
144.05365186825929
 20
552.58902232428773
 30
0.0
 11
141.9536518682593
 21
554.68902232428763
 31
0.0
  0
LINE
  5
12EF
  8
0
 62
     0
 10
144.05365186825921
 20
550.46770198072807
 30
0.0
 11
141.9536518682593
 21
552.56770198072797
 31
0.0
  0
ENDBLK
  5
12F1
  8
0
  0
BLOCK
  8
0
  2
*X2
 70
     1
 10
0.0
 20
0.0
 30
0.0
  3
*X2
  1

  0
LINE
  5
12F3
  8
0
 62
     0
 10
484.66776533775652
 20
585.89214807617691
 30
0.0
 11
481.15743682070718
 21
582.38181955912762
 31
0.0
  0
LINE
  5
12F4
  8
0
 62
     0
 10
485.41879416805051
 20
583.81474978172469
 30
0.0
 11
480.83286321622808
 21
579.22881882990225
 31
0.0
  0
LINE
  5
12F5
  8
0
 62
     0
 10
485.4187941680504
 20
580.98632265697859
 30
0.0
 11
480.50828961174898
 21
576.07581810067711
 31
0.0
  0
LINE
  5
12F6
  8
0
 62
     0
 10
485.4187941680504
 20
578.15789553223237
 30
0.0
 11
480.18371600726999
 21
572.92281737145186
 31
0.0
  0
LINE
  5
12F7
  8
0
 62
     0
 10
485.41879416805028
 20
575.32946840748605
 30
0.0
 11
479.87769561993298
 21
569.78836985936857
 31
0.0
  0
LINE
  5
12F8
  8
0
 62
     0
 10
486.10990096148743
 20
573.19214807617675
 30
0.0
 11
479.76879605704039
 21
566.85104317173
 31
0.0
  0
LINE
  5
12F9
  8
0
 62
     0
 10
484.8187941680506
 20
569.07261415799394
 30
0.0
 11
479.76879416805048
 21
564.02261415799387
 31
0.0
  0
LINE
  5
12FA
  8
0
 62
     0
 10
488.93832808623358
 20
573.19214807617686
 30
0.0
 11
486.4383280862337
 21
570.69214807617698
 31
0.0
  0
LINE
  5
12FB
  8
0
 62
     0
 10
483.26879416805048
 20
564.69418703324754
 30
0.0
 11
479.76879416805048
 21
561.19418703324766
 31
0.0
  0
LINE
  5
12FC
  8
0
 62
     0
 10
489.26879416805031
 20
570.69418703324754
 30
0.0
 11
489.26675521097991
 21
570.69214807617698
 31
0.0
  0
LINE
  5
12FD
  8
0
 62
     0
 10
483.26879416805048
 20
561.86575990850145
 30
0.0
 11
479.76879416805048
 21
558.36575990850145
 31
0.0
  0
LINE
  5
12FE
  8
0
 62
     0
 10
483.26879416805048
 20
559.03733278375523
 30
0.0
 11
479.76879416805048
 21
555.53733278375535
 31
0.0
  0
LINE
  5
12FF
  8
0
 62
     0
 10
483.26879416805048
 20
556.20890565900902
 30
0.0
 11
479.76879416805048
 21
552.70890565900913
 31
0.0
  0
LINE
  5
1300
  8
0
 62
     0
 10
482.5687941680506
 20
552.68047853426276
 30
0.0
 11
480.88046370996449
 21
550.99214807617682
 31
0.0
  0
LINE
  5
1301
  8
0
 62
     0
 10
485.41879416805028
 20
583.86915370980705
 30
0.0
 11
483.3957998016806
 21
585.89214807617668
 31
0.0
  0
LINE
  5
1302
  8
0
 62
     0
 10
485.41879416805028
 20
581.04072658506095
 30
0.0
 11
481.48850541763449
 21
584.97101533547675
 31
0.0
  0
LINE
  5
1303
  8
0
 62
     0
 10
485.41879416805028
 20
578.21229946031474
 30
0.0
 11
481.16600829723649
 21
582.46508533112853
 31
0.0
  0
LINE
  5
1304
  8
0
 62
     0
 10
485.41879416805023
 20
575.38387233556864
 30
0.0
 11
480.90202176559359
 21
579.90064473802533
 31
0.0
  0
LINE
  5
1305
  8
0
 62
     0
 10
489.26879416805019
 20
571.53387233556839
 30
0.0
 11
487.610518427442
 21
573.19214807617675
 31
0.0
  0
LINE
  5
1306
  8
0
 62
     0
 10
487.28209130269579
 20
570.69214807617675
 30
0.0
 11
480.63803523395052
 21
577.33620414492214
 31
0.0
  0
LINE
  5
1307
  8
0
 62
     0
 10
484.81879416805037
 20
570.3270180860759
 30
0.0
 11
480.37404870230762
 21
574.77176355181882
 31
0.0
  0
LINE
  5
1308
  8
0
 62
     0
 10
484.81879416805049
 20
567.49859096132968
 30
0.0
 11
480.11006217066461
 21
572.20732295871562
 31
0.0
  0
LINE
  5
1309
  8
0
 62
     0
 10
483.26879416805048
 20
566.22016383658365
 30
0.0
 11
479.86582191350232
 21
569.62313609113176
 31
0.0
  0
LINE
  5
130A
  8
0
 62
     0
 10
483.26879416805048
 20
563.39173671183744
 30
0.0
 11
479.76882921639418
 21
566.89170166349356
 31
0.0
  0
LINE
  5
130B
  8
0
 62
     0
 10
483.26879416805048
 20
560.56330958709123
 30
0.0
 11
479.76879416805042
 21
564.06330958709123
 31
0.0
  0
LINE
  5
130C
  8
0
 62
     0
 10
483.26879416805042
 20
557.73488246234501
 30
0.0
 11
479.76879416805042
 21
561.23488246234501
 31
0.0
  0
LINE
  5
130D
  8
0
 62
     0
 10
482.98310142947253
 20
555.19214807617686
 30
0.0
 11
479.76879416805042
 21
558.40645533759891
 31
0.0
  0
LINE
  5
130E
  8
0
 62
     0
 10
482.56879416805049
 20
552.77802821285275
 30
0.0
 11
479.76879416805042
 21
555.5780282128527
 31
0.0
  0
LINE
  5
130F
  8
0
 62
     0
 10
481.5262471799802
 20
550.99214807617682
 30
0.0
 11
479.76879416805042
 21
552.7496010881066
 31
0.0
  0
ENDBLK
  5
1311
  8
0
  0
BLOCK
  8
0
  2
*X3
 70
     1
 10
0.0
 20
0.0
 30
0.0
  3
*X3
  1

  0
LINE
  5
1313
  8
0
 62
     0
 10
306.7692446341714
 20
576.99214807617682
 30
0.0
 11
303.57449206596141
 21
573.79739550796671
 31
0.0
  0
LINE
  5
1314
  8
0
 62
     0
 10
307.2948788695993
 20
575.39646196804495
 30
0.0
 11
303.45498106069039
 21
571.5565641591362
 31
0.0
  0
LINE
  5
1315
  8
0
 62
     0
 10
307.2948788695993
 20
573.27514162448529
 30
0.0
 11
303.33547005541942
 21
569.31573281030535
 31
0.0
  0
LINE
  5
1316
  8
0
 62
     0
 10
307.2948788695993
 20
571.15382128092574
 30
0.0
 11
303.21595905014851
 21
567.07490146147495
 31
0.0
  0
LINE
  5
1317
  8
0
 62
     0
 10
307.2948788695993
 20
569.03250093736619
 30
0.0
 11
303.09644804487749
 21
564.83407011264421
 31
0.0
  0
LINE
  5
1318
  8
0
 62
     0
 10
308.37584635196953
 20
567.9921480761767
 30
0.0
 11
302.97693703960653
 21
562.5932387638137
 31
0.0
  0
LINE
  5
1319
  8
0
 62
     0
 10
306.89487886959932
 20
564.38986025024667
 30
0.0
 11
302.880502530353
 21
560.3754839110004
 31
0.0
  0
LINE
  5
131A
  8
0
 62
     0
 10
310.49716669552919
 20
567.9921480761767
 30
0.0
 11
308.19716669552929
 21
565.69214807617675
 31
0.0
  0
LINE
  5
131B
  8
0
 62
     0
 10
306.89487886959932
 20
562.26853990668712
 30
0.0
 11
306.81848703908889
 21
562.19214807617675
 31
0.0
  0
LINE
  5
131C
  8
0
 62
     0
 10
306.29487886959919
 20
561.6685399066871
 30
0.0
 11
302.79252732639549
 21
558.16618836348334
 31
0.0
  0
LINE
  5
131D
  8
0
 62
     0
 10
311.2948788695993
 20
566.6685399066871
 30
0.0
 11
310.31848703908901
 21
565.69214807617675
 31
0.0
  0
LINE
  5
131E
  8
0
 62
     0
 10
306.29487886959919
 20
559.54721956312744
 30
0.0
 11
302.70455212243797
 21
555.95689281596617
 31
0.0
  0
LINE
  5
131F
  8
0
 62
     0
 10
306.29487886959919
 20
557.42589921956767
 30
0.0
 11
302.6165769184804
 21
553.74759726844889
 31
0.0
  0
LINE
  5
1320
  8
0
 62
     0
 10
306.29487886959919
 20
555.30457887600812
 30
0.0
 11
302.52860171452289
 21
551.53830172093194
 31
0.0
  0
LINE
  5
1321
  8
0
 62
     0
 10
304.84487886959909
 20
551.73325853244842
 30
0.0
 11
303.14916031484159
 21
550.03753997769104
 31
0.0
  0
LINE
  5
1322
  8
0
 62
     0
 10
306.29487886959919
 20
553.18325853244835
 30
0.0
 11
305.90376841332761
 21
552.79214807617677
 31
0.0
  0
LINE
  5
1323
  8
0
 62
     0
 10
304.84487886959931
 20
549.61193818888876
 30
0.0
 11
304.72508875688732
 21
549.49214807617693
 31
0.0
  0
LINE
  5
1324
  8
0
 62
     0
 10
307.2948788695993
 20
576.02398555619618
 30
0.0
 11
306.32671634961872
 21
576.99214807617682
 31
0.0
  0
LINE
  5
1325
  8
0
 62
     0
 10
307.29487886959919
 20
573.90266521263663
 30
0.0
 11
304.53744766431299
 21
576.66009641792289
 31
0.0
  0
LINE
  5
1326
  8
0
 62
     0
 10
307.29487886959919
 20
571.78134486907686
 30
0.0
 11
303.68190680086587
 21
575.39431693781023
 31
0.0
  0
LINE
  5
1327
  8
0
 62
     0
 10
311.29487886959907
 20
567.78134486907709
 30
0.0
 11
311.08407566249957
 21
567.99214807617648
 31
0.0
  0
LINE
  5
1328
  8
0
 62
     0
 10
307.29487886959919
 20
569.66002452551731
 30
0.0
 11
303.55337894298361
 21
573.40152445213289
 31
0.0
  0
LINE
  5
1329
  8
0
 62
     0
 10
311.2627553189397
 20
565.69214807617675
 30
0.0
 11
308.96275531893991
 21
567.99214807617648
 31
0.0
  0
LINE
  5
132A
  8
0
 62
     0
 10
309.14143497537998
 20
565.69214807617675
 30
0.0
 11
303.44597031799321
 21
571.38761273356374
 31
0.0
  0
LINE
  5
132B
  8
0
 62
     0
 10
307.02011463182049
 20
565.69214807617675
 30
0.0
 11
303.33856169300282
 21
569.37370101499437
 31
0.0
  0
LINE
  5
132C
  8
0
 62
     0
 10
306.89487886959932
 20
563.69606349483843
 30
0.0
 11
303.23115306801259
 21
567.35978929642499
 31
0.0
  0
LINE
  5
132D
  8
0
 62
     0
 10
306.29487886959919
 20
562.17474315127879
 30
0.0
 11
303.12374444302208
 21
565.34587757785584
 31
0.0
  0
LINE
  5
132E
  8
0
 62
     0
 10
306.29487886959919
 20
560.05342280771913
 30
0.0
 11
303.01633581803179
 21
563.33196585928647
 31
0.0
  0
LINE
  5
132F
  8
0
 62
     0
 10
306.29487886959919
 20
557.93210246415936
 30
0.0
 11
302.91768729564291
 21
561.30929403811558
 31
0.0
  0
LINE
  5
1330
  8
0
 62
     0
 10
306.29487886959919
 20
555.81078212059992
 30
0.0
 11
302.83645020603808
 21
559.2692107841608
 31
0.0
  0
LINE
  5
1331
  8
0
 62
     0
 10
306.29487886959919
 20
553.68946177704026
 30
0.0
 11
302.75521311643342
 21
557.22912753020591
 31
0.0
  0
LINE
  5
1332
  8
0
 62
     0
 10
305.07087222690291
 20
552.79214807617689
 30
0.0
 11
302.67397602682871
 21
555.18904427625114
 31
0.0
  0
LINE
  5
1333
  8
0
 62
     0
 10
304.8448788695992
 20
550.89682108992099
 30
0.0
 11
302.592738937224
 21
553.14896102229625
 31
0.0
  0
LINE
  5
1334
  8
0
 62
     0
 10
304.1282315397836
 20
549.49214807617693
 30
0.0
 11
302.51150184761917
 21
551.10887776834124
 31
0.0
  0
ENDBLK
  5
1336
  8
0
  0
BLOCK
  8
0
  2
*U4
 70
     1
 10
0.0
 20
0.0
 30
0.0
  3
*U4
  1

  0
SOLID
  5
1338
  8
0
  6
CONTINUOUS
 10
7.9209194245305774
 20
560.28001604182055
 30
0.0
 11
8.1330514588865412
 21
560.19214807617652
 31
0.0
 12
8.3451834932425051
 22
560.28001604182055
 32
0.0
 13
8.3451834932425051
 23
560.28001604182055
 33
0.0
210
0.0
220
0.0
230
1.0
  0
SOLID
  5
1339
  8
0
  6
CONTINUOUS
 10
8.4330514588865402
 20
560.49214807617636
 30
0.0
 11
7.9209194245305774
 21
560.28001604182055
 31
0.0
 12
8.3451834932425051
 22
560.28001604182055
 32
0.0
 13
8.3451834932425051
 23
560.28001604182055
 33
0.0
  0
SOLID
  5
133A
  8
0
  6
CONTINUOUS
 10
7.8330514588865414
 20
560.49214807617636
 30
0.0
 11
7.9209194245305774
 21
560.28001604182055
 31
0.0
 12
8.4330514588865402
 22
560.49214807617636
 32
0.0
 13
8.4330514588865402
 23
560.49214807617636
 33
0.0
210
0.0
220
0.0
230
1.0
  0
SOLID
  5
133B
  8
0
  6
CONTINUOUS
 10
8.3451834932425069
 20
560.70428011053241
 30
0.0
 11
7.8330514588865414
 21
560.49214807617636
 31
0.0
 12
8.4330514588865402
 22
560.49214807617636
 32
0.0
 13
8.4330514588865402
 23
560.49214807617636
 33
0.0
210
0.0
220
0.0
230
1.0
  0
SOLID
  5
133C
  8
0
  6
CONTINUOUS
 10
7.9209194245305756
 20
560.70428011053241
 30
0.0
 11
7.8330514588865414
 21
560.49214807617636
 31
0.0
 12
8.3451834932425069
 22
560.70428011053241
 32
0.0
 13
8.3451834932425069
 23
560.70428011053241
 33
0.0
210
0.0
220
0.0
230
1.0
  0
SOLID
  5
133D
  8
0
  6
CONTINUOUS
 10
8.1330514588865412
 20
560.79214807617643
 30
0.0
 11
7.9209194245305756
 21
560.70428011053241
 31
0.0
 12
8.3451834932425069
 22
560.70428011053241
 32
0.0
 13
8.3451834932425069
 23
560.70428011053241
 33
0.0
210
0.0
220
0.0
230
1.0
  0
SOLID
  5
133E
  8
0
  6
CONTINUOUS
 10
7.9209194245305774
 20
561.49101330208146
 30
0.0
 11
8.1330514588865412
 21
561.40314533643743
 31
0.0
 12
8.3451834932425051
 22
561.49101330208146
 32
0.0
 13
8.3451834932425051
 23
561.49101330208146
 33
0.0
210
0.0
220
0.0
230
1.0
  0
SOLID
  5
133F
  8
0
  6
CONTINUOUS
 10
8.4330514588865402
 20
561.70314533643739
 30
0.0
 11
7.9209194245305774
 21
561.49101330208146
 31
0.0
 12
8.3451834932425051
 22
561.49101330208146
 32
0.0
 13
8.3451834932425051
 23
561.49101330208146
 33
0.0
  0
SOLID
  5
1340
  8
0
  6
CONTINUOUS
 10
7.8330514588865414
 20
561.70314533643739
 30
0.0
 11
7.9209194245305774
 21
561.49101330208146
 31
0.0
 12
8.4330514588865402
 22
561.70314533643739
 32
0.0
 13
8.4330514588865402
 23
561.70314533643739
 33
0.0
210
0.0
220
0.0
230
1.0
  0
SOLID
  5
1341
  8
0
  6
CONTINUOUS
 10
8.3451834932425069
 20
561.91527737079321
 30
0.0
 11
7.8330514588865414
 21
561.70314533643739
 31
0.0
 12
8.4330514588865402
 22
561.70314533643739
 32
0.0
 13
8.4330514588865402
 23
561.70314533643739
 33
0.0
210
0.0
220
0.0
230
1.0
  0
SOLID
  5
1342
  8
0
  6
CONTINUOUS
 10
7.9209194245305756
 20
561.91527737079321
 30
0.0
 11
7.8330514588865414
 21
561.70314533643739
 31
0.0
 12
8.3451834932425069
 22
561.91527737079321
 32
0.0
 13
8.3451834932425069
 23
561.91527737079321
 33
0.0
210
0.0
220
0.0
230
1.0
  0
SOLID
  5
1343
  8
0
  6
CONTINUOUS
 10
8.1330514588865412
 20
562.00314533643734
 30
0.0
 11
7.9209194245305756
 21
561.91527737079321
 31
0.0
 12
8.3451834932425069
 22
561.91527737079321
 32
0.0
 13
8.3451834932425069
 23
561.91527737079321
 33
0.0
210
0.0
220
0.0
230
1.0
  0
SOLID
  5
1344
  8
0
  6
CONTINUOUS
 10
7.9209194245305774
 20
563.19397705056144
 30
0.0
 11
8.1330514588865412
 21
563.10610908491742
 31
0.0
 12
8.3451834932425051
 22
563.19397705056144
 32
0.0
 13
8.3451834932425051
 23
563.19397705056144
 33
0.0
210
0.0
220
0.0
230
1.0
  0
SOLID
  5
1345
  8
0
  6
CONTINUOUS
 10
8.4330514588865402
 20
563.40610908491726
 30
0.0
 11
7.9209194245305774
 21
563.19397705056144
 31
0.0
 12
8.3451834932425051
 22
563.19397705056144
 32
0.0
 13
8.3451834932425051
 23
563.19397705056144
 33
0.0
  0
SOLID
  5
1346
  8
0
  6
CONTINUOUS
 10
7.8330514588865414
 20
563.40610908491726
 30
0.0
 11
7.9209194245305774
 21
563.19397705056144
 31
0.0
 12
8.4330514588865402
 22
563.40610908491726
 32
0.0
 13
8.4330514588865402
 23
563.40610908491726
 33
0.0
210
0.0
220
0.0
230
1.0
  0
SOLID
  5
1347
  8
0
  6
CONTINUOUS
 10
8.3451834932425069
 20
563.61824111927319
 30
0.0
 11
7.8330514588865414
 21
563.40610908491726
 31
0.0
 12
8.4330514588865402
 22
563.40610908491726
 32
0.0
 13
8.4330514588865402
 23
563.40610908491726
 33
0.0
210
0.0
220
0.0
230
1.0
  0
SOLID
  5
1348
  8
0
  6
CONTINUOUS
 10
7.9209194245305756
 20
563.61824111927319
 30
0.0
 11
7.8330514588865414
 21
563.40610908491726
 31
0.0
 12
8.3451834932425069
 22
563.61824111927319
 32
0.0
 13
8.3451834932425069
 23
563.61824111927319
 33
0.0
210
0.0
220
0.0
230
1.0
  0
SOLID
  5
1349
  8
0
  6
CONTINUOUS
 10
8.1330514588865412
 20
563.70610908491733
 30
0.0
 11
7.9209194245305756
 21
563.61824111927319
 31
0.0
 12
8.3451834932425069
 22
563.61824111927319
 32
0.0
 13
8.3451834932425069
 23
563.61824111927319
 33
0.0
210
0.0
220
0.0
230
1.0
  0
SOLID
  5
134A
  8
0
  6
CONTINUOUS
 10
7.9209194245305774
 20
564.71722534206924
 30
0.0
 11
8.1330514588865412
 21
564.62935737642522
 31
0.0
 12
8.3451834932425051
 22
564.71722534206924
 32
0.0
 13
8.3451834932425051
 23
564.71722534206924
 33
0.0
210
0.0
220
0.0
230
1.0
  0
SOLID
  5
134B
  8
0
  6
CONTINUOUS
 10
8.4330514588865402
 20
564.92935737642517
 30
0.0
 11
7.9209194245305774
 21
564.71722534206924
 31
0.0
 12
8.3451834932425051
 22
564.71722534206924
 32
0.0
 13
8.3451834932425051
 23
564.71722534206924
 33
0.0
  0
SOLID
  5
134C
  8
0
  6
CONTINUOUS
 10
7.8330514588865414
 20
564.92935737642517
 30
0.0
 11
7.9209194245305774
 21
564.71722534206924
 31
0.0
 12
8.4330514588865402
 22
564.92935737642517
 32
0.0
 13
8.4330514588865402
 23
564.92935737642517
 33
0.0
210
0.0
220
0.0
230
1.0
  0
SOLID
  5
134D
  8
0
  6
CONTINUOUS
 10
8.3451834932425069
 20
565.14148941078099
 30
0.0
 11
7.8330514588865414
 21
564.92935737642517
 31
0.0
 12
8.4330514588865402
 22
564.92935737642517
 32
0.0
 13
8.4330514588865402
 23
564.92935737642517
 33
0.0
210
0.0
220
0.0
230
1.0
  0
SOLID
  5
134E
  8
0
  6
CONTINUOUS
 10
7.9209194245305756
 20
565.14148941078099
 30
0.0
 11
7.8330514588865414
 21
564.92935737642517
 31
0.0
 12
8.3451834932425069
 22
565.14148941078099
 32
0.0
 13
8.3451834932425069
 23
565.14148941078099
 33
0.0
210
0.0
220
0.0
230
1.0
  0
SOLID
  5
134F
  8
0
  6
CONTINUOUS
 10
8.1330514588865412
 20
565.22935737642513
 30
0.0
 11
7.9209194245305756
 21
565.14148941078099
 31
0.0
 12
8.3451834932425069
 22
565.14148941078099
 32
0.0
 13
8.3451834932425069
 23
565.14148941078099
 33
0.0
210
0.0
220
0.0
230
1.0
  0
SOLID
  5
1350
  8
0
  6
CONTINUOUS
 10
7.9209194245305774
 20
565.9800160418207
 30
0.0
 11
8.1330514588865412
 21
565.89214807617657
 31
0.0
 12
8.3451834932425051
 22
565.9800160418207
 32
0.0
 13
8.3451834932425051
 23
565.9800160418207
 33
0.0
210
0.0
220
0.0
230
1.0
  0
SOLID
  5
1351
  8
0
  6
CONTINUOUS
 10
8.4330514588865402
 20
566.19214807617664
 30
0.0
 11
7.9209194245305774
 21
565.9800160418207
 31
0.0
 12
8.3451834932425051
 22
565.9800160418207
 32
0.0
 13
8.3451834932425051
 23
565.9800160418207
 33
0.0
  0
SOLID
  5
1352
  8
0
  6
CONTINUOUS
 10
7.8330514588865414
 20
566.19214807617664
 30
0.0
 11
7.9209194245305774
 21
565.9800160418207
 31
0.0
 12
8.4330514588865402
 22
566.19214807617664
 32
0.0
 13
8.4330514588865402
 23
566.19214807617664
 33
0.0
210
0.0
220
0.0
230
1.0
  0
SOLID
  5
1353
  8
0
  6
CONTINUOUS
 10
8.3451834932425069
 20
566.40428011053245
 30
0.0
 11
7.8330514588865414
 21
566.19214807617664
 31
0.0
 12
8.4330514588865402
 22
566.19214807617664
 32
0.0
 13
8.4330514588865402
 23
566.19214807617664
 33
0.0
210
0.0
220
0.0
230
1.0
  0
SOLID
  5
1354
  8
0
  6
CONTINUOUS
 10
7.9209194245305756
 20
566.40428011053245
 30
0.0
 11
7.8330514588865414
 21
566.19214807617664
 31
0.0
 12
8.3451834932425069
 22
566.40428011053245
 32
0.0
 13
8.3451834932425069
 23
566.40428011053245
 33
0.0
210
0.0
220
0.0
230
1.0
  0
SOLID
  5
1355
  8
0
  6
CONTINUOUS
 10
8.1330514588865412
 20
566.49214807617659
 30
0.0
 11
7.9209194245305756
 21
566.40428011053245
 31
0.0
 12
8.3451834932425069
 22
566.40428011053245
 32
0.0
 13
8.3451834932425069
 23
566.40428011053245
 33
0.0
210
0.0
220
0.0
230
1.0
  0
SOLID
  5
1356
  8
0
  6
CONTINUOUS
 10
7.920919424530604
 20
566.98001604182082
 30
0.0
 11
8.1330514588865679
 21
566.8921480761768
 31
0.0
 12
8.3451834932425317
 22
566.98001604182082
 32
0.0
 13
8.3451834932425317
 23
566.98001604182082
 33
0.0
210
0.0
220
0.0
230
1.0
  0
SOLID
  5
1357
  8
0
  6
CONTINUOUS
 10
8.4330514588865686
 20
567.19214807617675
 30
0.0
 11
7.920919424530604
 21
566.98001604182082
 31
0.0
 12
8.3451834932425317
 22
566.98001604182082
 32
0.0
 13
8.3451834932425317
 23
566.98001604182082
 33
0.0
  0
SOLID
  5
1358
  8
0
  6
CONTINUOUS
 10
7.8330514588865681
 20
567.19214807617675
 30
0.0
 11
7.920919424530604
 21
566.98001604182082
 31
0.0
 12
8.4330514588865686
 22
567.19214807617675
 32
0.0
 13
8.4330514588865686
 23
567.19214807617675
 33
0.0
210
0.0
220
0.0
230
1.0
  0
SOLID
  5
1359
  8
0
  6
CONTINUOUS
 10
8.3451834932425335
 20
567.40428011053257
 30
0.0
 11
7.8330514588865681
 21
567.19214807617675
 31
0.0
 12
8.4330514588865686
 22
567.19214807617675
 32
0.0
 13
8.4330514588865686
 23
567.19214807617675
 33
0.0
210
0.0
220
0.0
230
1.0
  0
SOLID
  5
135A
  8
0
  6
CONTINUOUS
 10
7.9209194245306032
 20
567.40428011053257
 30
0.0
 11
7.8330514588865681
 21
567.19214807617675
 31
0.0
 12
8.3451834932425335
 22
567.40428011053257
 32
0.0
 13
8.3451834932425335
 23
567.40428011053257
 33
0.0
210
0.0
220
0.0
230
1.0
  0
SOLID
  5
135B
  8
0
  6
CONTINUOUS
 10
8.1330514588865679
 20
567.49214807617659
 30
0.0
 11
7.9209194245306032
 21
567.40428011053257
 31
0.0
 12
8.3451834932425335
 22
567.40428011053257
 32
0.0
 13
8.3451834932425335
 23
567.40428011053257
 33
0.0
210
0.0
220
0.0
230
1.0
  0
ENDBLK
  5
135D
  8
0
  0
BLOCK
  8
0
  2
*X5
 70
     1
 10
0.0
 20
0.0
 30
0.0
  3
*X5
  1

  0
LINE
  5
135F
  8
0
 62
     0
 10
7.0080514588864844
 20
541.70681074187451
 30
0.0
 11
7.222714124584285
 21
541.49214807617659
 31
0.0
  0
LINE
  5
1360
  8
0
 62
     0
 10
7.0080514588865412
 20
542.41391752306095
 30
0.0
 11
7.9298209057708391
 21
541.49214807617659
 31
0.0
  0
LINE
  5
1361
  8
0
 62
     0
 10
8.0080514588865412
 20
542.12102430424761
 30
0.0
 11
8.5080514588865412
 21
541.62102430424761
 31
0.0
  0
LINE
  5
1362
  8
0
 62
     0
 10
7.0080514588865412
 20
543.12102430424761
 30
0.0
 11
8.0080514588865412
 21
542.12102430424761
 31
0.0
  0
LINE
  5
1363
  8
0
 62
     0
 10
8.0080514588865412
 20
542.82813108543405
 30
0.0
 11
8.5080514588865981
 21
542.32813108543405
 31
0.0
  0
LINE
  5
1364
  8
0
 62
     0
 10
7.0080514588865412
 20
543.82813108543417
 30
0.0
 11
8.0080514588865412
 21
542.82813108543405
 31
0.0
  0
LINE
  5
1365
  8
0
 62
     0
 10
8.0080514588865981
 20
543.53523786662072
 30
0.0
 11
8.5080514588865981
 21
543.03523786662061
 31
0.0
  0
LINE
  5
1366
  8
0
 62
     0
 10
7.0080514588865412
 20
544.53523786662072
 30
0.0
 11
8.0080514588865981
 21
543.53523786662072
 31
0.0
  0
LINE
  5
1367
  8
0
 62
     0
 10
8.0080514588865981
 20
544.24234464780716
 30
0.0
 11
8.5080514588865981
 21
543.74234464780704
 31
0.0
  0
LINE
  5
1368
  8
0
 62
     0
 10
7.0080514588865412
 20
545.24234464780704
 30
0.0
 11
8.0080514588865981
 21
544.24234464780716
 31
0.0
  0
LINE
  5
1369
  8
0
 62
     0
 10
8.0080514588865981
 20
544.94945142899383
 30
0.0
 11
8.5080514588865981
 21
544.44945142899383
 31
0.0
  0
LINE
  5
136A
  8
0
 62
     0
 10
7.0080514588865412
 20
545.94945142899383
 30
0.0
 11
8.0080514588865981
 21
544.94945142899383
 31
0.0
  0
LINE
  5
136B
  8
0
 62
     0
 10
8.0080514588865981
 20
545.65655821018015
 30
0.0
 11
8.5080514588865981
 21
545.15655821018015
 31
0.0
  0
LINE
  5
136C
  8
0
 62
     0
 10
7.0080514588865981
 20
546.65655821018015
 30
0.0
 11
8.0080514588865981
 21
545.65655821018015
 31
0.0
  0
LINE
  5
136D
  8
0
 62
     0
 10
8.0080514588865981
 20
546.3636649913667
 30
0.0
 11
8.5080514588865981
 21
545.8636649913667
 31
0.0
  0
LINE
  5
136E
  8
0
 62
     0
 10
7.0080514588865981
 20
547.36366499136682
 30
0.0
 11
8.0080514588865981
 21
546.3636649913667
 31
0.0
  0
LINE
  5
136F
  8
0
 62
     0
 10
8.0080514588865981
 20
547.07077177255337
 30
0.0
 11
8.5080514588865981
 21
546.57077177255337
 31
0.0
  0
LINE
  5
1370
  8
0
 62
     0
 10
7.0080514588865981
 20
548.07077177255326
 30
0.0
 11
8.0080514588865981
 21
547.07077177255337
 31
0.0
  0
LINE
  5
1371
  8
0
 62
     0
 10
8.0080514588865981
 20
547.77787855373981
 30
0.0
 11
8.5080514588865981
 21
547.27787855373981
 31
0.0
  0
LINE
  5
1372
  8
0
 62
     0
 10
7.0080514588865981
 20
548.77787855373992
 30
0.0
 11
8.0080514588865981
 21
547.77787855373981
 31
0.0
  0
LINE
  5
1373
  8
0
 62
     0
 10
8.0080514588865981
 20
548.48498533492636
 30
0.0
 11
8.5080514588865981
 21
547.98498533492636
 31
0.0
  0
LINE
  5
1374
  8
0
 62
     0
 10
7.0080514588865981
 20
549.48498533492636
 30
0.0
 11
8.0080514588865981
 21
548.48498533492636
 31
0.0
  0
LINE
  5
1375
  8
0
 62
     0
 10
8.0080514588865981
 20
549.19209211611292
 30
0.0
 11
8.5080514588865981
 21
548.69209211611292
 31
0.0
  0
LINE
  5
1376
  8
0
 62
     0
 10
7.0080514588865981
 20
550.1920921161128
 30
0.0
 11
8.0080514588865981
 21
549.19209211611292
 31
0.0
  0
LINE
  5
1377
  8
0
 62
     0
 10
8.0080514588865412
 20
549.89919889729958
 30
0.0
 11
8.5080514588865412
 21
549.39919889729958
 31
0.0
  0
LINE
  5
1378
  8
0
 62
     0
 10
7.0080514588865412
 20
550.89919889729947
 30
0.0
 11
8.0080514588865412
 21
549.89919889729958
 31
0.0
  0
LINE
  5
1379
  8
0
 62
     0
 10
8.0080514588865412
 20
550.60630567848602
 30
0.0
 11
8.5080514588865412
 21
550.10630567848602
 31
0.0
  0
LINE
  5
137A
  8
0
 62
     0
 10
7.0080514588865412
 20
551.60630567848602
 30
0.0
 11
8.0080514588865412
 21
550.60630567848602
 31
0.0
  0
LINE
  5
137B
  8
0
 62
     0
 10
8.0080514588864844
 20
551.31341245967258
 30
0.0
 11
8.5080514588864844
 21
550.81341245967258
 31
0.0
  0
LINE
  5
137C
  8
0
 62
     0
 10
7.0080514588865412
 20
552.31341245967269
 30
0.0
 11
8.0080514588864844
 21
551.31341245967258
 31
0.0
  0
LINE
  5
137D
  8
0
 62
     0
 10
7.0080514588865412
 20
553.02051924085913
 30
0.0
 11
8.5080514588865981
 21
551.52051924085913
 31
0.0
  0
LINE
  5
137E
  8
0
 62
     0
 10
7.0080514588864844
 20
553.72762602204568
 30
0.0
 11
8.5080514588865412
 21
552.2276260220458
 31
0.0
  0
LINE
  5
137F
  8
0
 62
     0
 10
7.0725932611811677
 20
554.37019100093755
 30
0.0
 11
8.7886389325128675
 21
552.65414532960608
 31
0.0
  0
LINE
  5
1380
  8
0
 62
     0
 10
7.4261466517743884
 20
554.72374439153089
 30
0.0
 11
9.2369266685968796
 21
552.91296437470851
 31
0.0
  0
LINE
  5
1381
  8
0
 62
     0
 10
9.0080514588865412
 20
553.84894636560534
 30
0.0
 11
9.3580514588865071
 21
553.49894636560543
 31
0.0
  0
LINE
  5
1382
  8
0
 62
     0
 10
7.5080514588865412
 20
555.34894636560546
 30
0.0
 11
9.0080514588865412
 21
553.84894636560534
 31
0.0
  0
LINE
  5
1383
  8
0
 62
     0
 10
9.0080514588865981
 20
554.55605314679201
 30
0.0
 11
9.3580514588865071
 21
554.20605314679187
 31
0.0
  0
LINE
  5
1384
  8
0
 62
     0
 10
7.5080514588865412
 20
556.05605314679201
 30
0.0
 11
9.0080514588865981
 21
554.55605314679201
 31
0.0
  0
LINE
  5
1385
  8
0
 62
     0
 10
9.0080514588865981
 20
555.26315992797845
 30
0.0
 11
9.3580514588865071
 21
554.91315992797854
 31
0.0
  0
LINE
  5
1386
  8
0
 62
     0
 10
7.5080514588865412
 20
556.76315992797845
 30
0.0
 11
9.0080514588865981
 21
555.26315992797845
 31
0.0
  0
LINE
  5
1387
  8
0
 62
     0
 10
9.0080514588865981
 20
555.970266709165
 30
0.0
 11
9.3580514588865071
 21
555.62026670916509
 31
0.0
  0
LINE
  5
1388
  8
0
 62
     0
 10
7.5080514588865412
 20
557.47026670916512
 30
0.0
 11
9.0080514588865981
 21
555.970266709165
 31
0.0
  0
LINE
  5
1389
  8
0
 62
     0
 10
9.0080514588865981
 20
556.67737349035156
 30
0.0
 11
9.3580514588865071
 21
556.32737349035165
 31
0.0
  0
LINE
  5
138A
  8
0
 62
     0
 10
7.5080514588865412
 20
558.17737349035156
 30
0.0
 11
9.0080514588865981
 21
556.67737349035156
 31
0.0
  0
LINE
  5
138B
  8
0
 62
     0
 10
9.0080514588865981
 20
557.38448027153822
 30
0.0
 11
9.3580514588865071
 21
557.03448027153809
 31
0.0
  0
LINE
  5
138C
  8
0
 62
     0
 10
7.7003836542480713
 20
558.69214807617664
 30
0.0
 11
9.0080514588865981
 21
557.38448027153822
 31
0.0
  0
LINE
  5
138D
  8
0
 62
     0
 10
9.0080514588865981
 20
558.09158705272455
 30
0.0
 11
9.3580514588865071
 21
557.74158705272475
 31
0.0
  0
LINE
  5
138E
  8
0
 62
     0
 10
8.4074904354346245
 20
558.69214807617664
 30
0.0
 11
9.0080514588865981
 21
558.09158705272455
 31
0.0
  0
LINE
  5
138F
  8
0
 62
     0
 10
9.1145972166212346
 20
558.69214807617652
 30
0.0
 11
9.3580514588865071
 21
558.44869383391119
 31
0.0
  0
ENDBLK
  5
1391
  8
0
  0
BLOCK
  8
0
  2
*X6
 70
     1
 10
0.0
 20
0.0
 30
0.0
  3
*X6
  1

  0
LINE
  5
1393
  8
0
 62
     0
 10
6.9194214991468916
 20
541.49214807617659
 30
0.0
 11
7.0080514588865981
 21
541.5807780359163
 31
0.0
  0
LINE
  5
1394
  8
0
 62
     0
 10
5.5052079367737861
 20
541.49214807617659
 30
0.0
 11
7.0080514588865981
 21
542.99499159828952
 31
0.0
  0
LINE
  5
1395
  8
0
 62
     0
 10
5.2580514588865981
 20
542.65920516066251
 30
0.0
 11
7.0080514588864844
 21
544.4092051606624
 31
0.0
  0
LINE
  5
1396
  8
0
 62
     0
 10
5.2580514588865981
 20
544.07341872303573
 30
0.0
 11
7.0080514588865412
 21
545.82341872303562
 31
0.0
  0
LINE
  5
1397
  8
0
 62
     0
 10
5.258051458886654
 20
545.48763228540884
 30
0.0
 11
7.0080514588865981
 21
547.23763228540872
 31
0.0
  0
LINE
  5
1398
  8
0
 62
     0
 10
5.2580514588865981
 20
546.90184584778183
 30
0.0
 11
7.0080514588865981
 21
548.65184584778183
 31
0.0
  0
LINE
  5
1399
  8
0
 62
     0
 10
5.2580514588865981
 20
548.31605941015493
 30
0.0
 11
7.0080514588865981
 21
550.06605941015493
 31
0.0
  0
LINE
  5
139A
  8
0
 62
     0
 10
5.2580514588865981
 20
549.73027297252804
 30
0.0
 11
7.0080514588865412
 21
551.48027297252804
 31
0.0
  0
LINE
  5
139B
  8
0
 62
     0
 10
5.2580514588865981
 20
551.14448653490115
 30
0.0
 11
7.0080514588865412
 21
552.89448653490103
 31
0.0
  0
LINE
  5
139C
  8
0
 62
     0
 10
5.2580514588865981
 20
552.55870009727425
 30
0.0
 11
7.5080514588865412
 21
554.80870009727414
 31
0.0
  0
LINE
  5
139D
  8
0
 62
     0
 10
5.2580514588865981
 20
553.97291365964736
 30
0.0
 11
7.5080514588864844
 21
556.22291365964725
 31
0.0
  0
LINE
  5
139E
  8
0
 62
     0
 10
6.2580514588864844
 20
556.38712722202035
 30
0.0
 11
7.5080514588864844
 21
557.63712722202035
 31
0.0
  0
LINE
  5
139F
  8
0
 62
     0
 10
5.2580514588865412
 20
555.38712722202035
 30
0.0
 11
5.7630723130428123
 21
555.89214807617668
 31
0.0
  0
LINE
  5
13A0
  8
0
 62
     0
 10
6.2580514588864844
 20
557.80134078439335
 30
0.0
 11
7.1488587506696604
 21
558.69214807617664
 31
0.0
  0
LINE
  5
13A1
  8
0
 62
     0
 10
5.2580514588865981
 20
542.04259717950129
 30
0.0
 11
5.8085005622112362
 21
541.49214807617659
 31
0.0
  0
LINE
  5
13A2
  8
0
 62
     0
 10
5.2580514588865981
 20
543.45681074187451
 30
0.0
 11
7.0080514588864844
 21
541.70681074187451
 31
0.0
  0
LINE
  5
13A3
  8
0
 62
     0
 10
5.2580514588865981
 20
544.8710243042475
 30
0.0
 11
7.0080514588865412
 21
543.12102430424761
 31
0.0
  0
LINE
  5
13A4
  8
0
 62
     0
 10
5.2580514588865981
 20
546.28523786662049
 30
0.0
 11
7.0080514588865412
 21
544.53523786662072
 31
0.0
  0
LINE
  5
13A5
  8
0
 62
     0
 10
5.2580514588865981
 20
547.69945142899371
 30
0.0
 11
7.0080514588865412
 21
545.94945142899383
 31
0.0
  0
LINE
  5
13A6
  8
0
 62
     0
 10
5.2580514588865981
 20
549.11366499136659
 30
0.0
 11
7.0080514588865981
 21
547.36366499136682
 31
0.0
  0
LINE
  5
13A7
  8
0
 62
     0
 10
5.2580514588865981
 20
550.52787855373981
 30
0.0
 11
7.0080514588865981
 21
548.77787855373992
 31
0.0
  0
LINE
  5
13A8
  8
0
 62
     0
 10
5.2580514588865981
 20
551.94209211611303
 30
0.0
 11
7.0080514588865981
 21
550.1920921161128
 31
0.0
  0
LINE
  5
13A9
  8
0
 62
     0
 10
5.2580514588865412
 20
553.35630567848614
 30
0.0
 11
7.0080514588865412
 21
551.60630567848602
 31
0.0
  0
LINE
  5
13AA
  8
0
 62
     0
 10
5.2580514588865412
 20
554.77051924085924
 30
0.0
 11
7.0080514588865412
 21
553.02051924085913
 31
0.0
  0
LINE
  5
13AB
  8
0
 62
     0
 10
5.5506361859422091
 20
555.89214807617668
 30
0.0
 11
7.0725932611811677
 21
554.37019100093755
 31
0.0
  0
LINE
  5
13AC
  8
0
 62
     0
 10
6.2580514588864844
 20
556.59894636560546
 30
0.0
 11
7.5080514588865412
 21
555.34894636560546
 31
0.0
  0
LINE
  5
13AD
  8
0
 62
     0
 10
6.2580514588865412
 20
558.01315992797845
 30
0.0
 11
7.5080514588865412
 21
556.76315992797845
 31
0.0
  0
LINE
  5
13AE
  8
0
 62
     0
 10
6.993276873061574
 20
558.69214807617664
 30
0.0
 11
7.5080514588865412
 21
558.17737349035156
 31
0.0
  0
ENDBLK
  5
13B0
  8
0
  0
BLOCK
  8
0
  2
*X7
 70
     1
 10
0.0
 20
0.0
 30
0.0
  3
*X7
  1

  0
LINE
  5
13B2
  8
0
 62
     0
 10
146.92656417408321
 20
541.49214807617659
 30
0.0
 11
147.95365186825941
 21
542.51923577035279
 31
0.0
  0
LINE
  5
13B3
  8
0
 62
     0
 10
145.7036518682595
 20
541.68344933272601
 30
0.0
 11
147.95365186825941
 21
543.93344933272579
 31
0.0
  0
LINE
  5
13B4
  8
0
 62
     0
 10
145.70365186825941
 20
543.09766289509901
 30
0.0
 11
147.95365186825941
 21
545.34766289509901
 31
0.0
  0
LINE
  5
13B5
  8
0
 62
     0
 10
145.70365186825941
 20
544.51187645747211
 30
0.0
 11
147.9536518682593
 21
546.76187645747189
 31
0.0
  0
LINE
  5
13B6
  8
0
 62
     0
 10
145.70365186825941
 20
545.92609001984522
 30
0.0
 11
147.9536518682593
 21
548.17609001984511
 31
0.0
  0
LINE
  5
13B7
  8
0
 62
     0
 10
145.70365186825941
 20
547.3403035822181
 30
0.0
 11
147.9536518682593
 21
549.5903035822181
 31
0.0
  0
LINE
  5
13B8
  8
0
 62
     0
 10
145.70365186825941
 20
548.75451714459132
 30
0.0
 11
147.9536518682593
 21
551.00451714459132
 31
0.0
  0
LINE
  5
13B9
  8
0
 62
     0
 10
145.02706923747169
 20
549.4921480761767
 30
0.0
 11
147.9536518682593
 21
552.41873070696442
 31
0.0
  0
LINE
  5
13BA
  8
0
 62
     0
 10
144.35365186825931
 20
550.23294426933739
 30
0.0
 11
147.9536518682593
 21
553.83294426933753
 31
0.0
  0
LINE
  5
13BB
  8
0
 62
     0
 10
145.70365186825941
 20
552.99715783171064
 30
0.0
 11
147.9536518682593
 21
555.24715783171064
 31
0.0
  0
LINE
  5
13BC
  8
0
 62
     0
 10
144.35365186825931
 20
551.64715783171062
 30
0.0
 11
145.19864211272539
 21
552.4921480761767
 31
0.0
  0
LINE
  5
13BD
  8
0
 62
     0
 10
145.70365186825941
 20
554.41137139408374
 30
0.0
 11
147.9536518682593
 21
556.66137139408363
 31
0.0
  0
LINE
  5
13BE
  8
0
 62
     0
 10
145.70365186825941
 20
555.82558495645685
 30
0.0
 11
147.95365186825941
 21
558.07558495645685
 31
0.0
  0
LINE
  5
13BF
  8
0
 62
     0
 10
147.9560014256061
 20
559.4921480761767
 30
0.0
 11
148.95365186825941
 21
560.48979851882996
 31
0.0
  0
LINE
  5
13C0
  8
0
 62
     0
 10
145.7036518682593
 20
557.23979851882984
 30
0.0
 11
147.95365186825941
 21
559.48979851882984
 31
0.0
  0
LINE
  5
13C1
  8
0
 62
     0
 10
145.7036518682593
 20
558.65401208120295
 30
0.0
 11
148.9536518682593
 21
561.90401208120295
 31
0.0
  0
LINE
  5
13C2
  8
0
 62
     0
 10
145.7036518682593
 20
560.06822564357606
 30
0.0
 11
148.9536518682593
 21
563.31822564357606
 31
0.0
  0
LINE
  5
13C3
  8
0
 62
     0
 10
147.2036518682593
 20
562.98243920594905
 30
0.0
 11
148.9536518682593
 21
564.73243920594905
 31
0.0
  0
LINE
  5
13C4
  8
0
 62
     0
 10
145.7036518682593
 20
561.48243920594916
 30
0.0
 11
146.61336073848679
 21
562.39214807617657
 31
0.0
  0
LINE
  5
13C5
  8
0
 62
     0
 10
147.2036518682593
 20
564.39665276832227
 30
0.0
 11
148.29914717611371
 21
565.4921480761767
 31
0.0
  0
LINE
  5
13C6
  8
0
 62
     0
 10
145.70365186825941
 20
541.60413944506479
 30
0.0
 11
145.81564323714761
 21
541.49214807617659
 31
0.0
  0
LINE
  5
13C7
  8
0
 62
     0
 10
145.7036518682593
 20
543.01835300743801
 30
0.0
 11
147.2298567995206
 21
541.49214807617659
 31
0.0
  0
LINE
  5
13C8
  8
0
 62
     0
 10
145.7036518682593
 20
544.432566569811
 30
0.0
 11
147.9536518682593
 21
542.182566569811
 31
0.0
  0
LINE
  5
13C9
  8
0
 62
     0
 10
145.7036518682593
 20
545.84678013218422
 30
0.0
 11
147.9536518682593
 21
543.59678013218422
 31
0.0
  0
LINE
  5
13CA
  8
0
 62
     0
 10
145.7036518682593
 20
547.26099369455721
 30
0.0
 11
147.9536518682593
 21
545.01099369455721
 31
0.0
  0
LINE
  5
13CB
  8
0
 62
     0
 10
145.70365186825941
 20
548.67520725693032
 30
0.0
 11
147.9536518682593
 21
546.42520725693043
 31
0.0
  0
LINE
  5
13CC
  8
0
 62
     0
 10
144.35365186825931
 20
550.02520725693034
 30
0.0
 11
144.88671104901289
 21
549.4921480761767
 31
0.0
  0
LINE
  5
13CD
  8
0
 62
     0
 10
144.35365186825931
 20
551.43942081930345
 30
0.0
 11
147.9536518682593
 21
547.83942081930343
 31
0.0
  0
LINE
  5
13CE
  8
0
 62
     0
 10
144.71513817375919
 20
552.4921480761767
 30
0.0
 11
147.95365186825941
 21
549.25363438167653
 31
0.0
  0
LINE
  5
13CF
  8
0
 62
     0
 10
145.70365186825941
 20
552.91784794404964
 30
0.0
 11
147.95365186825941
 21
550.66784794404964
 31
0.0
  0
LINE
  5
13D0
  8
0
 62
     0
 10
145.70365186825941
 20
554.33206150642275
 30
0.0
 11
147.95365186825941
 21
552.08206150642275
 31
0.0
  0
LINE
  5
13D1
  8
0
 62
     0
 10
145.70365186825941
 20
555.74627506879585
 30
0.0
 11
147.95365186825941
 21
553.49627506879585
 31
0.0
  0
LINE
  5
13D2
  8
0
 62
     0
 10
145.7036518682593
 20
557.16048863116885
 30
0.0
 11
147.9536518682593
 21
554.91048863116885
 31
0.0
  0
LINE
  5
13D3
  8
0
 62
     0
 10
145.7036518682593
 20
558.57470219354195
 30
0.0
 11
147.9536518682593
 21
556.32470219354207
 31
0.0
  0
LINE
  5
13D4
  8
0
 62
     0
 10
145.7036518682593
 20
559.98891575591495
 30
0.0
 11
147.9536518682593
 21
557.73891575591506
 31
0.0
  0
LINE
  5
13D5
  8
0
 62
     0
 10
145.7036518682593
 20
561.40312931828817
 30
0.0
 11
147.9536518682593
 21
559.15312931828828
 31
0.0
  0
LINE
  5
13D6
  8
0
 62
     0
 10
146.128846672744
 20
562.39214807617657
 30
0.0
 11
148.9536518682593
 21
559.56734288066127
 31
0.0
  0
LINE
  5
13D7
  8
0
 62
     0
 10
147.2036518682593
 20
562.73155644303449
 30
0.0
 11
148.95365186825941
 21
560.98155644303426
 31
0.0
  0
LINE
  5
13D8
  8
0
 62
     0
 10
147.20365186825941
 20
564.14577000540748
 30
0.0
 11
148.95365186825941
 21
562.39577000540748
 31
0.0
  0
LINE
  5
13D9
  8
0
 62
     0
 10
147.2714873598633
 20
565.4921480761767
 30
0.0
 11
148.95365186825941
 21
563.80998356778048
 31
0.0
  0
LINE
  5
13DA
  8
0
 62
     0
 10
148.68570092223629
 20
565.4921480761767
 30
0.0
 11
148.95365186825941
 21
565.2241971301537
 31
0.0
  0
ENDBLK
  5
13DC
  8
0
  0
BLOCK
  8
0
  2
*X8
 70
     1
 10
0.0
 20
0.0
 30
0.0
  3
*X8
  1

  0
LINE
  5
13DE
  8
0
 62
     0
 10
147.9536518682593
 20
542.53611996040445
 30
0.0
 11
148.9976237524871
 21
541.49214807617659
 31
0.0
  0
LINE
  5
13DF
  8
0
 62
     0
 10
149.95365186825941
 20
541.59678013218411
 30
0.0
 11
150.05828392426679
 21
541.49214807617659
 31
0.0
  0
LINE
  5
13E0
  8
0
 62
     0
 10
147.9536518682593
 20
543.59678013218422
 30
0.0
 11
149.9536518682593
 21
541.59678013218411
 31
0.0
  0
LINE
  5
13E1
  8
0
 62
     0
 10
149.9536518682593
 20
542.65744030396399
 30
0.0
 11
150.4536518682593
 21
542.15744030396399
 31
0.0
  0
LINE
  5
13E2
  8
0
 62
     0
 10
147.9536518682593
 20
544.65744030396388
 30
0.0
 11
149.9536518682593
 21
542.65744030396399
 31
0.0
  0
LINE
  5
13E3
  8
0
 62
     0
 10
149.9536518682593
 20
543.71810047574365
 30
0.0
 11
150.4536518682593
 21
543.21810047574365
 31
0.0
  0
LINE
  5
13E4
  8
0
 62
     0
 10
147.9536518682593
 20
545.71810047574388
 30
0.0
 11
149.9536518682593
 21
543.71810047574365
 31
0.0
  0
LINE
  5
13E5
  8
0
 62
     0
 10
149.9536518682593
 20
544.77876064752354
 30
0.0
 11
150.4536518682593
 21
544.27876064752365
 31
0.0
  0
LINE
  5
13E6
  8
0
 62
     0
 10
147.9536518682593
 20
546.77876064752354
 30
0.0
 11
149.9536518682593
 21
544.77876064752365
 31
0.0
  0
LINE
  5
13E7
  8
0
 62
     0
 10
149.9536518682593
 20
545.83942081930343
 30
0.0
 11
150.4536518682593
 21
545.33942081930343
 31
0.0
  0
LINE
  5
13E8
  8
0
 62
     0
 10
147.9536518682593
 20
547.83942081930354
 30
0.0
 11
149.9536518682593
 21
545.83942081930354
 31
0.0
  0
LINE
  5
13E9
  8
0
 62
     0
 10
149.9536518682593
 20
546.9000809910832
 30
0.0
 11
150.4536518682593
 21
546.40008099108331
 31
0.0
  0
LINE
  5
13EA
  8
0
 62
     0
 10
147.9536518682593
 20
548.90008099108331
 30
0.0
 11
149.9536518682593
 21
546.9000809910832
 31
0.0
  0
LINE
  5
13EB
  8
0
 62
     0
 10
149.9536518682593
 20
547.96074116286309
 30
0.0
 11
150.4536518682593
 21
547.46074116286309
 31
0.0
  0
LINE
  5
13EC
  8
0
 62
     0
 10
147.9536518682593
 20
549.96074116286297
 30
0.0
 11
149.9536518682593
 21
547.96074116286309
 31
0.0
  0
LINE
  5
13ED
  8
0
 62
     0
 10
149.9536518682593
 20
549.02140133464275
 30
0.0
 11
150.4536518682593
 21
548.52140133464275
 31
0.0
  0
LINE
  5
13EE
  8
0
 62
     0
 10
147.9536518682593
 20
551.02140133464297
 30
0.0
 11
149.9536518682593
 21
549.02140133464286
 31
0.0
  0
LINE
  5
13EF
  8
0
 62
     0
 10
149.9536518682593
 20
550.08206150642275
 30
0.0
 11
150.4536518682593
 21
549.58206150642263
 31
0.0
  0
LINE
  5
13F0
  8
0
 62
     0
 10
147.9536518682593
 20
552.08206150642263
 30
0.0
 11
149.9536518682593
 21
550.08206150642275
 31
0.0
  0
LINE
  5
13F1
  8
0
 62
     0
 10
149.9536518682593
 20
551.14272167820263
 30
0.0
 11
150.45365186825919
 21
550.64272167820263
 31
0.0
  0
LINE
  5
13F2
  8
0
 62
     0
 10
147.9536518682593
 20
553.14272167820263
 30
0.0
 11
149.95365186825919
 21
551.14272167820263
 31
0.0
  0
LINE
  5
13F3
  8
0
 62
     0
 10
149.9536518682593
 20
552.20338184998229
 30
0.0
 11
150.4536518682593
 21
551.70338184998229
 31
0.0
  0
LINE
  5
13F4
  8
0
 62
     0
 10
147.9536518682593
 20
554.20338184998241
 30
0.0
 11
149.9536518682593
 21
552.20338184998229
 31
0.0
  0
LINE
  5
13F5
  8
0
 62
     0
 10
149.9536518682593
 20
553.26404202176218
 30
0.0
 11
150.4536518682593
 21
552.76404202176207
 31
0.0
  0
LINE
  5
13F6
  8
0
 62
     0
 10
147.9536518682593
 20
555.26404202176207
 30
0.0
 11
149.95365186825919
 21
553.26404202176229
 31
0.0
  0
LINE
  5
13F7
  8
0
 62
     0
 10
149.9536518682593
 20
554.32470219354195
 30
0.0
 11
150.4536518682593
 21
553.82470219354195
 31
0.0
  0
LINE
  5
13F8
  8
0
 62
     0
 10
147.9536518682593
 20
556.32470219354207
 30
0.0
 11
149.9536518682593
 21
554.32470219354195
 31
0.0
  0
LINE
  5
13F9
  8
0
 62
     0
 10
149.9536518682593
 20
555.38536236532195
 30
0.0
 11
150.4536518682593
 21
554.88536236532184
 31
0.0
  0
LINE
  5
13FA
  8
0
 62
     0
 10
147.9536518682593
 20
557.38536236532184
 30
0.0
 11
149.9536518682593
 21
555.38536236532195
 31
0.0
  0
LINE
  5
13FB
  8
0
 62
     0
 10
147.9536518682593
 20
558.44602253710161
 30
0.0
 11
150.45365186825941
 21
555.94602253710161
 31
0.0
  0
LINE
  5
13FC
  8
0
 62
     0
 10
147.96818650096409
 20
559.49214807617648
 30
0.0
 11
151.096841052375
 21
556.36349352476566
 31
0.0
  0
LINE
  5
13FD
  8
0
 62
     0
 10
148.9536518682593
 20
559.56734288066127
 30
0.0
 11
151.7692726565011
 21
556.75172209241941
 31
0.0
  0
LINE
  5
13FE
  8
0
 62
     0
 10
148.9536518682593
 20
560.62800305244104
 30
0.0
 11
152.44170426062709
 21
557.13995066007328
 31
0.0
  0
LINE
  5
13FF
  8
0
 62
     0
 10
150.9536518682593
 20
559.68866322422093
 30
0.0
 11
151.30365186825929
 21
559.33866322422102
 31
0.0
  0
LINE
  5
1400
  8
0
 62
     0
 10
152.1501670163035
 20
558.49214807617659
 30
0.0
 11
152.9536518682593
 21
557.68866322422093
 31
0.0
  0
LINE
  5
1401
  8
0
 62
     0
 10
148.9536518682593
 20
561.68866322422093
 30
0.0
 11
150.9536518682593
 21
559.68866322422105
 31
0.0
  0
LINE
  5
1402
  8
0
 62
     0
 10
150.9536518682593
 20
560.74932339600082
 30
0.0
 11
151.30365186825929
 21
560.39932339600068
 31
0.0
  0
LINE
  5
1403
  8
0
 62
     0
 10
148.9536518682593
 20
562.74932339600082
 30
0.0
 11
150.9536518682593
 21
560.74932339600082
 31
0.0
  0
LINE
  5
1404
  8
0
 62
     0
 10
150.9536518682593
 20
561.80998356778059
 30
0.0
 11
151.30365186825929
 21
561.45998356778068
 31
0.0
  0
LINE
  5
1405
  8
0
 62
     0
 10
148.9536518682593
 20
563.80998356778048
 30
0.0
 11
150.9536518682593
 21
561.80998356778059
 31
0.0
  0
LINE
  5
1406
  8
0
 62
     0
 10
150.9536518682593
 20
562.87064373956025
 30
0.0
 11
151.30365186825929
 21
562.52064373956046
 31
0.0
  0
LINE
  5
1407
  8
0
 62
     0
 10
148.9536518682593
 20
564.87064373956036
 30
0.0
 11
150.9536518682593
 21
562.87064373956025
 31
0.0
  0
LINE
  5
1408
  8
0
 62
     0
 10
150.9536518682593
 20
563.93130391134025
 30
0.0
 11
151.30365186825921
 21
563.58130391134023
 31
0.0
  0
LINE
  5
1409
  8
0
 62
     0
 10
149.3928077034229
 20
565.49214807617659
 30
0.0
 11
150.9536518682593
 21
563.93130391134025
 31
0.0
  0
LINE
  5
140A
  8
0
 62
     0
 10
150.9536518682593
 20
564.99196408312014
 30
0.0
 11
151.30365186825929
 21
564.64196408312011
 31
0.0
  0
LINE
  5
140B
  8
0
 62
     0
 10
150.4534678752027
 20
565.49214807617659
 30
0.0
 11
150.9536518682593
 21
564.99196408312014
 31
0.0
  0
ENDBLK
  5
140D
  8
0
  0
BLOCK
  8
0
  2
*U9
 70
     1
 10
0.0
 20
0.0
 30
0.0
  3
*U9
  1

  0
SOLID
  5
140F
  8
0
  6
CONTINUOUS
 10
149.6415198339034
 20
568.28001604182066
 30
0.0
 11
149.85365186825931
 21
568.19214807617664
 31
0.0
 12
150.06578390261529
 22
568.28001604182066
 32
0.0
 13
150.06578390261529
 23
568.28001604182066
 33
0.0
210
0.0
220
0.0
230
1.0
  0
SOLID
  5
1410
  8
0
  6
CONTINUOUS
 10
150.15365186825929
 20
568.49214807617648
 30
0.0
 11
149.6415198339034
 21
568.28001604182066
 31
0.0
 12
150.06578390261529
 22
568.28001604182066
 32
0.0
 13
150.06578390261529
 23
568.28001604182066
 33
0.0
210
0.0
220
0.0
230
1.0
  0
SOLID
  5
1411
  8
0
  6
CONTINUOUS
 10
149.55365186825929
 20
568.49214807617648
 30
0.0
 11
149.6415198339034
 21
568.28001604182066
 31
0.0
 12
150.15365186825929
 22
568.49214807617648
 32
0.0
 13
150.15365186825929
 23
568.49214807617648
 33
0.0
210
0.0
220
0.0
230
1.0
  0
SOLID
  5
1412
  8
0
  6
CONTINUOUS
 10
150.06578390261529
 20
568.70428011053252
 30
0.0
 11
149.55365186825929
 21
568.49214807617648
 31
0.0
 12
150.15365186825929
 22
568.49214807617648
 32
0.0
 13
150.15365186825929
 23
568.49214807617648
 33
0.0
210
0.0
220
0.0
230
1.0
  0
SOLID
  5
1413
  8
0
  6
CONTINUOUS
 10
149.6415198339034
 20
568.70428011053252
 30
0.0
 11
149.55365186825929
 21
568.49214807617648
 31
0.0
 12
150.06578390261529
 22
568.70428011053252
 32
0.0
 13
150.06578390261529
 23
568.70428011053252
 33
0.0
210
0.0
220
0.0
230
1.0
  0
SOLID
  5
1414
  8
0
  6
CONTINUOUS
 10
149.85365186825931
 20
568.79214807617655
 30
0.0
 11
149.6415198339034
 21
568.70428011053252
 31
0.0
 12
150.06578390261529
 22
568.70428011053252
 32
0.0
 13
150.06578390261529
 23
568.70428011053252
 33
0.0
  0
SOLID
  5
1415
  8
0
  6
CONTINUOUS
 10
149.6415198339034
 20
569.55744987092476
 30
0.0
 11
149.85365186825931
 21
569.46958190528085
 31
0.0
 12
150.06578390261529
 22
569.55744987092476
 32
0.0
 13
150.06578390261529
 23
569.55744987092476
 33
0.0
210
0.0
220
0.0
230
1.0
  0
SOLID
  5
1416
  8
0
  6
CONTINUOUS
 10
150.15365186825929
 20
569.7695819052808
 30
0.0
 11
149.6415198339034
 21
569.55744987092476
 31
0.0
 12
150.06578390261529
 22
569.55744987092476
 32
0.0
 13
150.06578390261529
 23
569.55744987092476
 33
0.0
210
0.0
220
0.0
230
1.0
  0
SOLID
  5
1417
  8
0
  6
CONTINUOUS
 10
149.55365186825929
 20
569.7695819052808
 30
0.0
 11
149.6415198339034
 21
569.55744987092476
 31
0.0
 12
150.15365186825929
 22
569.7695819052808
 32
0.0
 13
150.15365186825929
 23
569.7695819052808
 33
0.0
210
0.0
220
0.0
230
1.0
  0
SOLID
  5
1418
  8
0
  6
CONTINUOUS
 10
150.06578390261529
 20
569.98171393963673
 30
0.0
 11
149.55365186825929
 21
569.7695819052808
 31
0.0
 12
150.15365186825929
 22
569.7695819052808
 32
0.0
 13
150.15365186825929
 23
569.7695819052808
 33
0.0
210
0.0
220
0.0
230
1.0
  0
SOLID
  5
1419
  8
0
  6
CONTINUOUS
 10
149.6415198339034
 20
569.98171393963673
 30
0.0
 11
149.55365186825929
 21
569.7695819052808
 31
0.0
 12
150.06578390261529
 22
569.98171393963673
 32
0.0
 13
150.06578390261529
 23
569.98171393963673
 33
0.0
210
0.0
220
0.0
230
1.0
  0
SOLID
  5
141A
  8
0
  6
CONTINUOUS
 10
149.85365186825931
 20
570.06958190528076
 30
0.0
 11
149.6415198339034
 21
569.98171393963673
 31
0.0
 12
150.06578390261529
 22
569.98171393963673
 32
0.0
 13
150.06578390261529
 23
569.98171393963673
 33
0.0
  0
SOLID
  5
141B
  8
0
  6
CONTINUOUS
 10
149.6415198339034
 20
571.38480249042254
 30
0.0
 11
149.85365186825931
 21
571.29693452477864
 31
0.0
 12
150.06578390261529
 22
571.38480249042254
 32
0.0
 13
150.06578390261529
 23
571.38480249042254
 33
0.0
210
0.0
220
0.0
230
1.0
  0
SOLID
  5
141C
  8
0
  6
CONTINUOUS
 10
150.15365186825929
 20
571.59693452477859
 30
0.0
 11
149.6415198339034
 21
571.38480249042254
 31
0.0
 12
150.06578390261529
 22
571.38480249042254
 32
0.0
 13
150.06578390261529
 23
571.38480249042254
 33
0.0
210
0.0
220
0.0
230
1.0
  0
SOLID
  5
141D
  8
0
  6
CONTINUOUS
 10
149.55365186825929
 20
571.59693452477859
 30
0.0
 11
149.6415198339034
 21
571.38480249042254
 31
0.0
 12
150.15365186825929
 22
571.59693452477859
 32
0.0
 13
150.15365186825929
 23
571.59693452477859
 33
0.0
210
0.0
220
0.0
230
1.0
  0
SOLID
  5
141E
  8
0
  6
CONTINUOUS
 10
150.06578390261529
 20
571.80906655913452
 30
0.0
 11
149.55365186825929
 21
571.59693452477859
 31
0.0
 12
150.15365186825929
 22
571.59693452477859
 32
0.0
 13
150.15365186825929
 23
571.59693452477859
 33
0.0
  0
SOLID
  5
141F
  8
0
  6
CONTINUOUS
 10
149.6415198339034
 20
571.80906655913452
 30
0.0
 11
149.55365186825929
 21
571.59693452477859
 31
0.0
 12
150.06578390261529
 22
571.80906655913452
 32
0.0
 13
150.06578390261529
 23
571.80906655913452
 33
0.0
210
0.0
220
0.0
230
1.0
  0
SOLID
  5
1420
  8
0
  6
CONTINUOUS
 10
149.85365186825931
 20
571.89693452477854
 30
0.0
 11
149.6415198339034
 21
571.80906655913452
 31
0.0
 12
150.06578390261529
 22
571.80906655913452
 32
0.0
 13
150.06578390261529
 23
571.80906655913452
 33
0.0
  0
SOLID
  5
1421
  8
0
  6
CONTINUOUS
 10
149.6415198339034
 20
573.08001604182061
 30
0.0
 11
149.85365186825931
 21
572.99214807617659
 31
0.0
 12
150.06578390261529
 22
573.08001604182061
 32
0.0
 13
150.06578390261529
 23
573.08001604182061
 33
0.0
210
0.0
220
0.0
230
1.0
  0
SOLID
  5
1422
  8
0
  6
CONTINUOUS
 10
150.15365186825929
 20
573.29214807617655
 30
0.0
 11
149.6415198339034
 21
573.08001604182061
 31
0.0
 12
150.06578390261529
 22
573.08001604182061
 32
0.0
 13
150.06578390261529
 23
573.08001604182061
 33
0.0
210
0.0
220
0.0
230
1.0
  0
SOLID
  5
1423
  8
0
  6
CONTINUOUS
 10
149.55365186825929
 20
573.29214807617655
 30
0.0
 11
149.6415198339034
 21
573.08001604182061
 31
0.0
 12
150.15365186825929
 22
573.29214807617655
 32
0.0
 13
150.15365186825929
 23
573.29214807617655
 33
0.0
210
0.0
220
0.0
230
1.0
  0
SOLID
  5
1424
  8
0
  6
CONTINUOUS
 10
150.06578390261529
 20
573.50428011053248
 30
0.0
 11
149.55365186825929
 21
573.29214807617655
 31
0.0
 12
150.15365186825929
 22
573.29214807617655
 32
0.0
 13
150.15365186825929
 23
573.29214807617655
 33
0.0
  0
SOLID
  5
1425
  8
0
  6
CONTINUOUS
 10
149.6415198339034
 20
573.50428011053248
 30
0.0
 11
149.55365186825929
 21
573.29214807617655
 31
0.0
 12
150.06578390261529
 22
573.50428011053248
 32
0.0
 13
150.06578390261529
 23
573.50428011053248
 33
0.0
210
0.0
220
0.0
230
1.0
  0
SOLID
  5
1426
  8
0
  6
CONTINUOUS
 10
149.85365186825931
 20
573.59214807617639
 30
0.0
 11
149.6415198339034
 21
573.50428011053248
 31
0.0
 12
150.06578390261529
 22
573.50428011053248
 32
0.0
 13
150.06578390261529
 23
573.50428011053248
 33
0.0
  0
SOLID
  5
1427
  8
0
  6
CONTINUOUS
 10
149.6415198339034
 20
574.23001604182082
 30
0.0
 11
149.85365186825931
 21
574.14214807617668
 31
0.0
 12
150.06578390261529
 22
574.23001604182082
 32
0.0
 13
150.06578390261529
 23
574.23001604182082
 33
0.0
210
0.0
220
0.0
230
1.0
  0
SOLID
  5
1428
  8
0
  6
CONTINUOUS
 10
150.15365186825929
 20
574.44214807617675
 30
0.0
 11
149.6415198339034
 21
574.23001604182082
 31
0.0
 12
150.06578390261529
 22
574.23001604182082
 32
0.0
 13
150.06578390261529
 23
574.23001604182082
 33
0.0
210
0.0
220
0.0
230
1.0
  0
SOLID
  5
1429
  8
0
  6
CONTINUOUS
 10
149.55365186825929
 20
574.44214807617675
 30
0.0
 11
149.6415198339034
 21
574.23001604182082
 31
0.0
 12
150.15365186825929
 22
574.44214807617675
 32
0.0
 13
150.15365186825929
 23
574.44214807617675
 33
0.0
210
0.0
220
0.0
230
1.0
  0
SOLID
  5
142A
  8
0
  6
CONTINUOUS
 10
150.06578390261529
 20
574.65428011053257
 30
0.0
 11
149.55365186825929
 21
574.44214807617675
 31
0.0
 12
150.15365186825929
 22
574.44214807617675
 32
0.0
 13
150.15365186825929
 23
574.44214807617675
 33
0.0
210
0.0
220
0.0
230
1.0
  0
SOLID
  5
142B
  8
0
  6
CONTINUOUS
 10
149.6415198339034
 20
574.65428011053257
 30
0.0
 11
149.55365186825929
 21
574.44214807617675
 31
0.0
 12
150.06578390261529
 22
574.65428011053257
 32
0.0
 13
150.06578390261529
 23
574.65428011053257
 33
0.0
210
0.0
220
0.0
230
1.0
  0
SOLID
  5
142C
  8
0
  6
CONTINUOUS
 10
149.85365186825931
 20
574.74214807617682
 30
0.0
 11
149.6415198339034
 21
574.65428011053257
 31
0.0
 12
150.06578390261529
 22
574.65428011053257
 32
0.0
 13
150.06578390261529
 23
574.65428011053257
 33
0.0
  0
ENDBLK
  5
142E
  8
0
  0
BLOCK
  8
0
  2
*U10
 70
     1
 10
0.0
 20
0.0
 30
0.0
  3
*U10
  1

  0
SOLID
  5
1430
  8
0
  6
CONTINUOUS
 10
310.5827468352432
 20
568.24165824866054
 30
0.0
 11
310.79487886959919
 21
568.15379028301641
 31
0.0
 12
311.00701090395518
 22
568.24165824866054
 32
0.0
 13
311.00701090395518
 23
568.24165824866054
 33
0.0
210
0.0
220
0.0
230
1.0
  0
SOLID
  5
1431
  8
0
  6
CONTINUOUS
 10
311.0948788695992
 20
568.45379028301647
 30
0.0
 11
310.5827468352432
 21
568.24165824866054
 31
0.0
 12
311.00701090395518
 22
568.24165824866054
 32
0.0
 13
311.00701090395518
 23
568.24165824866054
 33
0.0
210
0.0
220
0.0
230
1.0
  0
SOLID
  5
1432
  8
0
  6
CONTINUOUS
 10
310.49487886959918
 20
568.45379028301647
 30
0.0
 11
310.5827468352432
 21
568.24165824866054
 31
0.0
 12
311.0948788695992
 22
568.45379028301647
 32
0.0
 13
311.0948788695992
 23
568.45379028301647
 33
0.0
210
0.0
220
0.0
230
1.0
  0
SOLID
  5
1433
  8
0
  6
CONTINUOUS
 10
311.00701090395518
 20
568.66592231737241
 30
0.0
 11
310.49487886959918
 21
568.45379028301647
 31
0.0
 12
311.0948788695992
 22
568.45379028301647
 32
0.0
 13
311.0948788695992
 23
568.45379028301647
 33
0.0
210
0.0
220
0.0
230
1.0
  0
SOLID
  5
1434
  8
0
  6
CONTINUOUS
 10
310.5827468352432
 20
568.66592231737241
 30
0.0
 11
310.49487886959918
 21
568.45379028301647
 31
0.0
 12
311.00701090395518
 22
568.66592231737241
 32
0.0
 13
311.00701090395518
 23
568.66592231737241
 33
0.0
210
0.0
220
0.0
230
1.0
  0
SOLID
  5
1435
  8
0
  6
CONTINUOUS
 10
310.79487886959919
 20
568.75379028301654
 30
0.0
 11
310.5827468352432
 21
568.66592231737241
 31
0.0
 12
311.00701090395518
 22
568.66592231737241
 32
0.0
 13
311.00701090395518
 23
568.66592231737241
 33
0.0
210
0.0
220
0.0
230
1.0
  0
SOLID
  5
1436
  8
0
  6
CONTINUOUS
 10
310.5827468352432
 20
569.51882438788834
 30
0.0
 11
310.79487886959919
 21
569.43095642224421
 31
0.0
 12
311.00701090395518
 22
569.51882438788834
 32
0.0
 13
311.00701090395518
 23
569.51882438788834
 33
0.0
210
0.0
220
0.0
230
1.0
  0
SOLID
  5
1437
  8
0
  6
CONTINUOUS
 10
311.0948788695992
 20
569.73095642224416
 30
0.0
 11
310.5827468352432
 21
569.51882438788834
 31
0.0
 12
311.00701090395518
 22
569.51882438788834
 32
0.0
 13
311.00701090395518
 23
569.51882438788834
 33
0.0
210
0.0
220
0.0
230
1.0
  0
SOLID
  5
1438
  8
0
  6
CONTINUOUS
 10
310.49487886959918
 20
569.73095642224416
 30
0.0
 11
310.5827468352432
 21
569.51882438788834
 31
0.0
 12
311.0948788695992
 22
569.73095642224416
 32
0.0
 13
311.0948788695992
 23
569.73095642224416
 33
0.0
210
0.0
220
0.0
230
1.0
  0
SOLID
  5
1439
  8
0
  6
CONTINUOUS
 10
311.00701090395518
 20
569.94308845660021
 30
0.0
 11
310.49487886959918
 21
569.73095642224416
 31
0.0
 12
311.0948788695992
 22
569.73095642224416
 32
0.0
 13
311.0948788695992
 23
569.73095642224416
 33
0.0
210
0.0
220
0.0
230
1.0
  0
SOLID
  5
143A
  8
0
  6
CONTINUOUS
 10
310.5827468352432
 20
569.94308845660021
 30
0.0
 11
310.49487886959918
 21
569.73095642224416
 31
0.0
 12
311.00701090395518
 22
569.94308845660021
 32
0.0
 13
311.00701090395518
 23
569.94308845660021
 33
0.0
210
0.0
220
0.0
230
1.0
  0
SOLID
  5
143B
  8
0
  6
CONTINUOUS
 10
310.79487886959919
 20
570.03095642224434
 30
0.0
 11
310.5827468352432
 21
569.94308845660021
 31
0.0
 12
311.00701090395518
 22
569.94308845660021
 32
0.0
 13
311.00701090395518
 23
569.94308845660021
 33
0.0
210
0.0
220
0.0
230
1.0
  0
SOLID
  5
143C
  8
0
  6
CONTINUOUS
 10
310.5827468352432
 20
571.31788835764712
 30
0.0
 11
310.79487886959919
 21
571.2300203920031
 31
0.0
 12
311.00701090395518
 22
571.31788835764712
 32
0.0
 13
311.00701090395518
 23
571.31788835764712
 33
0.0
210
0.0
220
0.0
230
1.0
  0
SOLID
  5
143D
  8
0
  6
CONTINUOUS
 10
311.0948788695992
 20
571.53002039200305
 30
0.0
 11
310.5827468352432
 21
571.31788835764712
 31
0.0
 12
311.00701090395518
 22
571.31788835764712
 32
0.0
 13
311.00701090395518
 23
571.31788835764712
 33
0.0
210
0.0
220
0.0
230
1.0
  0
SOLID
  5
143E
  8
0
  6
CONTINUOUS
 10
310.49487886959918
 20
571.53002039200305
 30
0.0
 11
310.5827468352432
 21
571.31788835764712
 31
0.0
 12
311.0948788695992
 22
571.53002039200305
 32
0.0
 13
311.0948788695992
 23
571.53002039200305
 33
0.0
210
0.0
220
0.0
230
1.0
  0
SOLID
  5
143F
  8
0
  6
CONTINUOUS
 10
311.00701090395518
 20
571.74215242635887
 30
0.0
 11
310.49487886959918
 21
571.53002039200305
 31
0.0
 12
311.0948788695992
 22
571.53002039200305
 32
0.0
 13
311.0948788695992
 23
571.53002039200305
 33
0.0
210
0.0
220
0.0
230
1.0
  0
SOLID
  5
1440
  8
0
  6
CONTINUOUS
 10
310.5827468352432
 20
571.74215242635887
 30
0.0
 11
310.49487886959918
 21
571.53002039200305
 31
0.0
 12
311.00701090395518
 22
571.74215242635887
 32
0.0
 13
311.00701090395518
 23
571.74215242635887
 33
0.0
210
0.0
220
0.0
230
1.0
  0
SOLID
  5
1441
  8
0
  6
CONTINUOUS
 10
310.79487886959919
 20
571.83002039200301
 30
0.0
 11
310.5827468352432
 21
571.74215242635887
 31
0.0
 12
311.00701090395518
 22
571.74215242635887
 32
0.0
 13
311.00701090395518
 23
571.74215242635887
 33
0.0
210
0.0
220
0.0
230
1.0
  0
SOLID
  5
1442
  8
0
  6
CONTINUOUS
 10
310.5827468352432
 20
573.08327121647369
 30
0.0
 11
310.79487886959919
 21
572.99540325082955
 31
0.0
 12
311.00701090395518
 22
573.08327121647369
 32
0.0
 13
311.00701090395518
 23
573.08327121647369
 33
0.0
210
0.0
220
0.0
230
1.0
  0
SOLID
  5
1443
  8
0
  6
CONTINUOUS
 10
311.0948788695992
 20
573.29540325082951
 30
0.0
 11
310.5827468352432
 21
573.08327121647369
 31
0.0
 12
311.00701090395518
 22
573.08327121647369
 32
0.0
 13
311.00701090395518
 23
573.08327121647369
 33
0.0
210
0.0
220
0.0
230
1.0
  0
SOLID
  5
1444
  8
0
  6
CONTINUOUS
 10
310.49487886959918
 20
573.29540325082951
 30
0.0
 11
310.5827468352432
 21
573.08327121647369
 31
0.0
 12
311.0948788695992
 22
573.29540325082951
 32
0.0
 13
311.0948788695992
 23
573.29540325082951
 33
0.0
210
0.0
220
0.0
230
1.0
  0
SOLID
  5
1445
  8
0
  6
CONTINUOUS
 10
311.00701090395518
 20
573.50753528518555
 30
0.0
 11
310.49487886959918
 21
573.29540325082951
 31
0.0
 12
311.0948788695992
 22
573.29540325082951
 32
0.0
 13
311.0948788695992
 23
573.29540325082951
 33
0.0
210
0.0
220
0.0
230
1.0
  0
SOLID
  5
1446
  8
0
  6
CONTINUOUS
 10
310.5827468352432
 20
573.50753528518555
 30
0.0
 11
310.49487886959918
 21
573.29540325082951
 31
0.0
 12
311.00701090395518
 22
573.50753528518555
 32
0.0
 13
311.00701090395518
 23
573.50753528518555
 33
0.0
210
0.0
220
0.0
230
1.0
  0
SOLID
  5
1447
  8
0
  6
CONTINUOUS
 10
310.79487886959919
 20
573.59540325082958
 30
0.0
 11
310.5827468352432
 21
573.50753528518555
 31
0.0
 12
311.00701090395518
 22
573.50753528518555
 32
0.0
 13
311.00701090395518
 23
573.50753528518555
 33
0.0
210
0.0
220
0.0
230
1.0
  0
SOLID
  5
1448
  8
0
  6
CONTINUOUS
 10
310.5827468352432
 20
574.23001604182082
 30
0.0
 11
310.79487886959919
 21
574.14214807617668
 31
0.0
 12
311.00701090395518
 22
574.23001604182082
 32
0.0
 13
311.00701090395518
 23
574.23001604182082
 33
0.0
210
0.0
220
0.0
230
1.0
  0
SOLID
  5
1449
  8
0
  6
CONTINUOUS
 10
311.0948788695992
 20
574.44214807617675
 30
0.0
 11
310.5827468352432
 21
574.23001604182082
 31
0.0
 12
311.00701090395518
 22
574.23001604182082
 32
0.0
 13
311.00701090395518
 23
574.23001604182082
 33
0.0
210
0.0
220
0.0
230
1.0
  0
SOLID
  5
144A
  8
0
  6
CONTINUOUS
 10
310.49487886959918
 20
574.44214807617675
 30
0.0
 11
310.5827468352432
 21
574.23001604182082
 31
0.0
 12
311.0948788695992
 22
574.44214807617675
 32
0.0
 13
311.0948788695992
 23
574.44214807617675
 33
0.0
210
0.0
220
0.0
230
1.0
  0
SOLID
  5
144B
  8
0
  6
CONTINUOUS
 10
311.00701090395518
 20
574.65428011053257
 30
0.0
 11
310.49487886959918
 21
574.44214807617675
 31
0.0
 12
311.0948788695992
 22
574.44214807617675
 32
0.0
 13
311.0948788695992
 23
574.44214807617675
 33
0.0
210
0.0
220
0.0
230
1.0
  0
SOLID
  5
144C
  8
0
  6
CONTINUOUS
 10
310.5827468352432
 20
574.65428011053257
 30
0.0
 11
310.49487886959918
 21
574.44214807617675
 31
0.0
 12
311.00701090395518
 22
574.65428011053257
 32
0.0
 13
311.00701090395518
 23
574.65428011053257
 33
0.0
210
0.0
220
0.0
230
1.0
  0
SOLID
  5
144D
  8
0
  6
CONTINUOUS
 10
310.79487886959919
 20
574.74214807617682
 30
0.0
 11
310.5827468352432
 21
574.65428011053257
 31
0.0
 12
311.00701090395518
 22
574.65428011053257
 32
0.0
 13
311.00701090395518
 23
574.65428011053257
 33
0.0
210
0.0
220
0.0
230
1.0
  0
ENDBLK
  5
144F
  8
0
  0
BLOCK
  8
0
  2
*X11
 70
     1
 10
0.0
 20
0.0
 30
0.0
  3
*X11
  1

  0
LINE
  5
1451
  8
0
 62
     0
 10
309.99487886959918
 20
565.0497628487534
 30
0.0
 11
309.5524936421757
 21
565.49214807617682
 31
0.0
  0
LINE
  5
1452
  8
0
 62
     0
 10
309.99487886959918
 20
563.28199589578696
 30
0.0
 11
307.78472668920932
 21
565.49214807617682
 31
0.0
  0
LINE
  5
1453
  8
0
 62
     0
 10
309.99487886959918
 20
561.51422894282064
 30
0.0
 11
307.09487886959931
 21
564.4142289428205
 31
0.0
  0
LINE
  5
1454
  8
0
 62
     0
 10
308.99487886959912
 20
560.7464619898542
 30
0.0
 11
307.0948788695992
 21
562.64646198985406
 31
0.0
  0
LINE
  5
1455
  8
0
 62
     0
 10
308.99487886959918
 20
558.97869503688764
 30
0.0
 11
306.49487886959918
 21
561.47869503688787
 31
0.0
  0
LINE
  5
1456
  8
0
 62
     0
 10
308.99487886959918
 20
557.21092808392154
 30
0.0
 11
306.49487886959929
 21
559.71092808392143
 31
0.0
  0
LINE
  5
1457
  8
0
 62
     0
 10
308.99487886959912
 20
555.4431611309551
 30
0.0
 11
306.49487886959912
 21
557.9431611309551
 31
0.0
  0
LINE
  5
1458
  8
0
 62
     0
 10
308.99487886959918
 20
553.67539417798866
 30
0.0
 11
306.49487886959918
 21
556.17539417798855
 31
0.0
  0
LINE
  5
1459
  8
0
 62
     0
 10
308.99487886959918
 20
551.90762722502245
 30
0.0
 11
306.49487886959929
 21
554.40762722502234
 31
0.0
  0
LINE
  5
145A
  8
0
 62
     0
 10
308.99487886959918
 20
550.13986027205601
 30
0.0
 11
306.49487886959918
 21
552.63986027205601
 31
0.0
  0
LINE
  5
145B
  8
0
 62
     0
 10
308.99487886959918
 20
548.37209331908957
 30
0.0
 11
305.34487886959931
 21
552.02209331908955
 31
0.0
  0
LINE
  5
145C
  8
0
 62
     0
 10
306.00705715954558
 20
549.59214807617684
 30
0.0
 11
305.3448788695992
 21
550.25432636612322
 31
0.0
  0
LINE
  5
145D
  8
0
 62
     0
 10
308.99487886959918
 20
546.60432636612325
 30
0.0
 11
306.49487886959918
 21
549.10432636612325
 31
0.0
  0
LINE
  5
145E
  8
0
 62
     0
 10
308.99487886959918
 20
544.83655941315692
 30
0.0
 11
306.74487886959912
 21
547.08655941315692
 31
0.0
  0
LINE
  5
145F
  8
0
 62
     0
 10
308.99487886959918
 20
543.06879246019048
 30
0.0
 11
306.74487886959918
 21
545.31879246019048
 31
0.0
  0
LINE
  5
1460
  8
0
 62
     0
 10
308.80375630064651
 20
541.49214807617682
 30
0.0
 11
306.74487886959918
 21
543.55102550722415
 31
0.0
  0
LINE
  5
1461
  8
0
 62
     0
 10
307.03598934768007
 20
541.49214807617682
 30
0.0
 11
306.74487886959918
 21
541.78325855425783
 31
0.0
  0
LINE
  5
1462
  8
0
 62
     0
 10
308.14691028461618
 20
541.49214807617682
 30
0.0
 11
308.99487886959929
 21
542.34011666115975
 31
0.0
  0
LINE
  5
1463
  8
0
 62
     0
 10
306.74487886959918
 20
541.85788361412619
 30
0.0
 11
308.99487886959918
 21
544.10788361412619
 31
0.0
  0
LINE
  5
1464
  8
0
 62
     0
 10
306.74487886959929
 20
543.62565056709263
 30
0.0
 11
308.99487886959918
 21
545.87565056709263
 31
0.0
  0
LINE
  5
1465
  8
0
 62
     0
 10
306.74487886959929
 20
545.39341752005885
 30
0.0
 11
308.99487886959929
 21
547.64341752005885
 31
0.0
  0
LINE
  5
1466
  8
0
 62
     0
 10
306.74487886959918
 20
547.16118447302529
 30
0.0
 11
308.99487886959918
 21
549.41118447302529
 31
0.0
  0
LINE
  5
1467
  8
0
 62
     0
 10
306.49487886959918
 20
548.67895142599173
 30
0.0
 11
308.99487886959929
 21
551.17895142599184
 31
0.0
  0
LINE
  5
1468
  8
0
 62
     0
 10
305.64030856681802
 20
549.59214807617684
 30
0.0
 11
308.99487886959918
 21
552.94671837895805
 31
0.0
  0
LINE
  5
1469
  8
0
 62
     0
 10
305.3448788695992
 20
551.06448533192452
 30
0.0
 11
308.99487886959918
 21
554.71448533192438
 31
0.0
  0
LINE
  5
146A
  8
0
 62
     0
 10
306.49487886959918
 20
553.98225228489082
 30
0.0
 11
308.99487886959929
 21
556.48225228489082
 31
0.0
  0
LINE
  5
146B
  8
0
 62
     0
 10
306.49487886959929
 20
555.75001923785715
 30
0.0
 11
308.99487886959918
 21
558.25001923785726
 31
0.0
  0
LINE
  5
146C
  8
0
 62
     0
 10
306.49487886959929
 20
557.51778619082359
 30
0.0
 11
308.99487886959929
 21
560.01778619082359
 31
0.0
  0
LINE
  5
146D
  8
0
 62
     0
 10
306.49487886959929
 20
559.28555314379003
 30
0.0
 11
309.99487886959918
 21
562.78555314378991
 31
0.0
  0
LINE
  5
146E
  8
0
 62
     0
 10
306.49487886959929
 20
561.05332009675635
 30
0.0
 11
309.99487886959918
 21
564.55332009675635
 31
0.0
  0
LINE
  5
146F
  8
0
 62
     0
 10
307.0948788695992
 20
563.42108704972247
 30
0.0
 11
309.16593989605337
 21
565.49214807617682
 31
0.0
  0
LINE
  5
1470
  8
0
 62
     0
 10
307.09487886959931
 20
565.18885400268914
 30
0.0
 11
307.39817294308699
 21
565.49214807617682
 31
0.0
  0
ENDBLK
  5
1472
  8
0
  0
BLOCK
  8
0
  2
*U12
 70
     1
 10
0.0
 20
0.0
 30
0.0
  3
*U12
  1

  0
SOLID
  5
1474
  8
0
  6
CONTINUOUS
 10
488.5695375949
 20
573.30930536370226
 30
0.0
 11
488.85238030737457
 21
573.19214807617675
 31
0.0
 12
489.13522301984909
 22
573.30930536370226
 32
0.0
 13
489.13522301984909
 23
573.30930536370226
 33
0.0
210
0.0
220
0.0
230
1.0
  0
SOLID
  5
1475
  8
0
  6
CONTINUOUS
 10
489.25238030737449
 20
573.59214807617684
 30
0.0
 11
488.5695375949
 21
573.30930536370226
 31
0.0
 12
489.13522301984909
 22
573.30930536370226
 32
0.0
 13
489.13522301984909
 23
573.30930536370226
 33
0.0
210
0.0
220
0.0
230
1.0
  0
SOLID
  5
1476
  8
0
  6
CONTINUOUS
 10
488.4523803073746
 20
573.59214807617684
 30
0.0
 11
488.5695375949
 21
573.30930536370226
 31
0.0
 12
489.25238030737449
 22
573.59214807617684
 32
0.0
 13
489.25238030737449
 23
573.59214807617684
 33
0.0
210
0.0
220
0.0
230
1.0
  0
SOLID
  5
1477
  8
0
  6
CONTINUOUS
 10
489.13522301984909
 20
573.8749907886513
 30
0.0
 11
488.4523803073746
 21
573.59214807617684
 31
0.0
 12
489.25238030737449
 22
573.59214807617684
 32
0.0
 13
489.25238030737449
 23
573.59214807617684
 33
0.0
210
0.0
220
0.0
230
1.0
  0
SOLID
  5
1478
  8
0
  6
CONTINUOUS
 10
488.5695375949
 20
573.8749907886513
 30
0.0
 11
488.4523803073746
 21
573.59214807617684
 31
0.0
 12
489.13522301984909
 22
573.8749907886513
 32
0.0
 13
489.13522301984909
 23
573.8749907886513
 33
0.0
210
0.0
220
0.0
230
1.0
  0
SOLID
  5
1479
  8
0
  6
CONTINUOUS
 10
488.85238030737457
 20
573.99214807617682
 30
0.0
 11
488.5695375949
 21
573.8749907886513
 31
0.0
 12
489.13522301984909
 22
573.8749907886513
 32
0.0
 13
489.13522301984909
 23
573.8749907886513
 33
0.0
210
0.0
220
0.0
230
1.0
  0
SOLID
  5
147A
  8
0
  6
CONTINUOUS
 10
488.5695375949
 20
575.23227839098445
 30
0.0
 11
488.85238030737457
 21
575.11512110345905
 31
0.0
 12
489.13522301984909
 22
575.23227839098445
 32
0.0
 13
489.13522301984909
 23
575.23227839098445
 33
0.0
210
0.0
220
0.0
230
1.0
  0
SOLID
  5
147B
  8
0
  6
CONTINUOUS
 10
489.25238030737449
 20
575.51512110345902
 30
0.0
 11
488.5695375949
 21
575.23227839098445
 31
0.0
 12
489.13522301984909
 22
575.23227839098445
 32
0.0
 13
489.13522301984909
 23
575.23227839098445
 33
0.0
210
0.0
220
0.0
230
1.0
  0
SOLID
  5
147C
  8
0
  6
CONTINUOUS
 10
488.4523803073746
 20
575.51512110345902
 30
0.0
 11
488.5695375949
 21
575.23227839098445
 31
0.0
 12
489.25238030737449
 22
575.51512110345902
 32
0.0
 13
489.25238030737449
 23
575.51512110345902
 33
0.0
210
0.0
220
0.0
230
1.0
  0
SOLID
  5
147D
  8
0
  6
CONTINUOUS
 10
489.13522301984909
 20
575.79796381593349
 30
0.0
 11
488.4523803073746
 21
575.51512110345902
 31
0.0
 12
489.25238030737449
 22
575.51512110345902
 32
0.0
 13
489.25238030737449
 23
575.51512110345902
 33
0.0
210
0.0
220
0.0
230
1.0
  0
SOLID
  5
147E
  8
0
  6
CONTINUOUS
 10
488.5695375949
 20
575.79796381593349
 30
0.0
 11
488.4523803073746
 21
575.51512110345902
 31
0.0
 12
489.13522301984909
 22
575.79796381593349
 32
0.0
 13
489.13522301984909
 23
575.79796381593349
 33
0.0
210
0.0
220
0.0
230
1.0
  0
SOLID
  5
147F
  8
0
  6
CONTINUOUS
 10
488.85238030737457
 20
575.91512110345889
 30
0.0
 11
488.5695375949
 21
575.79796381593349
 31
0.0
 12
489.13522301984909
 22
575.79796381593349
 32
0.0
 13
489.13522301984909
 23
575.79796381593349
 33
0.0
210
0.0
220
0.0
230
1.0
  0
SOLID
  5
1480
  8
0
  6
CONTINUOUS
 10
488.5695375949
 20
577.75511281982244
 30
0.0
 11
488.85238030737457
 21
577.63795553229704
 31
0.0
 12
489.13522301984909
 22
577.75511281982244
 32
0.0
 13
489.13522301984909
 23
577.75511281982244
 33
0.0
210
0.0
220
0.0
230
1.0
  0
SOLID
  5
1481
  8
0
  6
CONTINUOUS
 10
489.25238030737449
 20
578.03795553229702
 30
0.0
 11
488.5695375949
 21
577.75511281982244
 31
0.0
 12
489.13522301984909
 22
577.75511281982244
 32
0.0
 13
489.13522301984909
 23
577.75511281982244
 33
0.0
210
0.0
220
0.0
230
1.0
  0
SOLID
  5
1482
  8
0
  6
CONTINUOUS
 10
488.4523803073746
 20
578.03795553229702
 30
0.0
 11
488.5695375949
 21
577.75511281982244
 31
0.0
 12
489.25238030737449
 22
578.03795553229702
 32
0.0
 13
489.25238030737449
 23
578.03795553229702
 33
0.0
210
0.0
220
0.0
230
1.0
  0
SOLID
  5
1483
  8
0
  6
CONTINUOUS
 10
489.13522301984909
 20
578.32079824477159
 30
0.0
 11
488.4523803073746
 21
578.03795553229702
 31
0.0
 12
489.25238030737449
 22
578.03795553229702
 32
0.0
 13
489.25238030737449
 23
578.03795553229702
 33
0.0
210
0.0
220
0.0
230
1.0
  0
SOLID
  5
1484
  8
0
  6
CONTINUOUS
 10
488.5695375949
 20
578.32079824477159
 30
0.0
 11
488.4523803073746
 21
578.03795553229702
 31
0.0
 12
489.13522301984909
 22
578.32079824477159
 32
0.0
 13
489.13522301984909
 23
578.32079824477159
 33
0.0
210
0.0
220
0.0
230
1.0
  0
SOLID
  5
1485
  8
0
  6
CONTINUOUS
 10
488.85238030737457
 20
578.437955532297
 30
0.0
 11
488.5695375949
 21
578.32079824477159
 31
0.0
 12
489.13522301984909
 22
578.32079824477159
 32
0.0
 13
489.13522301984909
 23
578.32079824477159
 33
0.0
210
0.0
220
0.0
230
1.0
  0
SOLID
  5
1486
  8
0
  6
CONTINUOUS
 10
488.5695375949
 20
580.27088302333732
 30
0.0
 11
488.85238030737457
 21
580.15372573581192
 31
0.0
 12
489.13522301984909
 22
580.27088302333732
 32
0.0
 13
489.13522301984909
 23
580.27088302333732
 33
0.0
210
0.0
220
0.0
230
1.0
  0
SOLID
  5
1487
  8
0
  6
CONTINUOUS
 10
489.25238030737449
 20
580.55372573581178
 30
0.0
 11
488.5695375949
 21
580.27088302333732
 31
0.0
 12
489.13522301984909
 22
580.27088302333732
 32
0.0
 13
489.13522301984909
 23
580.27088302333732
 33
0.0
210
0.0
220
0.0
230
1.0
  0
SOLID
  5
1488
  8
0
  6
CONTINUOUS
 10
488.4523803073746
 20
580.55372573581178
 30
0.0
 11
488.5695375949
 21
580.27088302333732
 31
0.0
 12
489.25238030737449
 22
580.55372573581178
 32
0.0
 13
489.25238030737449
 23
580.55372573581178
 33
0.0
210
0.0
220
0.0
230
1.0
  0
SOLID
  5
1489
  8
0
  6
CONTINUOUS
 10
489.13522301984909
 20
580.83656844828636
 30
0.0
 11
488.4523803073746
 21
580.55372573581178
 31
0.0
 12
489.25238030737449
 22
580.55372573581178
 32
0.0
 13
489.25238030737449
 23
580.55372573581178
 33
0.0
210
0.0
220
0.0
230
1.0
  0
SOLID
  5
148A
  8
0
  6
CONTINUOUS
 10
488.5695375949
 20
580.83656844828636
 30
0.0
 11
488.4523803073746
 21
580.55372573581178
 31
0.0
 12
489.13522301984909
 22
580.83656844828636
 32
0.0
 13
489.13522301984909
 23
580.83656844828636
 33
0.0
210
0.0
220
0.0
230
1.0
  0
SOLID
  5
148B
  8
0
  6
CONTINUOUS
 10
488.85238030737457
 20
580.95372573581176
 30
0.0
 11
488.5695375949
 21
580.83656844828636
 31
0.0
 12
489.13522301984909
 22
580.83656844828636
 32
0.0
 13
489.13522301984909
 23
580.83656844828636
 33
0.0
210
0.0
220
0.0
230
1.0
  0
SOLID
  5
148C
  8
0
  6
CONTINUOUS
 10
488.5695375949
 20
581.70930536370224
 30
0.0
 11
488.85238030737469
 21
581.59214807617695
 31
0.0
 12
489.13522301984932
 22
581.70930536370224
 32
0.0
 13
489.13522301984932
 23
581.70930536370224
 33
0.0
210
0.0
220
0.0
230
1.0
  0
SOLID
  5
148D
  8
0
  6
CONTINUOUS
 10
489.25238030737461
 20
581.99214807617693
 30
0.0
 11
488.5695375949
 21
581.70930536370224
 31
0.0
 12
489.13522301984932
 22
581.70930536370224
 32
0.0
 13
489.13522301984932
 23
581.70930536370224
 33
0.0
210
0.0
220
0.0
230
1.0
  0
SOLID
  5
148E
  8
0
  6
CONTINUOUS
 10
488.4523803073746
 20
581.99214807617693
 30
0.0
 11
488.5695375949
 21
581.70930536370224
 31
0.0
 12
489.25238030737461
 22
581.99214807617693
 32
0.0
 13
489.25238030737461
 23
581.99214807617693
 33
0.0
210
0.0
220
0.0
230
1.0
  0
SOLID
  5
148F
  8
0
  6
CONTINUOUS
 10
489.13522301984921
 20
582.27499078865151
 30
0.0
 11
488.4523803073746
 21
581.99214807617693
 31
0.0
 12
489.25238030737461
 22
581.99214807617693
 32
0.0
 13
489.25238030737461
 23
581.99214807617693
 33
0.0
  0
SOLID
  5
1490
  8
0
  6
CONTINUOUS
 10
488.5695375949
 20
582.27499078865151
 30
0.0
 11
488.4523803073746
 21
581.99214807617693
 31
0.0
 12
489.13522301984921
 22
582.27499078865151
 32
0.0
 13
489.13522301984921
 23
582.27499078865151
 33
0.0
210
0.0
220
0.0
230
1.0
  0
SOLID
  5
1491
  8
0
  6
CONTINUOUS
 10
488.85238030737469
 20
582.39214807617691
 30
0.0
 11
488.5695375949
 21
582.27499078865151
 31
0.0
 12
489.13522301984921
 22
582.27499078865151
 32
0.0
 13
489.13522301984921
 23
582.27499078865151
 33
0.0
210
0.0
220
0.0
230
1.0
  0
ENDBLK
  5
1493
  8
0
  0
BLOCK
  8
0
  2
*X13
 70
     1
 10
0.0
 20
0.0
 30
0.0
  3
*X13
  1

  0
LINE
  5
1495
  8
0
 62
     0
 10
487.26879416805031
 20
542.27867923956273
 30
0.0
 11
488.05532533143639
 21
541.49214807617659
 31
0.0
  0
LINE
  5
1496
  8
0
 62
     0
 10
488.26879416805042
 20
542.69289280193573
 30
0.0
 11
489.01879416805031
 21
541.94289280193584
 31
0.0
  0
LINE
  5
1497
  8
0
 62
     0
 10
487.26879416805031
 20
543.69289280193584
 30
0.0
 11
488.26879416805042
 21
542.69289280193584
 31
0.0
  0
LINE
  5
1498
  8
0
 62
     0
 10
488.26879416805042
 20
544.10710636430883
 30
0.0
 11
489.01879416805031
 21
543.35710636430895
 31
0.0
  0
LINE
  5
1499
  8
0
 62
     0
 10
487.26879416805031
 20
545.10710636430895
 30
0.0
 11
488.26879416805042
 21
544.10710636430895
 31
0.0
  0
LINE
  5
149A
  8
0
 62
     0
 10
488.26879416805042
 20
545.52131992668205
 30
0.0
 11
489.01879416805031
 21
544.77131992668205
 31
0.0
  0
LINE
  5
149B
  8
0
 62
     0
 10
487.26879416805031
 20
546.52131992668205
 30
0.0
 11
488.26879416805042
 21
545.52131992668205
 31
0.0
  0
LINE
  5
149C
  8
0
 62
     0
 10
488.26879416805042
 20
546.93553348905505
 30
0.0
 11
489.01879416805031
 21
546.18553348905505
 31
0.0
  0
LINE
  5
149D
  8
0
 62
     0
 10
487.26879416805031
 20
547.93553348905505
 30
0.0
 11
488.26879416805042
 21
546.93553348905505
 31
0.0
  0
LINE
  5
149E
  8
0
 62
     0
 10
488.26879416805042
 20
548.34974705142815
 30
0.0
 11
489.01879416805031
 21
547.59974705142827
 31
0.0
  0
LINE
  5
149F
  8
0
 62
     0
 10
487.26879416805031
 20
549.34974705142838
 30
0.0
 11
488.26879416805042
 21
548.34974705142815
 31
0.0
  0
LINE
  5
14A0
  8
0
 62
     0
 10
488.26879416805042
 20
549.76396061380126
 30
0.0
 11
489.01879416805042
 21
549.01396061380126
 31
0.0
  0
LINE
  5
14A1
  8
0
 62
     0
 10
487.26879416805031
 20
550.76396061380137
 30
0.0
 11
488.26879416805042
 21
549.76396061380126
 31
0.0
  0
LINE
  5
14A2
  8
0
 62
     0
 10
488.26879416805042
 20
551.17817417617437
 30
0.0
 11
489.01879416805031
 21
550.42817417617448
 31
0.0
  0
LINE
  5
14A3
  8
0
 62
     0
 10
487.26879416805031
 20
552.17817417617448
 30
0.0
 11
488.26879416805042
 21
551.17817417617437
 31
0.0
  0
LINE
  5
14A4
  8
0
 62
     0
 10
488.26879416805042
 20
552.59238773854747
 30
0.0
 11
489.01879416805031
 21
551.84238773854747
 31
0.0
  0
LINE
  5
14A5
  8
0
 62
     0
 10
487.26879416805031
 20
553.5923877385477
 30
0.0
 11
488.26879416805042
 21
552.59238773854747
 31
0.0
  0
LINE
  5
14A6
  8
0
 62
     0
 10
488.26879416805042
 20
554.00660130092069
 30
0.0
 11
489.01879416805031
 21
553.25660130092069
 31
0.0
  0
LINE
  5
14A7
  8
0
 62
     0
 10
487.26879416805019
 20
555.00660130092081
 30
0.0
 11
488.26879416805042
 21
554.00660130092069
 31
0.0
  0
LINE
  5
14A8
  8
0
 62
     0
 10
488.26879416805042
 20
555.42081486329369
 30
0.0
 11
489.01879416805042
 21
554.67081486329369
 31
0.0
  0
LINE
  5
14A9
  8
0
 62
     0
 10
487.26879416805019
 20
556.42081486329391
 30
0.0
 11
488.26879416805042
 21
555.42081486329369
 31
0.0
  0
LINE
  5
14AA
  8
0
 62
     0
 10
487.26879416805019
 20
557.83502842566702
 30
0.0
 11
489.01879416805048
 21
556.08502842566679
 31
0.0
  0
LINE
  5
14AB
  8
0
 62
     0
 10
487.26879416805019
 20
559.24924198804013
 30
0.0
 11
489.6572661241749
 21
556.86077003191542
 31
0.0
  0
LINE
  5
14AC
  8
0
 62
     0
 10
487.26879416805019
 20
560.66345555041323
 30
0.0
 11
490.55384159634292
 21
557.37840812212039
 31
0.0
  0
LINE
  5
14AD
  8
0
 62
     0
 10
487.26879416805019
 20
562.07766911278634
 30
0.0
 11
491.45041706851111
 21
557.89604621232536
 31
0.0
  0
LINE
  5
14AE
  8
0
 62
     0
 10
487.26879416805019
 20
563.49188267515945
 30
0.0
 11
492.34699254067908
 21
558.41368430253056
 31
0.0
  0
LINE
  5
14AF
  8
0
 62
     0
 10
487.4806817558914
 20
564.69420864969118
 30
0.0
 11
493.24356801284711
 21
558.93132239273552
 31
0.0
  0
LINE
  5
14B0
  8
0
 62
     0
 10
488.18778853707789
 20
565.40131543087784
 30
0.0
 11
493.26879416805048
 21
560.32030979990532
 31
0.0
  0
LINE
  5
14B1
  8
0
 62
     0
 10
488.26879416805019
 20
566.73452336227865
 30
0.0
 11
493.26879416805048
 21
561.73452336227831
 31
0.0
  0
LINE
  5
14B2
  8
0
 62
     0
 10
490.93521003085198
 20
565.48232106185003
 30
0.0
 11
493.26879416805048
 21
563.14873692465142
 31
0.0
  0
LINE
  5
14B3
  8
0
 62
     0
 10
488.26879416805008
 20
568.14873692465176
 30
0.0
 11
490.26879416805042
 21
566.14873692465153
 31
0.0
  0
LINE
  5
14B4
  8
0
 62
     0
 10
492.34942359322503
 20
565.48232106185003
 30
0.0
 11
493.26879416805031
 21
564.56295048702464
 31
0.0
  0
LINE
  5
14B5
  8
0
 62
     0
 10
488.26879416804991
 20
569.56295048702498
 30
0.0
 11
490.26879416805031
 21
567.56295048702464
 31
0.0
  0
LINE
  5
14B6
  8
0
 62
     0
 10
488.75381014127129
 20
570.4921480761767
 30
0.0
 11
490.26879416805042
 21
568.97716404939774
 31
0.0
  0
LINE
  5
14B7
  8
0
 62
     0
 10
490.16802370364439
 20
570.4921480761767
 30
0.0
 11
490.26879416805042
 21
570.39137761177085
 31
0.0
  0
ENDBLK
  5
14B9
  8
0
  0
BLOCK
  8
0
  2
*X14
 70
     1
 10
0.0
 20
0.0
 30
0.0
  3
*X14
  1

  0
LINE
  5
14BB
  8
0
 62
     0
 10
486.33781914362618
 20
541.49214807617682
 30
0.0
 11
487.26879416805048
 21
542.42312310060095
 31
0.0
  0
LINE
  5
14BC
  8
0
 62
     0
 10
484.21649880006652
 20
541.49214807617682
 30
0.0
 11
487.26879416805042
 21
544.54444344416061
 31
0.0
  0
LINE
  5
14BD
  8
0
 62
     0
 10
483.76879416805042
 20
543.16576378772027
 30
0.0
 11
487.26879416805031
 21
546.66576378772027
 31
0.0
  0
LINE
  5
14BE
  8
0
 62
     0
 10
483.76879416805031
 20
545.2870841312797
 30
0.0
 11
487.26879416805031
 21
548.78708413127981
 31
0.0
  0
LINE
  5
14BF
  8
0
 62
     0
 10
483.76879416805042
 20
547.4084044748397
 30
0.0
 11
487.26879416805031
 21
550.90840447483936
 31
0.0
  0
LINE
  5
14C0
  8
0
 62
     0
 10
483.76879416805042
 20
549.52972481839925
 30
0.0
 11
487.26879416805019
 21
553.02972481839902
 31
0.0
  0
LINE
  5
14C1
  8
0
 62
     0
 10
483.10989708226828
 20
550.99214807617693
 30
0.0
 11
487.26879416805019
 21
555.15104516195856
 31
0.0
  0
LINE
  5
14C2
  8
0
 62
     0
 10
482.76879416805031
 20
552.77236550551856
 30
0.0
 11
487.26879416805008
 21
557.27236550551822
 31
0.0
  0
LINE
  5
14C3
  8
0
 62
     0
 10
483.76879416805042
 20
555.893685849078
 30
0.0
 11
487.26879416805019
 21
559.39368584907788
 31
0.0
  0
LINE
  5
14C4
  8
0
 62
     0
 10
482.76879416805042
 20
554.893685849078
 30
0.0
 11
482.86725639514901
 21
554.99214807617682
 31
0.0
  0
LINE
  5
14C5
  8
0
 62
     0
 10
483.76879416805042
 20
558.01500619263788
 30
0.0
 11
487.26879416805002
 21
561.51500619263743
 31
0.0
  0
LINE
  5
14C6
  8
0
 62
     0
 10
483.76879416805042
 20
560.13632653619754
 30
0.0
 11
487.26879416805008
 21
563.63632653619698
 31
0.0
  0
LINE
  5
14C7
  8
0
 62
     0
 10
483.76879416805059
 20
562.25764687975732
 30
0.0
 11
488.26879416805019
 21
566.75764687975698
 31
0.0
  0
LINE
  5
14C8
  8
0
 62
     0
 10
483.76879416805048
 20
564.37896722331675
 30
0.0
 11
488.26879416805002
 21
568.87896722331641
 31
0.0
  0
LINE
  5
14C9
  8
0
 62
     0
 10
485.01879416805048
 20
567.75028756687652
 30
0.0
 11
487.76065467735077
 21
570.49214807617693
 31
0.0
  0
LINE
  5
14CA
  8
0
 62
     0
 10
483.76879416805048
 20
566.50028756687664
 30
0.0
 11
484.26065467735089
 21
566.99214807617693
 31
0.0
  0
LINE
  5
14CB
  8
0
 62
     0
 10
485.01879416805031
 20
569.87160791043596
 30
0.0
 11
485.63933433379123
 21
570.4921480761767
 31
0.0
  0
LINE
  5
14CC
  8
0
 62
     0
 10
483.76879416805031
 20
542.95025211481664
 30
0.0
 11
485.22689820669012
 21
541.49214807617682
 31
0.0
  0
LINE
  5
14CD
  8
0
 62
     0
 10
483.76879416805042
 20
545.07157245837629
 30
0.0
 11
487.26879416805042
 21
541.57157245837629
 31
0.0
  0
LINE
  5
14CE
  8
0
 62
     0
 10
483.76879416805042
 20
547.19289280193584
 30
0.0
 11
487.26879416805031
 21
543.69289280193584
 31
0.0
  0
LINE
  5
14CF
  8
0
 62
     0
 10
483.76879416805042
 20
549.31421314549539
 30
0.0
 11
487.26879416805031
 21
545.81421314549539
 31
0.0
  0
LINE
  5
14D0
  8
0
 62
     0
 10
482.76879416805048
 20
552.43553348905505
 30
0.0
 11
487.26879416805031
 21
547.93553348905516
 31
0.0
  0
LINE
  5
14D1
  8
0
 62
     0
 10
482.76879416805042
 20
554.55685383261471
 30
0.0
 11
487.26879416805019
 21
550.05685383261482
 31
0.0
  0
LINE
  5
14D2
  8
0
 62
     0
 10
483.76879416805042
 20
555.67817417617425
 30
0.0
 11
487.26879416805031
 21
552.17817417617459
 31
0.0
  0
LINE
  5
14D3
  8
0
 62
     0
 10
483.76879416805042
 20
557.79949451973391
 30
0.0
 11
487.26879416805008
 21
554.29949451973425
 31
0.0
  0
LINE
  5
14D4
  8
0
 62
     0
 10
483.76879416805042
 20
559.92081486329369
 30
0.0
 11
487.26879416805002
 21
556.42081486329403
 31
0.0
  0
LINE
  5
14D5
  8
0
 62
     0
 10
483.76879416805048
 20
562.04213520685312
 30
0.0
 11
487.26879416805008
 21
558.54213520685346
 31
0.0
  0
LINE
  5
14D6
  8
0
 62
     0
 10
483.76879416805042
 20
564.16345555041266
 30
0.0
 11
487.26879416805002
 21
560.66345555041323
 31
0.0
  0
LINE
  5
14D7
  8
0
 62
     0
 10
483.76879416805048
 20
566.28477589397255
 30
0.0
 11
487.26879416805002
 21
562.78477589397289
 31
0.0
  0
LINE
  5
14D8
  8
0
 62
     0
 10
485.01879416805042
 20
567.15609623753221
 30
0.0
 11
487.48068175589123
 21
564.69420864969118
 31
0.0
  0
LINE
  5
14D9
  8
0
 62
     0
 10
485.01879416805031
 20
569.27741658109187
 30
0.0
 11
488.26879416805019
 21
566.02741658109221
 31
0.0
  0
LINE
  5
14DA
  8
0
 62
     0
 10
485.92538301652507
 20
570.49214807617659
 30
0.0
 11
488.26879416805002
 21
568.14873692465176
 31
0.0
  0
LINE
  5
14DB
  8
0
 62
     0
 10
488.04670336008468
 20
570.4921480761767
 30
0.0
 11
488.26879416804991
 21
570.27005726821164
 31
0.0
  0
ENDBLK
  5
14DD
  8
0
  0
BLOCK
  8
0
  2
*X15
 70
     1
 10
0.0
 20
0.0
 30
0.0
  3
*X15
  1

  0
LINE
  5
14DF
  8
0
 62
     0
 10
308.99487886959912
 20
541.65457889781749
 30
0.0
 11
309.15730969123979
 21
541.49214807617682
 31
0.0
  0
LINE
  5
14E0
  8
0
 62
     0
 10
309.99487886959918
 20
541.71523906959726
 30
0.0
 11
310.21796986301962
 21
541.49214807617682
 31
0.0
  0
LINE
  5
14E1
  8
0
 62
     0
 10
308.99487886959912
 20
542.71523906959726
 30
0.0
 11
309.99487886959912
 21
541.71523906959726
 31
0.0
  0
LINE
  5
14E2
  8
0
 62
     0
 10
309.99487886959912
 20
542.77589924137715
 30
0.0
 11
310.5948788695992
 21
542.17589924137701
 31
0.0
  0
LINE
  5
14E3
  8
0
 62
     0
 10
308.99487886959912
 20
543.77589924137715
 30
0.0
 11
309.99487886959901
 21
542.77589924137715
 31
0.0
  0
LINE
  5
14E4
  8
0
 62
     0
 10
309.99487886959912
 20
543.83655941315681
 30
0.0
 11
310.5948788695992
 21
543.23655941315678
 31
0.0
  0
LINE
  5
14E5
  8
0
 62
     0
 10
308.99487886959918
 20
544.83655941315692
 30
0.0
 11
309.99487886959912
 21
543.83655941315703
 31
0.0
  0
LINE
  5
14E6
  8
0
 62
     0
 10
309.99487886959912
 20
544.89721958493669
 30
0.0
 11
310.5948788695992
 21
544.29721958493667
 31
0.0
  0
LINE
  5
14E7
  8
0
 62
     0
 10
308.99487886959912
 20
545.89721958493669
 30
0.0
 11
309.99487886959912
 21
544.89721958493669
 31
0.0
  0
LINE
  5
14E8
  8
0
 62
     0
 10
309.99487886959918
 20
545.95787975671647
 30
0.0
 11
310.5948788695992
 21
545.35787975671644
 31
0.0
  0
LINE
  5
14E9
  8
0
 62
     0
 10
308.99487886959918
 20
546.95787975671647
 30
0.0
 11
309.99487886959912
 21
545.95787975671647
 31
0.0
  0
LINE
  5
14EA
  8
0
 62
     0
 10
309.99487886959912
 20
547.01853992849635
 30
0.0
 11
310.5948788695992
 21
546.41853992849633
 31
0.0
  0
LINE
  5
14EB
  8
0
 62
     0
 10
308.99487886959918
 20
548.01853992849635
 30
0.0
 11
309.99487886959912
 21
547.01853992849635
 31
0.0
  0
LINE
  5
14EC
  8
0
 62
     0
 10
309.99487886959912
 20
548.07920010027624
 30
0.0
 11
310.5948788695992
 21
547.4792001002761
 31
0.0
  0
LINE
  5
14ED
  8
0
 62
     0
 10
308.99487886959912
 20
549.07920010027624
 30
0.0
 11
309.99487886959912
 21
548.07920010027624
 31
0.0
  0
LINE
  5
14EE
  8
0
 62
     0
 10
309.99487886959912
 20
549.13986027205613
 30
0.0
 11
310.5948788695992
 21
548.53986027205588
 31
0.0
  0
LINE
  5
14EF
  8
0
 62
     0
 10
308.99487886959918
 20
550.13986027205601
 30
0.0
 11
309.99487886959912
 21
549.13986027205613
 31
0.0
  0
LINE
  5
14F0
  8
0
 62
     0
 10
309.99487886959912
 20
550.2005204438359
 30
0.0
 11
310.59487886959909
 21
549.60052044383576
 31
0.0
  0
LINE
  5
14F1
  8
0
 62
     0
 10
308.99487886959918
 20
551.20052044383579
 30
0.0
 11
309.99487886959901
 21
550.2005204438359
 31
0.0
  0
LINE
  5
14F2
  8
0
 62
     0
 10
309.99487886959912
 20
551.26118061561567
 30
0.0
 11
310.5948788695992
 21
550.66118061561565
 31
0.0
  0
LINE
  5
14F3
  8
0
 62
     0
 10
308.99487886959918
 20
552.26118061561556
 30
0.0
 11
309.99487886959912
 21
551.26118061561567
 31
0.0
  0
LINE
  5
14F4
  8
0
 62
     0
 10
309.99487886959912
 20
552.32184078739544
 30
0.0
 11
310.5948788695992
 21
551.72184078739531
 31
0.0
  0
LINE
  5
14F5
  8
0
 62
     0
 10
308.99487886959918
 20
553.32184078739544
 30
0.0
 11
309.99487886959912
 21
552.32184078739544
 31
0.0
  0
LINE
  5
14F6
  8
0
 62
     0
 10
309.99487886959912
 20
553.38250095917533
 30
0.0
 11
310.5948788695992
 21
552.7825009591752
 31
0.0
  0
LINE
  5
14F7
  8
0
 62
     0
 10
308.99487886959918
 20
554.38250095917533
 30
0.0
 11
309.99487886959912
 21
553.38250095917533
 31
0.0
  0
LINE
  5
14F8
  8
0
 62
     0
 10
309.99487886959912
 20
554.44316113095522
 30
0.0
 11
310.5948788695992
 21
553.84316113095497
 31
0.0
  0
LINE
  5
14F9
  8
0
 62
     0
 10
308.99487886959918
 20
555.4431611309551
 30
0.0
 11
309.99487886959912
 21
554.44316113095522
 31
0.0
  0
LINE
  5
14FA
  8
0
 62
     0
 10
309.99487886959912
 20
555.50382130273499
 30
0.0
 11
310.59487886959909
 21
554.90382130273485
 31
0.0
  0
LINE
  5
14FB
  8
0
 62
     0
 10
308.99487886959918
 20
556.50382130273488
 30
0.0
 11
309.99487886959912
 21
555.50382130273499
 31
0.0
  0
LINE
  5
14FC
  8
0
 62
     0
 10
310.06721226793718
 20
556.49214807617682
 30
0.0
 11
310.5948788695992
 21
555.96448147451474
 31
0.0
  0
LINE
  5
14FD
  8
0
 62
     0
 10
308.99487886959918
 20
557.56448147451465
 30
0.0
 11
310.06721226793718
 21
556.49214807617682
 31
0.0
  0
LINE
  5
14FE
  8
0
 62
     0
 10
308.99487886959918
 20
558.62514164629454
 30
0.0
 11
310.61557669930039
 21
557.00444381659327
 31
0.0
  0
LINE
  5
14FF
  8
0
 62
     0
 10
308.99487886959929
 20
559.68580181807431
 30
0.0
 11
311.28095978842941
 21
557.39972089924424
 31
0.0
  0
LINE
  5
1500
  8
0
 62
     0
 10
308.99487886959918
 20
560.7464619898542
 30
0.0
 11
311.94634287755832
 21
557.79499798189511
 31
0.0
  0
LINE
  5
1501
  8
0
 62
     0
 10
309.30985295505639
 20
561.49214807617682
 30
0.0
 11
312.61172596668717
 21
558.19027506454586
 31
0.0
  0
LINE
  5
1502
  8
0
 62
     0
 10
309.99487886959918
 20
561.86778233341386
 30
0.0
 11
311.99487886959918
 21
559.86778233341386
 31
0.0
  0
LINE
  5
1503
  8
0
 62
     0
 10
309.99487886959912
 20
562.92844250519374
 30
0.0
 11
311.99487886959918
 21
560.92844250519374
 31
0.0
  0
LINE
  5
1504
  8
0
 62
     0
 10
309.99487886959912
 20
563.98910267697352
 30
0.0
 11
311.99487886959918
 21
561.98910267697363
 31
0.0
  0
LINE
  5
1505
  8
0
 62
     0
 10
309.99487886959912
 20
565.0497628487534
 30
0.0
 11
311.99487886959912
 21
563.0497628487534
 31
0.0
  0
LINE
  5
1506
  8
0
 62
     0
 10
310.61315381395559
 20
565.49214807617682
 30
0.0
 11
311.99487886959918
 21
564.11042302053306
 31
0.0
  0
LINE
  5
1507
  8
0
 62
     0
 10
311.67381398573519
 20
565.49214807617693
 30
0.0
 11
311.99487886959912
 21
565.17108319231295
 31
0.0
  0
ENDBLK
  5
1509
  8
0
  0
ENDSEC
  0
SECTION
  2
ENTITIES
  0
CIRCLE
  5
359
  8
0
 10
310.79487886959919
 20
571.53002039200305
 30
0.0
 40
0.3
  0
CIRCLE
  5
35A
  8
0
 10
310.79487886959919
 20
569.73095642224416
 30
0.0
 40
0.3
  0
LINE
  5
35B
  8
0
 10
311.49487886959918
 20
565.49214807617682
 30
0.0
 11
311.49487886959918
 21
573.49214807617682
 31
0.0
  0
LINE
  5
35C
  8
0
 10
306.49487886959918
 20
552.49214807617682
 30
0.0
 11
306.49487886959918
 21
561.9921480761767
 31
0.0
1001
ACAD
1000
ASC_BOUNDS
1002
{
1070
    19
1005
D01
1002
}
  0
LINE
  5
35D
  8
0
 10
306.74487886959918
 20
541.49214807617682
 30
0.0
 11
321.24487886959918
 21
541.49214807617659
 31
0.0
1001
ACAD
1000
ASC_BOUNDS
1002
{
1070
    19
1005
11F3
1005
11F3
1005
D01
1002
}
  0
LINE
  5
35E
  8
0
 10
306.49487886959918
 20
561.9921480761767
 30
0.0
 11
307.0948788695992
 21
561.9921480761767
 31
0.0
1001
ACAD
1000
ASC_BOUNDS
1002
{
1070
    19
1005
D01
1002
}
  0
LINE
  5
35F
  8
0
 10
305.3448788695992
 20
549.59214807617684
 30
0.0
 11
305.3448788695992
 21
552.49214807617682
 31
0.0
1001
ACAD
1000
ASC_BOUNDS
1002
{
1070
    19
1005
D01
1002
}
  0
LINE
  5
360
  8
0
 10
305.3448788695992
 20
552.49214807617682
 30
0.0
 11
306.49487886959918
 21
552.49214807617682
 31
0.0
1001
ACAD
1000
ASC_BOUNDS
1002
{
1070
    19
1005
D01
1002
}
  0
LINE
  5
361
  8
0
 10
306.49487886959918
 20
547.99214807617682
 30
0.0
 11
306.49487886959918
 21
549.59214807617684
 31
0.0
1001
ACAD
1000
ASC_BOUNDS
1002
{
1070
    19
1005
D01
1002
}
  0
LINE
  5
362
  8
0
 10
305.3448788695992
 20
549.59214807617684
 30
0.0
 11
306.49487886959918
 21
549.59214807617684
 31
0.0
1001
ACAD
1000
ASC_BOUNDS
1002
{
1070
    19
1005
D01
1002
}
  0
LINE
  5
363
  8
0
 10
306.74487886959918
 20
541.49214807617682
 30
0.0
 11
306.74487886959918
 21
547.99214807617682
 31
0.0
1001
ACAD
1000
ASC_BOUNDS
1002
{
1070
    19
1005
D01
1002
}
  0
LINE
  5
364
  8
0
  6
CENTER
 10
313.99487886959918
 20
536.00494597286695
 30
0.0
 11
313.99487886959918
 21
584.26954268241082
 31
0.0
  0
LINE
  5
365
  8
0
 10
399.43308430517629
 20
547.99214807617682
 30
0.0
 11
399.43308430517629
 21
541.49214807617682
 31
0.0
  0
LINE
  5
366
  8
0
 10
399.76106866654101
 20
547.99214807617682
 30
0.0
 11
399.76106866654101
 21
541.49214807617682
 31
0.0
  0
LINE
  5
367
  8
0
 10
400.17485723101458
 20
547.99214807617682
 30
0.0
 11
400.17485723101458
 21
541.49214807617682
 31
0.0
  0
LINE
  5
368
  8
0
 10
400.6165008578518
 20
547.99214807617682
 30
0.0
 11
400.6165008578518
 21
541.49214807617682
 31
0.0
  0
LINE
  5
369
  8
0
 10
401.15534804175309
 20
547.99214807617682
 30
0.0
 11
401.1553480417532
 21
541.49214807617682
 31
0.0
  0
LINE
  5
36A
  8
0
 10
401.782900840737
 20
547.99214807617682
 30
0.0
 11
401.78290084073711
 21
541.49214807617682
 31
0.0
  0
LINE
  5
36B
  8
0
 10
402.48926237228147
 20
547.99214807617682
 30
0.0
 11
402.48926237228147
 21
541.49214807617682
 31
0.0
  0
LINE
  5
36C
  8
0
 10
403.26329289307392
 20
547.99214807617682
 30
0.0
 11
403.26329289307398
 21
541.49214807617682
 31
0.0
  0
LINE
  5
36D
  8
0
 10
404.0927854794183
 20
547.99214807617682
 30
0.0
 11
404.0927854794183
 21
541.49214807617682
 31
0.0
  0
LINE
  5
36E
  8
0
 10
404.96465853771298
 20
547.99214807617682
 30
0.0
 11
404.96465853771298
 21
541.49214807617682
 31
0.0
  0
LINE
  5
36F
  8
0
 10
405.86516210899703
 20
547.99214807617682
 30
0.0
 11
405.86516210899708
 21
541.49214807617682
 31
0.0
  0
LINE
  5
370
  8
0
 10
399.28009471401651
 20
541.49214807617682
 30
0.0
 11
414.2800947140164
 21
541.49214807617682
 31
0.0
  0
LINE
  5
371
  8
0
 10
414.2800947140164
 20
541.49214807617682
 30
0.0
 11
414.2800947140164
 21
549.4921480761767
 31
0.0
  0
LINE
  5
372
  8
0
 10
399.28009471401651
 20
541.49214807617682
 30
0.0
 11
399.2800947140164
 21
549.4921480761767
 31
0.0
  0
LINE
  5
373
  8
0
 10
310.5948788695992
 20
541.49214807617682
 30
0.0
 11
310.5948788695992
 21
556.99214807617682
 31
0.0
1001
ACAD
1000
ASC_BOUNDS
1002
{
1070
    19
1005
11F3
1005
11F3
1002
}
  0
LINE
  5
374
  8
0
 10
309.99487886959918
 20
541.49214807617682
 30
0.0
 11
309.99487886959918
 21
556.49214807617682
 31
0.0
1001
ACAD
1000
ASC_BOUNDS
1002
{
1070
    19
1005
11F3
1005
11F3
1002
}
  0
LINE
  5
375
  8
0
 10
308.99487886959918
 20
541.49214807617682
 30
0.0
 11
308.99487886959929
 21
561.49214807617682
 31
0.0
1001
ACAD
1000
ASC_BOUNDS
1002
{
1070
    19
1005
11F3
1005
D01
1002
}
  0
LINE
  5
376
  8
0
 10
309.99487886959918
 20
556.49214807617682
 30
0.0
 11
313.99487886959918
 21
556.49214807617682
 31
0.0
1001
ACAD
1000
ASC_BOUNDS
1002
{
1070
    19
1005
11F3
1005
11F3
1002
}
  0
LINE
  5
377
  8
0
 10
310.5948788695992
 20
556.99214807617682
 30
0.0
 11
313.99487886959918
 21
556.99214807617682
 31
0.0
  0
LINE
  5
37A
  8
0
 10
307.09487886959931
 20
565.49214807617682
 30
0.0
 11
313.99487886959918
 21
565.49214807617682
 31
0.0
1001
ACAD
1000
ASC_BOUNDS
1002
{
1070
    19
1005
11F3
1005
D01
1002
}
  0
LINE
  5
37B
  8
0
 10
306.49487886959918
 20
547.99214807617682
 30
0.0
 11
306.74487886959918
 21
547.99214807617682
 31
0.0
1001
ACAD
1000
ASC_BOUNDS
1002
{
1070
    19
1005
D01
1002
}
  0
CIRCLE
  5
382
  8
0
 10
310.79487886959919
 20
573.29540325082951
 30
0.0
 40
0.3
  0
LINE
  5
383
  8
0
 10
306.49487886959918
 20
549.4921480761767
 30
0.0
 11
303.69487886959922
 21
549.4921480761767
 31
0.0
1001
ACAD
1000
ASC_BOUNDS
1002
{
1070
    19
1005
582
1002
}
  0
LINE
  5
384
  8
0
 10
303.64389301817693
 20
575.09866336200912
 30
0.0
 11
302.94487886959922
 21
561.9921480761767
 31
0.0
1001
ACAD
1000
ASC_BOUNDS
1002
{
1070
    19
1005
582
1002
}
  0
LINE
  5
385
  8
0
 10
302.94487886959922
 20
561.9921480761767
 30
0.0
 11
302.49487886959918
 21
550.69142978670527
 31
0.0
1001
ACAD
1000
ASC_BOUNDS
1002
{
1070
    19
1005
582
1002
}
  0
LINE
  5
386
  8
0
 10
302.49487886959918
 20
550.69142978670527
 30
0.0
 11
303.69487886959922
 21
549.4921480761767
 31
0.0
1001
ACAD
1000
ASC_BOUNDS
1002
{
1070
    19
1005
582
1002
}
  0
ARC
  5
387
  8
0
 10
305.64105462753258
 20
574.99214807617682
 30
0.0
 40
2.0
 50
90.0
 51
176.94711748520751
1001
ACAD
1000
ASC_BOUNDS
1002
{
1070
    19
1005
582
1002
}
  0
LINE
  5
388
  8
0
 10
305.64105462753258
 20
576.99214807617682
 30
0.0
 11
307.49487886959918
 21
576.9921480761767
 31
0.0
1001
ACAD
1000
ASC_BOUNDS
1002
{
1070
    19
1005
582
1002
}
  0
LINE
  5
389
  8
0
 10
320.49487886959918
 20
576.99214807617682
 30
0.0
 11
322.15672709695679
 21
576.99214807617682
 31
0.0
  0
LINE
  5
38A
  8
0
 10
304.8448788695992
 20
549.4921480761767
 30
0.0
 11
304.8448788695992
 21
552.79214807617677
 31
0.0
1001
ACAD
1000
ASC_BOUNDS
1002
{
1070
    19
1005
582
1002
}
  0
LINE
  5
38B
  8
0
 10
306.49487886959918
 20
552.79214807617677
 30
0.0
 11
304.8448788695992
 21
552.79214807617677
 31
0.0
1001
ACAD
1000
ASC_BOUNDS
1002
{
1070
    19
1005
582
1002
}
  0
LINE
  5
38C
  8
0
 10
306.29487886959919
 20
552.79214807617677
 30
0.0
 11
306.29487886959919
 21
562.19214807617664
 31
0.0
1001
ACAD
1000
ASC_BOUNDS
1002
{
1070
    19
1005
582
1002
}
  0
LINE
  5
38D
  8
0
 10
307.0948788695992
 20
561.9921480761767
 30
0.0
 11
307.09487886959931
 21
565.49214807617682
 31
0.0
1001
ACAD
1000
ASC_BOUNDS
1002
{
1070
    19
1005
D01
1002
}
  0
LINE
  5
38E
  8
0
 10
306.89487886959938
 20
565.69214807617675
 30
0.0
 11
311.49487886959918
 21
565.69214807617675
 31
0.0
1001
ACAD
1000
ASC_BOUNDS
1002
{
1070
    19
1005
582
1002
}
  0
LINE
  5
38F
  8
0
 10
307.2948788695993
 20
567.9921480761767
 30
0.0
 11
311.49487886959918
 21
567.9921480761767
 31
0.0
1001
ACAD
1000
ASC_BOUNDS
1002
{
1070
    19
1005
582
1002
}
  0
LINE
  5
390
  8
0
 10
311.29487886959919
 20
565.69214807617675
 30
0.0
 11
311.29487886959907
 21
567.99214807617648
 31
0.0
1001
ACAD
1000
ASC_BOUNDS
1002
{
1070
    19
1005
582
1002
}
  0
LINE
  5
391
  8
0
 10
307.2948788695993
 20
576.9921480761767
 30
0.0
 11
307.2948788695993
 21
567.9921480761767
 31
0.0
1001
ACAD
1000
ASC_BOUNDS
1002
{
1070
    19
1005
582
1002
}
  0
CIRCLE
  5
392
  8
0
 10
310.79487886959919
 20
568.45379028301647
 30
0.0
 40
0.3
  0
LINE
  5
394
  8
0
 10
313.99487886959918
 20
549.49214807617625
 30
0.0
 11
324.29487886959919
 21
549.4921480761767
 31
0.0
  0
LINE
  5
395
  8
0
 10
325.49487886959918
 20
550.69142978670527
 30
0.0
 11
324.29487886959919
 21
549.4921480761767
 31
0.0
  0
LINE
  5
396
  8
0
 10
321.49487886959918
 20
547.99214807617682
 30
0.0
 11
321.49487886959918
 21
549.4921480761767
 31
0.0
  0
LINE
  5
397
  8
0
 10
321.49487886959918
 20
547.99214807617682
 30
0.0
 11
313.99487886959918
 21
547.99214807617682
 31
0.0
  0
LINE
  5
398
  8
0
 10
322.15672709695679
 20
576.99214807617682
 30
0.0
 11
313.99487886959918
 21
576.99214807617648
 31
0.0
  0
LINE
  5
399
  8
0
 10
321.24487886959918
 20
541.49214807617682
 30
0.0
 11
321.24487886959918
 21
547.99214807617682
 31
0.0
  0
LINE
  5
39A
  8
0
 10
325.49487886959918
 20
550.69142978670527
 30
0.0
 11
325.49487886959918
 21
556.49432203832612
 31
0.0
  0
ARC
  5
39B
  8
0
 10
339.8474187482841
 20
554.63272161954717
 30
0.0
 40
15.0
 50
122.24419117775319
 51
141.64489803375119
  0
ARC
  5
39C
  8
0
 10
338.24683243622258
 20
557.1700673700592
 30
0.0
 40
12.0
 50
110.21393618726751
 51
122.24419117775319
  0
ARC
  5
39D
  8
0
 10
337.49487886959918
 20
556.49432203832612
 30
0.0
 40
12.0
 50
141.64489803375119
 51
180.0
  0
LINE
  5
39E
  8
0
 10
414.2800947140164
 20
547.99214807617682
 30
0.0
 11
399.2800947140164
 21
547.99214807617682
 31
0.0
  0
LINE
  5
39F
  8
0
 10
408.59553089031988
 20
547.99214807617682
 30
0.0
 11
408.59553089031982
 21
541.49214807617682
 31
0.0
  0
LINE
  5
3A0
  8
0
 10
409.4674039486145
 20
547.99214807617682
 30
0.0
 11
409.4674039486145
 21
541.49214807617682
 31
0.0
  0
LINE
  5
3A1
  8
0
 10
410.29689653495888
 20
547.99214807617682
 30
0.0
 11
410.29689653495882
 21
541.49214807617682
 31
0.0
  0
LINE
  5
3A2
  8
0
 10
411.07092705575138
 20
547.99214807617682
 30
0.0
 11
411.07092705575138
 21
541.49214807617682
 31
0.0
  0
LINE
  5
3A3
  8
0
 10
411.7772885872958
 20
547.99214807617682
 30
0.0
 11
411.77728858729569
 21
541.49214807617682
 31
0.0
  0
LINE
  5
3A4
  8
0
 10
412.40484138627971
 20
547.99214807617682
 30
0.0
 11
412.4048413862796
 21
541.49214807617682
 31
0.0
  0
LINE
  5
3A5
  8
0
 10
412.943688570181
 20
547.99214807617682
 30
0.0
 11
412.943688570181
 21
541.49214807617682
 31
0.0
  0
LINE
  5
3A6
  8
0
 10
413.38533219701827
 20
547.99214807617682
 30
0.0
 11
413.38533219701827
 21
541.49214807617682
 31
0.0
  0
LINE
  5
3A7
  8
0
 10
413.79912076149179
 20
547.99214807617682
 30
0.0
 11
413.79912076149168
 21
541.49214807617682
 31
0.0
  0
LINE
  5
3A8
  8
0
 10
414.12710512285651
 20
547.99214807617682
 30
0.0
 11
414.12710512285651
 21
541.49214807617682
 31
0.0
  0
LINE
  5
3A9
  8
0
 10
408.59553089031988
 20
547.99214807617682
 30
0.0
 11
408.59553089031982
 21
541.49214807617682
 31
0.0
  0
LINE
  5
3AA
  8
0
 10
407.69502731903577
 20
547.99214807617682
 30
0.0
 11
407.69502731903572
 21
541.49214807617682
 31
0.0
  0
LINE
  5
3AB
  8
0
 10
406.7800947140164
 20
541.49214807617682
 30
0.0
 11
406.7800947140164
 21
547.99214807617682
 31
0.0
  0
LINE
  5
3AC
  8
0
 10
417.08009471401641
 20
549.4921480761767
 30
0.0
 11
396.48009471401639
 21
549.4921480761767
 31
0.0
  0
ARC
  5
3AD
  8
0
 10
398.42627047194992
 20
574.99214807617659
 30
0.0
 40
2.0
 50
90.0
 51
176.94711748520751
  0
LINE
  5
3AE
  8
0
 10
396.42910886259421
 20
575.09866336200889
 30
0.0
 11
395.7300947140165
 21
561.9921480761767
 31
0.0
  0
LINE
  5
3AF
  8
0
 10
395.7300947140165
 20
561.9921480761767
 30
0.0
 11
395.28009471401651
 21
550.69142978670527
 31
0.0
  0
LINE
  5
3B0
  8
0
 10
395.28009471401651
 20
550.69142978670527
 30
0.0
 11
396.4800947140165
 21
549.4921480761767
 31
0.0
  0
LINE
  5
3B1
  8
0
 10
417.13108056543871
 20
575.09866336200889
 30
0.0
 11
417.83009471401652
 21
561.9921480761767
 31
0.0
  0
LINE
  5
3B2
  8
0
 10
417.83009471401652
 20
561.9921480761767
 30
0.0
 11
418.2800947140164
 21
550.69142978670527
 31
0.0
  0
ARC
  5
3B3
  8
0
 10
415.13391895608311
 20
574.99214807617659
 30
0.0
 40
2.0
 50
3.052882514792429
 51
90.0
  0
LINE
  5
3B4
  8
0
 10
415.13391895608311
 20
576.9921480761767
 30
0.0
 11
398.42627047194981
 21
576.99214807617614
 31
0.0
  0
LINE
  5
3B5
  8
0
 10
418.2800947140164
 20
550.69142978670527
 30
0.0
 11
417.08009471401652
 21
549.4921480761767
 31
0.0
  0
LINE
  5
3B8
  8
0
 10
400.28009471401651
 20
583.99214762450561
 30
0.0
 11
400.28009471401651
 21
576.99214807617614
 31
0.0
  0
LINE
  5
3B9
  8
0
 10
413.28009471401663
 20
583.99214762450561
 30
0.0
 11
413.2800947140164
 21
576.99214807617648
 31
0.0
  0
LINE
  5
3BA
  8
0
 10
401.2800947140164
 20
584.99214762450549
 30
0.0
 11
412.28009471401651
 21
584.99214762450549
 31
0.0
  0
ARC
  5
3BB
  8
0
 10
401.2800947140164
 20
583.99214762450561
 30
0.0
 40
1.0
 50
90.0
 51
180.0
  0
ARC
  5
3BC
  8
0
 10
412.28009471401651
 20
583.99214762450561
 30
0.0
 40
1.0
 50
0.0
 51
90.0
  0
LINE
  5
3BE
  8
0
 10
400.53505736540188
 20
579.30054863789439
 30
0.0
 11
401.56134470166609
 21
583.99214762450549
 31
0.0
  0
LINE
  5
3BF
  8
0
 10
413.02513206263097
 20
579.30054863789439
 30
0.0
 11
411.99884472636683
 21
583.99214762450561
 31
0.0
  0
LINE
  5
3C2
  8
0
  6
CENTER
 10
406.78009471401651
 20
587.99214762450561
 30
0.0
 11
406.7800947140164
 21
538.49214807617682
 31
0.0
  0
CIRCLE
  5
3C3
  8
0
 10
313.99487886959918
 20
504.63213398921391
 30
0.0
 40
6.5
  0
CIRCLE
  5
3C4
  8
0
 10
313.99487886959918
 20
504.63213398921391
 30
0.0
 40
7.0
  0
ARC
  5
3C5
  8
0
 10
313.99487886959918
 20
504.63213398921391
 30
0.0
 40
10.35098585142228
 50
54.808397083335613
 51
305.19160291666429
  0
ARC
  5
3C6
  8
0
 10
313.99487886959918
 20
504.63213398921391
 30
0.0
 40
11.5
 50
41.020785432330399
 51
318.9792145676696
  0
ARC
  5
3C7
  8
0
 10
372.49487886959918
 20
504.6321339892138
 30
0.0
 40
6.5
 50
236.4066393499424
 51
123.59336065005751
  0
LINE
  5
3C8
  8
0
 10
368.90022826441208
 20
510.0477121694849
 30
0.0
 11
322.61147116235782
 21
512.1827204957051
 31
0.0
  0
LINE
  5
3C9
  8
0
 10
368.90022826441208
 20
499.2165558089427
 30
0.0
 11
322.61147116235782
 21
497.08154748272261
 31
0.0
  0
ARC
  5
3CA
  8
0
 10
322.84184469946979
 20
517.17741047941763
 30
0.0
 40
5.0
 50
234.80839708333559
 51
267.35917880262173
  0
ARC
  5
3CB
  8
0
 10
322.84184469946962
 20
492.08685749901019
 30
0.0
 40
5.0
 50
92.640821197378244
 51
125.19160291666429
  0
LINE
  5
3CC
  8
0
  6
CENTER
 10
313.99487886959918
 20
519.13213398921391
 30
0.0
 11
313.99487886959918
 21
490.13213398921391
 31
0.0
  0
LINE
  5
3CD
  8
0
  6
CENTER
 10
299.49487886959918
 20
504.63213398921391
 30
0.0
 11
381.99487886959918
 21
504.6321339892138
 31
0.0
  0
ARC
  5
3CE
  8
0
 10
388.06516205921571
 20
432.95208897910118
 30
0.0
 40
145.83110718771511
 50
98.359597166654424
 51
111.7186357893119
  0
ARC
  5
3CF
  8
0
 10
375.08445640248948
 20
408.79000913257329
 30
0.0
 40
176.33293530887241
 50
92.336029480027364
 51
107.4670891633603
  0
ARC
  5
3D0
  8
0
 10
368.34207673778889
 20
583.99282339235128
 30
0.0
 40
1.0
 50
90.183139855018226
 51
92.105792863845267
  0
LINE
  5
3D1
  8
0
 10
321.01390491707451
 20
547.9921480761767
 30
0.0
 11
321.01390491707451
 21
541.49214807617659
 31
0.0
  0
LINE
  5
3D2
  8
0
 10
320.60011635260111
 20
547.9921480761767
 30
0.0
 11
320.60011635260111
 21
541.49214807617659
 31
0.0
  0
LINE
  5
3D3
  8
0
 10
320.15847272576377
 20
547.9921480761767
 30
0.0
 11
320.15847272576377
 21
541.49214807617659
 31
0.0
  0
LINE
  5
3D4
  8
0
 10
319.61962554186238
 20
547.9921480761767
 30
0.0
 11
319.61962554186238
 21
541.49214807617659
 31
0.0
  0
LINE
  5
3D5
  8
0
 10
318.99207274287852
 20
547.9921480761767
 30
0.0
 11
318.99207274287852
 21
541.49214807617659
 31
0.0
  0
LINE
  5
3D6
  8
0
 10
318.2857112113341
 20
547.9921480761767
 30
0.0
 11
318.2857112113341
 21
541.49214807617659
 31
0.0
  0
LINE
  5
3D7
  8
0
 10
317.5116806905416
 20
547.9921480761767
 30
0.0
 11
317.5116806905416
 21
541.49214807617659
 31
0.0
  0
LINE
  5
3D8
  8
0
 10
316.68218810419722
 20
547.9921480761767
 30
0.0
 11
316.68218810419722
 21
541.49214807617659
 31
0.0
  0
LINE
  5
3D9
  8
0
 10
315.8103150459026
 20
547.9921480761767
 30
0.0
 11
315.8103150459026
 21
541.49214807617659
 31
0.0
  0
LINE
  5
3DA
  8
0
 10
314.90981147461849
 20
547.9921480761767
 30
0.0
 11
314.90981147461849
 21
541.49214807617659
 31
0.0
  0
LINE
  5
3DB
  8
0
 10
395.28009471401651
 20
550.69142978670527
 30
0.0
 11
418.2800947140164
 21
550.69142978670527
 31
0.0
  0
LINE
  5
3DC
  8
0
 10
325.49487886959918
 20
550.69142978670527
 30
0.0
 11
313.99487886959918
 21
550.69142978670527
 31
0.0
  0
LINE
  5
3DE
  8
0
 10
5.2580514588865412
 20
541.49214807617659
 30
0.0
 11
16.758051458886541
 21
541.49214807617659
 31
0.0
1001
ACAD
1000
ASC_BOUNDS
1002
{
1070
    19
1005
876
1005
82B
1005
82B
1002
}
  0
LINE
  5
3DF
  8
0
 10
6.0080514588865412
 20
558.69214807617664
 30
0.0
 11
11.008051458886539
 21
558.69214807617675
 31
0.0
1001
ACAD
1000
ASC_BOUNDS
1002
{
1070
    19
1005
876
1005
82B
1005
82B
1002
}
  0
LINE
  5
3E0
  8
0
 10
16.758051458886541
 20
547.4921480761767
 30
0.0
 11
16.758051458886541
 21
541.49214807617659
 31
0.0
  0
LINE
  5
3E1
  8
0
 10
11.90754963286787
 20
541.49214807617659
 30
0.0
 11
11.90754963286787
 21
547.4921480761767
 31
0.0
  0
LINE
  5
3E2
  8
0
 10
12.78489917654252
 20
541.49214807617659
 30
0.0
 11
12.78489917654252
 21
547.4921480761767
 31
0.0
  0
LINE
  5
3E3
  8
0
 10
13.618496832388979
 20
541.49214807617659
 30
0.0
 11
13.618496832388979
 21
547.4921480761767
 31
0.0
  0
LINE
  5
3E4
  8
0
 10
14.387816659568299
 20
541.49214807617659
 30
0.0
 11
14.387816659568299
 21
547.4921480761767
 31
0.0
  0
LINE
  5
3E5
  8
0
 10
15.07391545070919
 20
541.49214807617659
 30
0.0
 11
15.07391545070919
 21
547.49214807617682
 31
0.0
  0
LINE
  5
3E6
  8
0
 10
15.65989917654252
 20
541.49214807617659
 30
0.0
 11
15.65989917654252
 21
547.4921480761767
 31
0.0
  0
LINE
  5
3E7
  8
0
 10
16.131338972969729
 20
541.49214807617659
 30
0.0
 11
16.131338972969729
 21
547.4921480761767
 31
0.0
  0
LINE
  5
3E8
  8
0
 10
16.47662642758371
 20
541.49214807617659
 30
0.0
 11
16.47662642758371
 21
547.4921480761767
 31
0.0
  0
LINE
  5
3E9
  8
0
 10
16.68725941730861
 20
541.49214807617659
 30
0.0
 11
16.68725941730861
 21
547.4921480761767
 31
0.0
  0
LINE
  5
3EA
  8
0
 10
5.2580514588865412
 20
555.89214807617668
 30
0.0
 11
6.2580514588865412
 21
555.89214807617668
 31
0.0
1001
ACAD
1000
ASC_BOUNDS
1002
{
1070
    19
1005
876
1002
}
  0
LINE
  5
3EC
  8
0
  6
CENTER
 10
11.008051458886539
 20
538.49214807617648
 30
0.0
 11
11.008051458886539
 21
575.99214807617648
 31
0.0
  0
LINE
  5
3ED
  8
0
 10
15.508051458886539
 20
570.29214807617677
 30
0.0
 11
15.508051458886539
 21
571.99214807617648
 31
0.0
  0
LINE
  5
3F1
  8
0
 10
6.5080514588865412
 20
567.49214807617659
 30
0.0
 11
6.5080514588865412
 21
571.99214807617648
 31
0.0
  0
LINE
  5
3F3
  8
0
 10
5.2580514588865412
 20
555.89214807617668
 30
0.0
 11
5.2580514588865412
 21
541.49214807617659
 31
0.0
1001
ACAD
1000
ASC_BOUNDS
1002
{
1070
    19
1005
876
1002
}
  0
LINE
  5
3F4
  8
0
 10
7.0080514588865412
 20
541.49214807617659
 30
0.0
 11
7.0080514588865412
 21
554.3056491986431
 31
0.0
1001
ACAD
1000
ASC_BOUNDS
1002
{
1070
    19
1005
876
1005
82B
1002
}
  0
LINE
  5
3F5
  8
0
 10
11.008051458886539
 20
547.4921480761767
 30
0.0
 11
16.758051458886541
 21
547.4921480761767
 31
0.0
  0
LINE
  5
3F7
  8
0
 10
8.0080514588865412
 20
541.49214807617659
 30
0.0
 11
8.0080514588865412
 21
551.49214807617648
 31
0.0
1001
ACAD
1000
ASC_BOUNDS
1002
{
1070
    19
1005
82B
1005
82B
1002
}
  0
LINE
  5
3F8
  8
0
 10
8.5080514588865412
 20
541.49214807617659
 30
0.0
 11
8.5080514588865412
 21
552.49214807617659
 31
0.0
1001
ACAD
1000
ASC_BOUNDS
1002
{
1070
    19
1005
82B
1005
82B
1002
}
  0
LINE
  5
3F9
  8
0
 10
8.0080514588865412
 20
551.49214807617648
 30
0.0
 11
11.008051458886539
 21
551.49214807617648
 31
0.0
1001
ACAD
1000
ASC_BOUNDS
1002
{
1070
    19
1005
82B
1005
82B
1002
}
  0
LINE
  5
3FA
  8
0
 10
8.5080514588866532
 20
552.4921480761767
 30
0.0
 11
11.008051458886539
 21
552.49214807617659
 31
0.0
  0
LINE
  5
3FB
  8
0
 10
6.2580514588865412
 20
558.69214807617664
 30
0.0
 11
6.2580514588865412
 21
555.89214807617668
 31
0.0
1001
ACAD
1000
ASC_BOUNDS
1002
{
1070
    19
1005
876
1002
}
  0
LINE
  5
3FC
  8
0
 10
2.5080514588865408
 20
548.4921480761767
 30
0.0
 11
2.5080514588865408
 21
555.64282954213252
 31
0.0
1001
ACAD
1000
ASC_BOUNDS
1002
{
1070
    19
1005
575
1002
}
  0
LINE
  5
3FD
  8
0
 10
5.2580514588865412
 20
547.4921480761767
 30
0.0
 11
3.5080514588865408
 21
547.4921480761767
 31
0.0
1001
ACAD
1000
ASC_BOUNDS
1002
{
1070
    19
1005
575
1002
}
  0
LINE
  5
3FE
  8
0
 10
6.5080514588865412
 20
570.29214807617677
 30
0.0
 11
4.4367171159740053
 21
570.29214807617655
 31
0.0
1001
ACAD
1000
ASC_BOUNDS
1002
{
1070
    19
1005
575
1002
}
  0
LINE
  5
3FF
  8
0
 10
3.4394493615172901
 20
569.36601976169186
 30
0.0
 11
2.6446637360510858
 21
558.63641381789796
 31
0.0
1001
ACAD
1000
ASC_BOUNDS
1002
{
1070
    19
1005
575
1002
}
  0
ARC
  5
400
  8
0
 10
35.381410918983697
 20
555.64256242798865
 30
0.0
 40
32.873359461182382
 50
174.77470314857899
 51
179.9995344402472
1001
ACAD
1000
ASC_BOUNDS
1002
{
1070
    19
1005
575
1002
}
  0
ARC
  5
401
  8
0
 10
4.4367171159740053
 20
569.29214807617655
 30
0.0
 40
1.0
 50
90.0
 51
175.76360520094099
1001
ACAD
1000
ASC_BOUNDS
1002
{
1070
    19
1005
575
1002
}
  0
LINE
  5
402
  8
0
 10
3.5080514588865408
 20
547.4921480761767
 30
0.0
 11
2.5080514588865408
 21
548.4921480761767
 31
0.0
1001
ACAD
1000
ASC_BOUNDS
1002
{
1070
    19
1005
575
1002
}
  0
LINE
  5
403
  8
0
 10
19.508051458886541
 20
548.4921480761767
 30
0.0
 11
19.508051458886541
 21
555.64282954213252
 31
0.0
  0
LINE
  5
404
  8
0
 10
16.758051458886541
 20
547.4921480761767
 30
0.0
 11
18.508051458886541
 21
547.4921480761767
 31
0.0
  0
LINE
  5
405
  8
0
 10
18.508051458886541
 20
547.4921480761767
 30
0.0
 11
19.508051458886541
 21
548.4921480761767
 31
0.0
  0
LINE
  5
406
  8
0
 10
11.008051458886539
 20
570.29214807617677
 30
0.0
 11
15.88438828630427
 21
570.29214807617655
 31
0.0
  0
LINE
  5
407
  8
0
 10
19.508051458886541
 20
548.4921480761767
 30
0.0
 11
11.008051458886539
 21
548.4921480761767
 31
0.0
  0
LINE
  5
408
  8
0
 10
4.7580514588865412
 20
547.4921480761767
 30
0.0
 11
4.7580514588865412
 21
556.14214807617657
 31
0.0
1001
ACAD
1000
ASC_BOUNDS
1002
{
1070
    19
1005
575
1002
}
  0
LINE
  5
409
  8
0
 10
6.0080514588865412
 20
560.19214807617664
 30
0.0
 11
8.508051458886543
 21
560.19214807617641
 31
0.0
1001
ACAD
1000
ASC_BOUNDS
1002
{
1070
    19
1005
575
1002
}
  0
LINE
  5
40A
  8
0
 10
6.0080514588865412
 20
556.14214807617657
 30
0.0
 11
6.0080514588865412
 21
558.94214807617664
 31
0.0
1001
ACAD
1000
ASC_BOUNDS
1002
{
1070
    19
1005
575
1002
}
  0
LINE
  5
40B
  8
0
 10
6.0080514588865412
 20
558.94214807617664
 30
0.0
 11
8.508051458886543
 21
558.94214807617664
 31
0.0
1001
ACAD
1000
ASC_BOUNDS
1002
{
1070
    19
1005
575
1002
}
  0
LINE
  5
40C
  8
0
 10
4.7580514588865412
 20
556.14214807617657
 30
0.0
 11
6.2580514588865412
 21
556.14214807617657
 31
0.0
1001
ACAD
1000
ASC_BOUNDS
1002
{
1070
    19
1005
575
1002
}
  0
LINE
  5
40D
  8
0
 10
8.1330514588865412
 20
558.94214807617664
 30
0.0
 11
8.1330514588865412
 21
560.19214807617641
 31
0.0
1001
ACAD
1000
ASC_BOUNDS
1002
{
1070
    19
1005
575
1002
}
  0
LINE
  5
40E
  8
0
 10
6.0080514588865412
 20
560.19214807617664
 30
0.0
 11
6.008051458886257
 21
570.29214807617677
 31
0.0
1001
ACAD
1000
ASC_BOUNDS
1002
{
1070
    19
1005
575
1002
}
  0
ARC
  5
40F
  8
0
 10
55.992584798897809
 20
394.69222401055799
 30
0.0
 40
180.0
 50
92.865631433515134
 51
102.5212131483957
  0
LINE
  5
410
  8
0
 10
47.993568070415328
 20
574.4921480761767
 30
0.0
 11
53.008051458886541
 21
574.4921480761767
 31
0.0
  0
LINE
  5
411
  8
0
 10
54.008051458886541
 20
573.49214807617682
 30
0.0
 11
54.008051458886541
 21
569.89214807617657
 31
0.0
  0
LINE
  5
412
  8
0
 10
53.008051458886541
 20
568.89214807617657
 30
0.0
 11
48.914291012675392
 21
568.89214807617657
 31
0.0
  0
ARC
  5
413
  8
0
 10
57.955939579335563
 20
489.5773220105375
 30
0.0
 40
80.0
 50
98.667155279786243
 51
116.0701500457461
  0
ARC
  5
414
  8
0
 10
26.61890071929912
 20
555.50391027188107
 30
0.0
 40
7.1122061111835899
 50
149.60362500477811
 51
178.88079817189501
  0
ARC
  5
415
  8
0
 10
24.995595395723971
 20
556.9465710140546
 30
0.0
 40
5.0
 50
116.0701500457461
 51
154.45667260428411
  0
ARC
  5
416
  8
0
 10
15.88438828630435
 20
575.29214807617666
 30
0.0
 40
5.0
 50
269.99999999999829
 51
282.5212131483957
  0
ARC
  5
417
  8
0
 10
26.00138436552427
 20
553.02109805244618
 30
0.0
 40
9.0056607139326612
 50
110.8352063982517
 51
177.00171913814549
  0
ARC
  5
418
  8
0
 10
53.008051458886541
 20
573.49214807617682
 30
0.0
 40
1.0
 50
0.0
 51
90.0
  0
ARC
  5
419
  8
0
 10
53.008051458886541
 20
569.89214807617657
 30
0.0
 40
1.0
 50
270.0
 51
0.0
  0
ARC
  5
41A
  8
0
 10
48.914291012675392
 20
548.89214807617657
 30
0.0
 40
20.0
 50
90.0
 51
98.667155279786243
  0
ARC
  5
41B
  8
0
 10
47.993568070415527
 20
554.49214807617648
 30
0.0
 40
20.0
 50
90.0
 51
92.865631433515134
  0
LINE
  5
41C
  8
0
 10
368.6905021464583
 20
584.9921480761767
 30
0.0
 11
377.49487886959918
 21
584.9921480761767
 31
0.0
  0
LINE
  5
41D
  8
0
 10
369.72885715124841
 20
577.44008351071443
 30
0.0
 11
377.49487886959918
 21
577.44008351071443
 31
0.0
  0
LINE
  5
41E
  8
0
 10
378.49487886959918
 20
583.99214807617659
 30
0.0
 11
378.49487886959918
 21
578.44008351071443
 31
0.0
  0
ARC
  5
41F
  8
0
 10
377.49487886959918
 20
583.99214807617659
 30
0.0
 40
1.0
 50
0.0
 51
90.0
  0
ARC
  5
420
  8
0
 10
377.49487886959918
 20
578.44008351071443
 30
0.0
 40
1.0
 50
270.0
 51
0.0
  0
ARC
  5
421
  8
0
 10
368.6905021464583
 20
564.9921480761767
 30
0.0
 40
20.0
 50
90.0
 51
92.273508003233601
  0
ARC
  5
422
  8
0
 10
369.72885715124829
 20
557.44008351071443
 30
0.0
 40
20.0
 50
90.0
 51
98.237135128052003
  0
LINE
  5
423
  8
0
 10
368.40022826441208
 20
578.4400835107142
 30
0.0
 11
368.40022826441208
 21
583.99214807617648
 31
0.0
  0
CIRCLE
  5
425
  8
0
 10
11.008051458886539
 20
504.63213398921391
 30
0.0
 40
5.0000000000002842
  0
ARC
  5
426
  8
0
 10
11.008051458886539
 20
504.63213398921391
 30
0.0
 40
7.5686020973692223
 50
44.900978198524982
 51
315.09902180147498
  0
ARC
  5
427
  8
0
 10
11.008051458886539
 20
504.63213398921391
 30
0.0
 40
8.5
 50
31.698867305698549
 51
328.30113269430137
  0
ARC
  5
428
  8
0
 10
54.008051458886541
 20
504.63213398921391
 30
0.0
 40
4.5
 50
235.08140033254489
 51
124.9185996674551
  0
LINE
  5
429
  8
0
 10
50.830460080556463
 20
508.14237760438851
 30
0.0
 11
18.406111263168722
 21
509.09362776291709
 31
0.0
  0
LINE
  5
42A
  8
0
 10
50.830460080556399
 20
501.1218903740392
 30
0.0
 11
18.40611126316875
 21
500.17064021551079
 31
0.0
  0
ARC
  5
42B
  8
0
 10
50.85978498888408
 20
509.14194753678521
 30
0.0
 40
1.0
 50
268.31956561118147
 51
304.918599667455
  0
ARC
  5
42C
  8
0
 10
50.85978498888403
 20
500.12232044164261
 30
0.0
 40
1.0
 50
55.081400332544924
 51
91.680434388820103
  0
ARC
  5
42D
  8
0
 10
18.494085988151589
 20
497.17193041832058
 30
0.0
 40
3.0
 50
91.680434388818469
 51
135.099021801475
  0
ARC
  5
42E
  8
0
 10
18.494085988151589
 20
512.09233756010713
 30
0.0
 40
3.0
 50
224.90097819852491
 51
268.31956561118147
  0
LINE
  5
42F
  8
0
  6
CENTER
 10
61.508051458886541
 20
504.63213398921391
 30
0.0
 11
-0.4919485411134588
 21
504.63213398921391
 31
0.0
  0
LINE
  5
430
  8
0
  6
CENTER
 10
11.008051458886539
 20
516.13213398921391
 30
0.0
 11
11.008051458886539
 21
493.1321339892138
 31
0.0
  0
LINE
  5
431
  8
0
 10
78.953481709685065
 20
541.46714807617673
 30
0.0
 11
78.953481709685065
 21
547.46714807617673
 31
0.0
  0
LINE
  5
432
  8
0
 10
78.184161882505748
 20
541.46714807617673
 30
0.0
 11
78.184161882505748
 21
547.46714807617673
 31
0.0
  0
LINE
  5
433
  8
0
 10
80.225564226659273
 20
541.46714807617673
 30
0.0
 11
80.225564226659273
 21
547.46714807617673
 31
0.0
  0
LINE
  5
434
  8
0
 10
79.639580500825943
 20
541.46714807617673
 30
0.0
 11
79.639580500825943
 21
547.46714807617673
 31
0.0
  0
LINE
  5
435
  8
0
 10
77.350564226659287
 20
541.46714807617673
 30
0.0
 11
77.350564226659287
 21
547.46714807617673
 31
0.0
  0
LINE
  5
436
  8
0
 10
76.473214682984633
 20
541.46714807617673
 30
0.0
 11
76.473214682984633
 21
547.46714807617673
 31
0.0
  0
LINE
  5
437
  8
0
 10
81.323716509003305
 20
547.46714807617673
 30
0.0
 11
81.323716509003305
 21
541.46714807617673
 31
0.0
  0
LINE
  5
438
  8
0
 10
81.252924467425373
 20
541.46714807617673
 30
0.0
 11
81.252924467425373
 21
547.46714807617673
 31
0.0
  0
LINE
  5
439
  8
0
 10
81.042291477700459
 20
541.46714807617673
 30
0.0
 11
81.042291477700459
 21
547.46714807617673
 31
0.0
  0
LINE
  5
43A
  8
0
 10
80.697004023086492
 20
541.46714807617673
 30
0.0
 11
80.697004023086492
 21
547.46714807617673
 31
0.0
  0
LINE
  5
43B
  8
0
 10
69.823716509003305
 20
541.46714807617673
 30
0.0
 11
81.323716509003305
 21
541.46714807617673
 31
0.0
  0
LINE
  5
43C
  8
0
 10
81.323716509003305
 20
547.46714807617673
 30
0.0
 11
83.073716509003305
 21
547.46714807617673
 31
0.0
  0
LINE
  5
43D
  8
0
 10
84.073716509003305
 20
548.46714807617673
 30
0.0
 11
67.073716509003305
 21
548.46714807617673
 31
0.0
  0
ARC
  5
43E
  8
0
 10
117.0737165090033
 20
554.94282954213259
 30
0.0
 40
50.0
 50
175.76360520094099
 51
180.0
  0
LINE
  5
43F
  8
0
 10
67.073716509003305
 20
548.46714807617673
 30
0.0
 11
67.073716509003305
 21
554.94282954213259
 31
0.0
  0
LINE
  5
440
  8
0
 10
68.073716509003305
 20
547.46714807617673
 30
0.0
 11
67.073716509003305
 21
548.46714807617673
 31
0.0
  0
LINE
  5
441
  8
0
 10
68.073716509003276
 20
547.46714807617673
 30
0.0
 11
81.323716509003305
 21
547.46714807617673
 31
0.0
  0
LINE
  5
443
  8
0
 10
68.005114411634054
 20
569.36601976169186
 30
0.0
 11
67.21032878616785
 21
558.63641381789796
 31
0.0
  0
LINE
  5
444
  8
0
 10
71.073716509003305
 20
570.29214807617677
 30
0.0
 11
71.073716509003305
 21
573.46713858437886
 31
0.0
  0
LINE
  5
445
  8
0
 10
82.145050851915798
 20
570.29214807617689
 30
0.0
 11
69.002382166090769
 21
570.29214807617655
 31
0.0
  0
ARC
  5
446
  8
0
 10
69.002382166090769
 20
569.29214807617655
 30
0.0
 40
1.0
 50
90.0
 51
175.76360520094099
  0
LINE
  5
448
  8
0
 10
80.073716509003305
 20
570.29214807617677
 30
0.0
 11
80.073716509003305
 21
573.46713858437886
 31
0.0
  0
LINE
  5
44A
  8
0
 10
84.073716509003305
 20
548.46714807617673
 30
0.0
 11
84.073716509003305
 21
554.94282954213259
 31
0.0
  0
LINE
  5
44B
  8
0
 10
83.073716509003305
 20
547.46714807617673
 30
0.0
 11
84.073716509003305
 21
548.46714807617673
 31
0.0
  0
ARC
  5
44C
  8
0
 10
34.073716509003297
 20
554.94282954213259
 30
0.0
 40
50.0
 50
0.0
 51
4.2363947990589601
  0
LINE
  5
44D
  8
0
 10
83.142318606372555
 20
569.36601976169186
 30
0.0
 11
83.937104231838745
 21
558.63641381789796
 31
0.0
  0
ARC
  5
44E
  8
0
 10
82.145050851915869
 20
569.29214807617655
 30
0.0
 40
1.0
 50
4.2363947990589601
 51
90.0
  0
LINE
  5
44F
  8
0
 10
70.450428994920117
 20
541.46714807617673
 30
0.0
 11
70.450428994920117
 21
547.46714807617673
 31
0.0
  0
LINE
  5
450
  8
0
 10
70.105141540306136
 20
541.46714807617673
 30
0.0
 11
70.105141540306136
 21
547.46714807617673
 31
0.0
  0
LINE
  5
451
  8
0
 10
69.894508550581236
 20
541.46714807617673
 30
0.0
 11
69.894508550581236
 21
547.46714807617673
 31
0.0
  0
LINE
  5
452
  8
0
 10
69.823716509003305
 20
547.46714807617673
 30
0.0
 11
69.823716509003305
 21
541.46714807617673
 31
0.0
  0
LINE
  5
453
  8
0
 10
74.674218335021976
 20
541.46714807617673
 30
0.0
 11
74.674218335021976
 21
547.46714807617673
 31
0.0
  0
LINE
  5
454
  8
0
 10
73.796868791347322
 20
541.46714807617673
 30
0.0
 11
73.796868791347322
 21
547.46714807617673
 31
0.0
  0
LINE
  5
455
  8
0
 10
71.507852517180652
 20
541.46714807617673
 30
0.0
 11
71.507852517180652
 21
547.46714807617673
 31
0.0
  0
LINE
  5
456
  8
0
 10
70.921868791347322
 20
541.46714807617673
 30
0.0
 11
70.921868791347322
 21
547.46714807617673
 31
0.0
  0
LINE
  5
457
  8
0
 10
72.963271135500861
 20
541.46714807617673
 30
0.0
 11
72.963271135500861
 21
547.46714807617673
 31
0.0
  0
LINE
  5
458
  8
0
 10
72.193951308321573
 20
541.46714807617673
 30
0.0
 11
72.193951308321573
 21
547.46714807617673
 31
0.0
  0
LINE
  5
459
  8
0
  6
CENTER
 10
75.573716509003333
 20
575.9921480761767
 30
0.0
 11
75.573716509003305
 21
538.46714807617673
 31
0.0
  0
LINE
  5
45A
  8
0
 10
72.073716509003305
 20
574.46713858437897
 30
0.0
 11
79.073716509003305
 21
574.46713858437897
 31
0.0
  0
ARC
  5
45B
  8
0
 10
72.073716509003305
 20
573.46713858437886
 30
0.0
 40
1.0
 50
90.0
 51
180.0
  0
ARC
  5
45C
  8
0
 10
79.073716509003305
 20
573.46713858437886
 30
0.0
 40
1.0
 50
0.0
 51
90.0
  0
LINE
  5
45D
  8
0
 10
71.692899121649518
 20
572.25804699417245
 30
0.0
 11
72.309937687637557
 21
574.21713858437874
 31
0.0
  0
LINE
  5
45E
  8
0
 10
79.454533896357106
 20
572.25804699417245
 30
0.0
 11
78.837495330369165
 21
574.21713858437874
 31
0.0
  0
LINE
  5
45F
  8
0
 10
145.70365186825941
 20
541.49214807617659
 30
0.0
 11
160.2036518682593
 21
541.49214807617659
 31
0.0
1001
ACAD
1000
ASC_BOUNDS
1002
{
1070
    19
1005
A36
1005
A36
1005
A20
1002
}
  0
LINE
  5
460
  8
0
 10
145.70365186825941
 20
541.49214807617659
 30
0.0
 11
145.70365186825941
 21
549.4921480761767
 31
0.0
1001
ACAD
1000
ASC_BOUNDS
1002
{
1070
    19
1005
A20
1002
}
  0
LINE
  5
461
  8
0
 10
160.2036518682593
 20
541.49214807617659
 30
0.0
 11
160.2036518682593
 21
549.49214807617659
 31
0.0
  0
LINE
  5
462
  8
0
 10
160.2036518682593
 20
547.69214807617664
 30
0.0
 11
152.9536518682593
 21
547.69214807617664
 31
0.0
  0
LINE
  5
463
  8
0
 10
154.08780173980099
 20
541.49214807617682
 30
0.0
 11
154.08780173980099
 21
547.69214807617664
 31
0.0
  0
LINE
  5
464
  8
0
 10
155.1940250774777
 20
541.49214807617659
 30
0.0
 11
155.1940250774777
 21
547.69214807617664
 31
0.0
  0
LINE
  5
465
  8
0
 10
156.24508299137111
 20
541.49214807617659
 30
0.0
 11
156.24508299137111
 21
547.69214807617664
 31
0.0
  0
LINE
  5
466
  8
0
 10
157.21509494737981
 20
541.49214807617682
 30
0.0
 11
157.21509494737981
 21
547.69214807617664
 31
0.0
  0
LINE
  5
467
  8
0
 10
158.08017603186181
 20
541.49214807617659
 30
0.0
 11
158.08017603186181
 21
547.69214807617664
 31
0.0
  0
LINE
  5
468
  8
0
 10
158.81902507747779
 20
541.49214807617682
 30
0.0
 11
158.81902507747779
 21
547.69214807617675
 31
0.0
  0
LINE
  5
469
  8
0
 10
159.41344916862511
 20
541.49214807617682
 30
0.0
 11
159.41344916862511
 21
547.69214807617664
 31
0.0
  0
LINE
  5
46A
  8
0
 10
159.84881161139921
 20
541.49214807617659
 30
0.0
 11
159.84881161139921
 21
547.69214807617675
 31
0.0
  0
LINE
  5
46B
  8
0
 10
160.11439233757409
 20
541.49214807617682
 30
0.0
 11
160.11439233757409
 21
547.69214807617664
 31
0.0
  0
LINE
  5
46C
  8
0
 10
145.70365186825941
 20
549.4921480761767
 30
0.0
 11
144.35365186825931
 21
549.4921480761767
 31
0.0
1001
ACAD
1000
ASC_BOUNDS
1002
{
1070
    19
1005
A20
1002
}
  0
LINE
  5
46D
  8
0
 10
144.35365186825931
 20
549.4921480761767
 30
0.0
 11
144.35365186825931
 21
552.4921480761767
 31
0.0
1001
ACAD
1000
ASC_BOUNDS
1002
{
1070
    19
1005
A20
1002
}
  0
LINE
  5
46E
  8
0
 10
144.35365186825931
 20
552.4921480761767
 30
0.0
 11
145.70365186825941
 21
552.4921480761767
 31
0.0
1001
ACAD
1000
ASC_BOUNDS
1002
{
1070
    19
1005
A20
1002
}
  0
LINE
  5
46F
  8
0
 10
145.70365186825941
 20
552.49214807617659
 30
0.0
 11
145.70365186825941
 21
562.39214807617657
 31
0.0
1001
ACAD
1000
ASC_BOUNDS
1002
{
1070
    19
1005
A20
1002
}
  0
LINE
  5
470
  8
0
 10
145.70365186825941
 20
562.39214807617657
 30
0.0
 11
147.2036518682593
 21
562.39214807617657
 31
0.0
1001
ACAD
1000
ASC_BOUNDS
1002
{
1070
    19
1005
A20
1002
}
  0
LINE
  5
471
  8
0
 10
147.2036518682593
 20
562.39214807617657
 30
0.0
 11
147.2036518682593
 21
565.49214807617682
 31
0.0
1001
ACAD
1000
ASC_BOUNDS
1002
{
1070
    19
1005
A20
1002
}
  0
LINE
  5
472
  8
0
 10
146.90365186825929
 20
562.69214807617664
 30
0.0
 11
146.90365186825929
 21
565.69214807617664
 31
0.0
1001
ACAD
1000
ASC_BOUNDS
1002
{
1070
    19
1005
576
1002
}
  0
LINE
  5
473
  8
0
 10
145.2036518682593
 20
562.69214807617675
 30
0.0
 11
147.2036518682593
 21
562.69214807617664
 31
0.0
1001
ACAD
1000
ASC_BOUNDS
1002
{
1070
    19
1005
576
1002
}
  0
LINE
  5
474
  8
0
 10
145.2036518682593
 20
552.79214807617655
 30
0.0
 11
145.2036518682593
 21
562.69214807617675
 31
0.0
1001
ACAD
1000
ASC_BOUNDS
1002
{
1070
    19
1005
576
1002
}
  0
LINE
  5
475
  8
0
 10
144.05365186825929
 20
552.79214807617677
 30
0.0
 11
145.70365186825941
 21
552.79214807617677
 31
0.0
1001
ACAD
1000
ASC_BOUNDS
1002
{
1070
    19
1005
576
1002
}
  0
LINE
  5
476
  8
0
 10
144.05365186825929
 20
549.4921480761767
 30
0.0
 11
144.05365186825929
 21
552.79214807617677
 31
0.0
1001
ACAD
1000
ASC_BOUNDS
1002
{
1070
    19
1005
576
1002
}
  0
LINE
  5
477
  8
0
 10
141.9536518682593
 20
550.49214807617648
 30
0.0
 11
141.9536518682593
 21
557.44551787709224
 31
0.0
1001
ACAD
1000
ASC_BOUNDS
1002
{
1070
    19
1005
576
1002
}
  0
LINE
  5
478
  8
0
 10
144.05365186825929
 20
549.4921480761767
 30
0.0
 11
142.9536518682593
 21
549.4921480761767
 31
0.0
1001
ACAD
1000
ASC_BOUNDS
1002
{
1070
    19
1005
576
1002
}
  0
LINE
  5
479
  8
0
 10
163.9536518682593
 20
550.49214807617648
 30
0.0
 11
163.9536518682593
 21
561.11831936736132
 31
0.0
  0
LINE
  5
47A
  8
0
 10
162.9536518682593
 20
549.49214807617659
 30
0.0
 11
152.9536518682593
 21
549.49214807617659
 31
0.0
  0
LINE
  5
47B
  8
0
 10
145.06199233105119
 20
576.99214807617648
 30
0.0
 11
146.9536518682593
 21
576.9921480761767
 31
0.0
1001
ACAD
1000
ASC_BOUNDS
1002
{
1070
    19
1005
576
1002
}
  0
ARC
  5
47C
  8
0
 10
145.06199233105119
 20
574.99214807617659
 30
0.0
 40
2.0
 50
90.0
 51
174.57339166943859
1001
ACAD
1000
ASC_BOUNDS
1002
{
1070
    19
1005
576
1002
}
  0
LINE
  5
47E
  8
0
 10
146.9536518682593
 20
574.7421480761767
 30
0.0
 11
146.9536518682593
 21
578.99214807617659
 31
0.0
  0
LINE
  5
482
  8
0
 10
158.9536518682593
 20
576.99214807617648
 30
0.0
 11
158.9536518682593
 21
578.99214807617659
 31
0.0
  0
LINE
  5
483
  8
0
 10
152.9536518682593
 20
576.99214807617648
 30
0.0
 11
160.16199097809459
 21
576.99214807617648
 31
0.0
  0
LINE
  5
485
  8
0
 10
150.4536518682593
 20
565.49214807617682
 30
0.0
 11
150.4536518682593
 21
574.7421480761767
 31
0.0
  0
LINE
  5
486
  8
0
 10
146.90365186825929
 20
565.69214807617675
 30
0.0
 11
150.4536518682593
 21
565.69214807617664
 31
0.0
1001
ACAD
1000
ASC_BOUNDS
1002
{
1070
    19
1005
576
1002
}
  0
LINE
  5
487
  8
0
 10
146.55365186825929
 20
568.19214807617664
 30
0.0
 11
150.4536518682593
 21
568.19214807617664
 31
0.0
1001
ACAD
1000
ASC_BOUNDS
1002
{
1070
    19
1005
576
1002
}
  0
LINE
  5
488
  8
0
 10
150.05365186825929
 20
565.69214807617664
 30
0.0
 11
150.05365186825929
 21
568.19214807617664
 31
0.0
1001
ACAD
1000
ASC_BOUNDS
1002
{
1070
    19
1005
576
1002
}
  0
LINE
  5
489
  8
0
 10
146.55365186825941
 20
568.19214807617664
 30
0.0
 11
146.55365186825941
 21
576.9921480761767
 31
0.0
1001
ACAD
1000
ASC_BOUNDS
1002
{
1070
    19
1005
576
1002
}
  0
LINE
  5
48A
  8
0
 10
147.9536518682593
 20
541.49214807617659
 30
0.0
 11
147.9536518682593
 21
559.4921480761767
 31
0.0
1001
ACAD
1000
ASC_BOUNDS
1002
{
1070
    19
1005
A36
1005
A20
1002
}
  0
LINE
  5
48B
  8
0
 10
149.9536518682593
 20
541.49214807617659
 30
0.0
 11
149.9536518682593
 21
555.4921480761767
 31
0.0
1001
ACAD
1000
ASC_BOUNDS
1002
{
1070
    19
1005
A36
1005
A36
1002
}
  0
LINE
  5
48C
  8
0
 10
149.9536518682593
 20
555.4921480761767
 30
0.0
 11
152.9536518682593
 21
555.4921480761767
 31
0.0
1001
ACAD
1000
ASC_BOUNDS
1002
{
1070
    19
1005
A36
1005
A36
1002
}
  0
LINE
  5
48D
  8
0
 10
150.4536518682593
 20
541.49214807617682
 30
0.0
 11
150.4536518682593
 21
555.9921480761767
 31
0.0
1001
ACAD
1000
ASC_BOUNDS
1002
{
1070
    19
1005
A36
1005
A36
1002
}
  0
LINE
  5
48E
  8
0
 10
150.4536518682593
 20
555.9921480761767
 30
0.0
 11
152.9536518682593
 21
557.43552374915066
 31
0.0
1001
ACAD
1000
ASC_BOUNDS
1002
{
1070
    19
1005
A36
1002
}
  0
LINE
  5
48F
  8
0
 10
150.4536518682593
 20
555.9921480761767
 30
0.0
 11
152.9536518682593
 21
555.99214807617648
 31
0.0
  0
LINE
  5
491
  8
0
 10
306.89487886959921
 20
562.19214807617675
 30
0.0
 11
306.29487886959919
 21
562.19214807617675
 31
0.0
1001
ACAD
1000
ASC_BOUNDS
1002
{
1070
    19
1005
582
1002
}
  0
LINE
  5
492
  8
0
 10
306.89487886959921
 20
562.19214807617675
 30
0.0
 11
306.89487886959938
 21
565.69214807617675
 31
0.0
1001
ACAD
1000
ASC_BOUNDS
1002
{
1070
    19
1005
582
1002
}
  0
LINE
  5
493
  8
0
 10
195.9536518682593
 20
582.4921480761767
 30
0.0
 11
203.4536518682593
 21
582.4921480761767
 31
0.0
  0
LINE
  5
494
  8
0
 10
204.95365186825941
 20
576.9921480761767
 30
0.0
 11
204.95365186825941
 21
580.9921480761767
 31
0.0
  0
LINE
  5
495
  8
0
 10
195.9536518682593
 20
576.9921480761767
 30
0.0
 11
195.9536518682593
 21
580.9921480761767
 31
0.0
  0
ARC
  5
496
  8
0
 10
195.3069245397939
 20
472.49404925732159
 30
0.0
 40
110.0
 50
89.663136728213829
 51
107.79475346968169
  0
ARC
  5
497
  8
0
 10
203.4536518682593
 20
580.9921480761767
 30
0.0
 40
1.5
 50
0.0
 51
90.0
  0
ARC
  5
498
  8
0
 10
160.16199097809459
 20
581.99214807617659
 30
0.0
 40
5.0
 50
270.0
 51
287.79475346968172
  0
ARC
  5
499
  8
0
 10
197.52395179531709
 20
515.51270027829275
 30
0.0
 40
60.0
 50
91.499697210857747
 51
118.05660268516409
  0
LINE
  5
49A
  8
0
 10
195.9536518682593
 20
575.49214807617659
 30
0.0
 11
203.4536518682593
 21
575.49214807617659
 31
0.0
  0
ARC
  5
49B
  8
0
 10
203.4536518682593
 20
576.9921480761767
 30
0.0
 40
1.5
 50
270.0
 51
0.0
  0
ARC
  5
49C
  8
0
 10
173.99577643962871
 20
559.53818158669105
 30
0.0
 40
10.08207439298346
 50
117.7376742148641
 51
142.2683173087369
  0
ARC
  5
49D
  8
0
 10
175.62251118120099
 20
554.8577316301496
 30
0.0
 40
15.0
 50
114.91532205862021
 51
172.23777969560589
  0
LINE
  5
49E
  8
0
  6
CENTER
 10
152.9536518682593
 20
582.99214807617659
 30
0.0
 11
152.9536518682593
 21
538.4921480761767
 31
0.0
1001
ACAD
1000
ASC_BOUNDS
1002
{
1070
    19
1005
A36
1002
}
  0
LINE
  5
49F
  8
0
  6
CENTER
 10
152.9536518682593
 20
518.6321339892138
 30
0.0
 11
152.9536518682593
 21
490.63213398921391
 31
0.0
  0
LINE
  5
4A0
  8
0
  6
CENTER
 10
207.9536518682593
 20
504.63213398921391
 30
0.0
 11
138.9536518682593
 21
504.63213398921391
 31
0.0
  0
ARC
  5
4A2
  8
0
 10
152.9536518682593
 20
504.63213398921391
 30
0.0
 40
9.8862747877888175
 50
45.887267029928388
 51
314.11273297007159
  0
ARC
  5
4A3
  8
0
 10
152.9536518682593
 20
504.63213398921391
 30
0.0
 40
11.0
 50
34.603223749821538
 51
325.3967762501797
  0
CIRCLE
  5
4A4
  8
0
 10
152.9536518682593
 20
504.63213398921391
 30
0.0
 40
6.3999999999999906
  0
ARC
  5
4A5
  8
0
 10
198.9536518682593
 20
504.63213398921391
 30
0.0
 40
6.0
 50
241.35137037267791
 51
118.64862962732199
  0
LINE
  5
4A6
  8
0
 10
195.0440585777979
 20
509.65411806820339
 30
0.0
 11
161.8122842189043
 21
510.88617331622601
 31
0.0
  0
LINE
  5
4A7
  8
0
 10
195.0440585777979
 20
499.61014991022438
 30
0.0
 11
161.8122842189043
 21
498.3780946622017
 31
0.0
  0
ARC
  5
4A8
  8
0
 10
161.9234317032342
 20
513.88411364864214
 30
0.0
 40
3.0
 50
225.8872670299283
 51
267.87675348344129
  0
ARC
  5
4A9
  8
0
 10
161.9234317032342
 20
495.38015432978563
 30
0.0
 40
3.0
 50
92.123246516558623
 51
134.11273297007159
  0
ARC
  5
4AA
  8
0
 10
195.11815690068451
 20
511.65274495648077
 30
0.0
 40
2.0
 50
267.87675348344129
 51
298.64862962732201
  0
ARC
  5
4AB
  8
0
 10
195.11815690068451
 20
497.61152302194699
 30
0.0
 40
2.0
 50
61.35137037267797
 51
92.123246516558623
  0
ARC
  5
4AC
  8
0
 10
339.18996891699362
 20
551.78940839167535
 30
0.0
 40
17.179589801427252
 50
115.3134614646295
 51
171.2363153756805
  0
LINE
  5
4AD
  8
0
 10
47.008051458886527
 20
573.49214807617682
 30
0.0
 11
47.008051458886527
 21
569.89214807617657
 31
0.0
  0
LINE
  5
4AE
  8
0
 10
225.65145249540589
 20
576.99214807617682
 30
0.0
 11
225.65145249540589
 21
581.49214807617659
 31
0.0
  0
LINE
  5
4AF
  8
0
  6
CENTER
 10
231.65145249540589
 20
582.99214807617659
 30
0.0
 11
231.65145249540589
 21
538.4921480761767
 31
0.0
  0
LINE
  5
4B0
  8
0
 10
220.78607123088909
 20
561.82296287874806
 30
0.0
 11
221.76517770761711
 21
575.13881096224873
 31
0.0
  0
LINE
  5
4B1
  8
0
 10
241.65145249540589
 20
549.49214807617659
 30
0.0
 11
224.40145249540589
 21
549.4921480761767
 31
0.0
  0
LINE
  5
4B2
  8
0
 10
233.8918257046243
 20
541.49214807617659
 30
0.0
 11
233.8918257046243
 21
547.69214807617664
 31
0.0
  0
LINE
  5
4B3
  8
0
 10
234.94288361851761
 20
541.49214807617659
 30
0.0
 11
234.94288361851761
 21
547.69214807617664
 31
0.0
  0
LINE
  5
4B4
  8
0
 10
235.91289557452629
 20
541.49214807617682
 30
0.0
 11
235.91289557452629
 21
547.69214807617664
 31
0.0
  0
LINE
  5
4B5
  8
0
 10
232.7856023669475
 20
541.49214807617682
 30
0.0
 11
232.7856023669475
 21
547.69214807617664
 31
0.0
  0
LINE
  5
4B6
  8
0
 10
238.90145249540589
 20
541.49214807617659
 30
0.0
 11
238.90145249540589
 21
549.49214807617659
 31
0.0
  0
LINE
  5
4B7
  8
0
 10
236.77797665900829
 20
541.49214807617659
 30
0.0
 11
236.77797665900829
 21
547.69214807617664
 31
0.0
  0
LINE
  5
4B8
  8
0
 10
237.5168257046243
 20
541.49214807617682
 30
0.0
 11
237.5168257046243
 21
547.69214807617675
 31
0.0
  0
LINE
  5
4B9
  8
0
 10
238.11124979577161
 20
541.49214807617682
 30
0.0
 11
238.11124979577161
 21
547.69214807617664
 31
0.0
  0
LINE
  5
4BA
  8
0
 10
238.54661223854569
 20
541.49214807617659
 30
0.0
 11
238.54661223854569
 21
547.69214807617675
 31
0.0
  0
LINE
  5
4BB
  8
0
 10
238.81219296472059
 20
541.49214807617682
 30
0.0
 11
238.81219296472059
 21
547.69214807617664
 31
0.0
  0
LINE
  5
4BC
  8
0
 10
224.40145249540589
 20
541.49214807617659
 30
0.0
 11
224.40145249540589
 21
549.4921480761767
 31
0.0
  0
LINE
  5
4BD
  8
0
 10
224.40145249540589
 20
541.49214807617659
 30
0.0
 11
238.90145249540589
 21
541.49214807617659
 31
0.0
  0
ARC
  5
4BE
  8
0
 10
270.65145249540592
 20
558.15639072694535
 30
0.0
 40
50.0
 50
175.79464299829061
 51
180.0
  0
LINE
  5
4BF
  8
0
 10
220.65145249540589
 20
550.49214807617648
 30
0.0
 11
220.65145249540589
 21
558.15639072694535
 31
0.0
  0
LINE
  5
4C0
  8
0
 10
224.40145249540589
 20
549.4921480761767
 30
0.0
 11
221.65145249540589
 21
549.49214807617659
 31
0.0
  0
LINE
  5
4C1
  8
0
 10
220.65145249540589
 20
550.49214807617648
 30
0.0
 11
221.65145249540589
 21
549.49214807617659
 31
0.0
  0
LINE
  5
4C2
  8
0
 10
238.90145249540589
 20
547.69214807617664
 30
0.0
 11
224.40145249540589
 21
547.69214807617664
 31
0.0
  0
LINE
  5
4C3
  8
0
 10
242.65145249540589
 20
550.49214807617648
 30
0.0
 11
241.65145249540589
 21
549.49214807617659
 31
0.0
  0
ARC
  5
4C5
  8
0
 10
223.75979295819769
 20
574.99214807617659
 30
0.0
 40
2.0
 50
90.0
 51
175.79464299829061
  0
LINE
  5
4C6
  8
0
 10
223.75979295819769
 20
576.99214807617648
 30
0.0
 11
239.543112032614
 21
576.99214807617705
 31
0.0
  0
LINE
  5
4C8
  8
0
 10
237.65145249540589
 20
576.99214807617648
 30
0.0
 11
237.65145249540589
 21
581.49214807617659
 31
0.0
  0
LINE
  5
4CA
  8
0
 10
224.4907120260911
 20
541.49214807617682
 30
0.0
 11
224.4907120260911
 21
547.69214807617664
 31
0.0
  0
LINE
  5
4CB
  8
0
 10
224.75629275226601
 20
541.49214807617659
 30
0.0
 11
224.75629275226601
 21
547.69214807617675
 31
0.0
  0
LINE
  5
4CC
  8
0
 10
225.19165519504011
 20
541.49214807617682
 30
0.0
 11
225.19165519504011
 21
547.69214807617664
 31
0.0
  0
LINE
  5
4CD
  8
0
 10
225.7860792861874
 20
541.49214807617682
 30
0.0
 11
225.7860792861874
 21
547.69214807617675
 31
0.0
  0
LINE
  5
4CE
  8
0
 10
226.52492833180341
 20
541.49214807617659
 30
0.0
 11
226.52492833180341
 21
547.69214807617664
 31
0.0
  0
LINE
  5
4CF
  8
0
 10
230.5173026238642
 20
541.49214807617682
 30
0.0
 11
230.5173026238642
 21
547.69214807617664
 31
0.0
  0
LINE
  5
4D0
  8
0
 10
227.39000941628541
 20
541.49214807617682
 30
0.0
 11
227.39000941628541
 21
547.69214807617664
 31
0.0
  0
LINE
  5
4D1
  8
0
 10
228.36002137229411
 20
541.49214807617659
 30
0.0
 11
228.36002137229411
 21
547.69214807617664
 31
0.0
  0
LINE
  5
4D2
  8
0
 10
229.41107928618749
 20
541.49214807617659
 30
0.0
 11
229.41107928618749
 21
547.69214807617664
 31
0.0
  0
LINE
  5
4D3
  8
0
 10
220.65145249540589
 20
550.49214807617648
 30
0.0
 11
242.65145249540589
 21
550.49214807617648
 31
0.0
  0
LINE
  5
4D4
  8
0
 10
242.51683375992269
 20
561.82296287874806
 30
0.0
 11
241.5377272831947
 21
575.13881096224873
 31
0.0
  0
ARC
  5
4D5
  8
0
 10
192.65145249540589
 20
558.15639072694535
 30
0.0
 40
50.0
 50
0.0
 51
4.2053570017093271
  0
LINE
  5
4D6
  8
0
 10
242.65145249540589
 20
550.49214807617648
 30
0.0
 11
242.65145249540589
 21
558.15639072694535
 31
0.0
  0
ARC
  5
4D7
  8
0
 10
239.543112032614
 20
574.99214807617659
 30
0.0
 40
2.0
 50
4.2053570017093271
 51
90.0
  0
LINE
  5
4D8
  8
0
 10
226.65145249540589
 20
582.49214807617659
 30
0.0
 11
236.65145249540589
 21
582.49214807617659
 31
0.0
  0
ARC
  5
4D9
  8
0
 10
236.65145249540589
 20
581.49214807617659
 30
0.0
 40
1.0
 50
0.0
 51
90.0
  0
ARC
  5
4DA
  8
0
 10
226.65145249540589
 20
581.49214807617659
 30
0.0
 40
1.0
 50
90.0
 51
180.0
  0
LINE
  5
4DB
  8
0
 10
226.65145249540589
 20
581.99214807617659
 30
0.0
 11
226.07965348629079
 21
579.13315303060108
 31
0.0
  0
LINE
  5
4DC
  8
0
 10
236.65145249540589
 20
581.99214807617659
 30
0.0
 11
237.22325150452099
 21
579.13315303060108
 31
0.0
  0
LINE
  5
4DD
  8
0
 10
483.76879416805042
 20
541.49214807617682
 30
0.0
 11
502.76879416805042
 21
541.49214807617682
 31
0.0
1001
ACAD
1000
ASC_BOUNDS
1002
{
1070
    19
1005
1161
1005
1153
1005
1153
1002
}
  0
LINE
  5
4DE
  8
0
 10
483.76879416805042
 20
541.49214807617682
 30
0.0
 11
483.76879416805042
 21
550.99214807617682
 31
0.0
1001
ACAD
1000
ASC_BOUNDS
1002
{
1070
    19
1005
1161
1002
}
  0
LINE
  5
4DF
  8
0
 10
502.76879416805042
 20
541.49214807617682
 30
0.0
 11
502.76879416805042
 21
550.99214807617682
 31
0.0
  0
LINE
  5
4E0
  8
0
 10
480.76879416805042
 20
550.99214807617682
 30
0.0
 11
483.76879416805042
 21
550.99214807617682
 31
0.0
1001
ACAD
1000
ASC_BOUNDS
1002
{
1070
    19
1005
1161
1005
581
1002
}
  0
LINE
  5
4E1
  8
0
 10
482.76879416805048
 20
554.99214807617682
 30
0.0
 11
483.76879416805059
 21
554.99214807617682
 31
0.0
1001
ACAD
1000
ASC_BOUNDS
1002
{
1070
    19
1005
1161
1002
}
  0
LINE
  5
4E2
  8
0
 10
482.76879416805048
 20
552.49214807617682
 30
0.0
 11
482.76879416805048
 21
554.99214807617682
 31
0.0
1001
ACAD
1000
ASC_BOUNDS
1002
{
1070
    19
1005
1161
1002
}
  0
LINE
  5
4E3
  8
0
 10
482.76879416805048
 20
552.49214807617682
 30
0.0
 11
482.76879416805048
 21
550.99214807617682
 31
0.0
1001
ACAD
1000
ASC_BOUNDS
1002
{
1070
    19
1005
1161
1002
}
  0
LINE
  5
4E4
  8
0
 10
483.76879416805048
 20
566.99214807617682
 30
0.0
 11
485.01879416805048
 21
566.99214807617682
 31
0.0
1001
ACAD
1000
ASC_BOUNDS
1002
{
1070
    19
1005
1161
1002
}
  0
LINE
  5
4E5
  8
0
 10
483.76879416805048
 20
566.99214807617682
 30
0.0
 11
483.76879416805059
 21
554.99214807617682
 31
0.0
1001
ACAD
1000
ASC_BOUNDS
1002
{
1070
    19
1005
1161
1002
}
  0
LINE
  5
4E6
  8
0
 10
485.01879416805048
 20
570.4921480761767
 30
0.0
 11
485.01879416805048
 21
566.99214807617682
 31
0.0
1001
ACAD
1000
ASC_BOUNDS
1002
{
1070
    19
1005
1161
1002
}
  0
LINE
  5
4E7
  8
0
 10
485.01879416805048
 20
570.4921480761767
 30
0.0
 11
493.26879416805042
 21
570.4921480761767
 31
0.0
1001
ACAD
1000
ASC_BOUNDS
1002
{
1070
    19
1005
1161
1005
1153
1002
}
  0
LINE
  5
4E8
  8
0
 10
489.6187941680505
 20
570.49214807617693
 30
0.0
 11
489.6187941680505
 21
582.39214807617691
 31
0.0
  0
LINE
  5
4E9
  8
0
 10
162.9536518682593
 20
549.49214807617659
 30
0.0
 11
163.9536518682593
 21
550.49214807617648
 31
0.0
  0
LINE
  5
4EA
  8
0
 10
142.9536518682593
 20
549.4921480761767
 30
0.0
 11
141.9536518682593
 21
550.49214807617648
 31
0.0
1001
ACAD
1000
ASC_BOUNDS
1002
{
1070
    19
1005
576
1002
}
  0
LINE
  5
4EB
  8
0
 10
163.9536518682593
 20
550.49214807617648
 30
0.0
 11
152.9536518682593
 21
550.49214807617648
 31
0.0
  0
ARC
  5
4EC
  8
0
 10
171.97256237076149
 20
560.26552176308769
 30
0.0
 40
8.0641297981241955
 50
137.553134333667
 51
173.9295075709978
  0
LINE
  5
4ED
  8
0
 10
142.0208795722495
 20
558.86407755349683
 30
0.0
 11
143.07095602491651
 21
575.1812893663639
 31
0.0
1001
ACAD
1000
ASC_BOUNDS
1002
{
1070
    19
1005
576
1002
}
  0
ARC
  5
4EE
  8
0
 10
156.9536518682593
 20
557.44551787709224
 30
0.0
 40
15.0
 50
174.57339166943859
 51
180.0
1001
ACAD
1000
ASC_BOUNDS
1002
{
1070
    19
1005
576
1002
}
  0
LINE
  5
4EF
  8
0
 10
479.76879416805042
 20
551.99214807617682
 30
0.0
 11
479.76879416805042
 21
566.83875011703151
 31
0.0
1001
ACAD
1000
ASC_BOUNDS
1002
{
1070
    19
1005
581
1002
}
  0
LINE
  5
4F0
  8
0
 10
482.87230912340738
 20
585.89214807617668
 30
0.0
 11
485.76879416805042
 21
585.89214807617668
 31
0.0
1001
ACAD
1000
ASC_BOUNDS
1002
{
1070
    19
1005
581
1002
}
  0
LINE
  5
4F1
  8
0
 10
479.97906221244313
 20
570.93475193599124
 30
0.0
 11
481.38019417507212
 21
584.54574814438774
 31
0.0
1001
ACAD
1000
ASC_BOUNDS
1002
{
1070
    19
1005
581
1002
}
  0
ARC
  5
4F2
  8
0
 10
519.76879416805048
 20
566.83875011703151
 30
0.0
 40
40.0
 50
174.12260739335699
 51
180.0
1001
ACAD
1000
ASC_BOUNDS
1002
{
1070
    19
1005
581
1002
}
  0
LINE
  5
4F3
  8
0
 10
483.26879416805048
 20
555.19214807617675
 30
0.0
 11
483.26879416805048
 21
567.19214807617675
 31
0.0
1001
ACAD
1000
ASC_BOUNDS
1002
{
1070
    19
1005
581
1002
}
  0
LINE
  5
4F4
  8
0
 10
482.56879416805049
 20
555.19214807617675
 30
0.0
 11
483.76879416805059
 21
555.19214807617675
 31
0.0
1001
ACAD
1000
ASC_BOUNDS
1002
{
1070
    19
1005
581
1002
}
  0
LINE
  5
4F5
  8
0
 10
482.56879416805049
 20
550.99214807617682
 30
0.0
 11
482.56879416805049
 21
555.19214807617686
 31
0.0
1001
ACAD
1000
ASC_BOUNDS
1002
{
1070
    19
1005
581
1002
}
  0
LINE
  5
4F6
  8
0
 10
483.26879416805048
 20
567.19214807617675
 30
0.0
 11
485.01879416805048
 21
567.19214807617675
 31
0.0
1001
ACAD
1000
ASC_BOUNDS
1002
{
1070
    19
1005
581
1002
}
  0
LINE
  5
4F7
  8
0
 10
484.81879416805049
 20
570.69214807617675
 30
0.0
 11
484.81879416805049
 21
567.19214807617675
 31
0.0
1001
ACAD
1000
ASC_BOUNDS
1002
{
1070
    19
1005
581
1002
}
  0
LINE
  5
4F8
  8
0
 10
484.81879416805049
 20
570.69214807617675
 30
0.0
 11
489.61879416805039
 21
570.69214807617675
 31
0.0
1001
ACAD
1000
ASC_BOUNDS
1002
{
1070
    19
1005
581
1002
}
  0
LINE
  5
4F9
  8
0
 10
489.26879416805042
 20
570.69214807617675
 30
0.0
 11
489.26879416805042
 21
573.19214807617675
 31
0.0
1001
ACAD
1000
ASC_BOUNDS
1002
{
1070
    19
1005
581
1002
}
  0
LINE
  5
4FA
  8
0
 10
485.41879416805028
 20
573.19214807617675
 30
0.0
 11
485.4187941680504
 21
585.89214807617668
 31
0.0
1001
ACAD
1000
ASC_BOUNDS
1002
{
1070
    19
1005
581
1002
}
  0
LINE
  5
4FB
  8
0
 10
489.6187941680505
 20
573.19214807617675
 30
0.0
 11
485.4187941680504
 21
573.19214807617675
 31
0.0
1001
ACAD
1000
ASC_BOUNDS
1002
{
1070
    19
1005
581
1002
}
  0
ARC
  5
4FC
  8
0
 10
482.87230912340738
 20
584.3921480761768
 30
0.0
 40
1.5
 50
90.0
 51
174.12260739335699
1001
ACAD
1000
ASC_BOUNDS
1002
{
1070
    19
1005
581
1002
}
  0
LINE
  5
4FD
  8
0
 10
485.76879416805042
 20
582.39214807617691
 30
0.0
 11
485.76879416805042
 21
588.99214807617682
 31
0.0
  0
LINE
  5
500
  8
0
 10
485.76879416805042
 20
582.39214807617691
 30
0.0
 11
493.26879416805048
 21
582.39214807617691
 31
0.0
  0
LINE
  5
502
  8
0
 10
500.76879416805042
 20
585.89214807617657
 30
0.0
 11
500.76879416805042
 21
588.99214807617682
 31
0.0
  0
LINE
  5
503
  8
0
 10
502.4312769181177
 20
585.89214807617668
 30
0.0
 11
493.26879416805042
 21
585.89214807617657
 31
0.0
  0
LINE
  5
504
  8
0
 10
506.76879416805042
 20
551.99214807617682
 30
0.0
 11
506.76879416805042
 21
562.36741986233494
 31
0.0
  0
LINE
  5
505
  8
0
 10
505.76879416805042
 20
550.99214807617682
 30
0.0
 11
493.26879416805042
 21
550.99214807617682
 31
0.0
  0
LINE
  5
506
  8
0
 10
488.26879416805042
 20
541.49214807617682
 30
0.0
 11
488.26879416805042
 21
555.49214807617682
 31
0.0
1001
ACAD
1000
ASC_BOUNDS
1002
{
1070
    19
1005
1153
1005
1153
1002
}
  0
LINE
  5
507
  8
0
 10
488.26879416805042
 20
555.49214807617682
 30
0.0
 11
493.26879416805048
 21
555.49214807617682
 31
0.0
1001
ACAD
1000
ASC_BOUNDS
1002
{
1070
    19
1005
1153
1005
1153
1002
}
  0
LINE
  5
508
  8
0
 10
489.01879416805048
 20
556.49214807617682
 30
0.0
 11
493.26879416805048
 21
558.94588672023281
 31
0.0
1001
ACAD
1000
ASC_BOUNDS
1002
{
1070
    19
1005
1153
1002
}
  0
LINE
  5
509
  8
0
 10
489.01879416805048
 20
556.49214807617682
 30
0.0
 11
489.01879416805042
 21
541.49214807617682
 31
0.0
1001
ACAD
1000
ASC_BOUNDS
1002
{
1070
    19
1005
1153
1005
1153
1002
}
  0
LINE
  5
50A
  8
0
 10
489.01879416805048
 20
556.49214807617682
 30
0.0
 11
493.26879416805042
 21
556.49214807617682
 31
0.0
  0
LINE
  5
50C
  8
0
 10
487.26879416805008
 20
564.48232106185014
 30
0.0
 11
487.26879416805048
 21
541.49214807617682
 31
0.0
1001
ACAD
1000
ASC_BOUNDS
1002
{
1070
    19
1005
1161
1005
1153
1002
}
  0
CIRCLE
  5
50D
  8
0
 10
8.1330514588865412
 20
560.49214807617636
 30
0.0
 40
0.3
  0
CIRCLE
  5
50E
  8
0
 10
8.1330514588865412
 20
561.70314533643739
 30
0.0
 40
0.3
  0
CIRCLE
  5
50F
  8
0
 10
8.1330514588865412
 20
563.40610908491726
 30
0.0
 40
0.3
  0
CIRCLE
  5
510
  8
0
 10
8.1330514588865412
 20
564.92935737642517
 30
0.0
 40
0.3
  0
CIRCLE
  5
511
  8
0
 10
8.1330514588865412
 20
566.19214807617664
 30
0.0
 40
0.3
  0
CIRCLE
  5
513
  8
0
 10
149.85365186825931
 20
568.49214807617648
 30
0.0
 40
0.3
  0
CIRCLE
  5
514
  8
0
 10
149.85365186825931
 20
569.7695819052808
 30
0.0
 40
0.3
  0
CIRCLE
  5
515
  8
0
 10
149.85365186825931
 20
571.59693452477859
 30
0.0
 40
0.3
  0
CIRCLE
  5
516
  8
0
 10
149.85365186825931
 20
573.29214807617655
 30
0.0
 40
0.3
  0
CIRCLE
  5
518
  8
0
 10
488.85238030737457
 20
573.59214807617684
 30
0.0
 40
0.4
  0
CIRCLE
  5
519
  8
0
 10
488.85238030737457
 20
575.51512110345902
 30
0.0
 40
0.4
  0
CIRCLE
  5
51A
  8
0
 10
488.85238030737457
 20
578.03795553229702
 30
0.0
 40
0.4
  0
CIRCLE
  5
51B
  8
0
 10
488.85238030737457
 20
580.55372573581178
 30
0.0
 40
0.4
  0
LINE
  5
51D
  8
0
 10
560.26879416805036
 20
587.49214807617682
 30
0.0
 11
560.26879416805025
 21
593.99214807617682
 31
0.0
  0
LINE
  5
51E
  8
0
 10
560.26879416805036
 20
595.4921480761767
 30
0.0
 11
571.76879416805048
 21
595.4921480761767
 31
0.0
  0
LINE
  5
51F
  8
0
 10
573.26879416805059
 20
593.99214807617682
 30
0.0
 11
573.26879416805025
 21
587.49214807617682
 31
0.0
  0
LINE
  5
520
  8
0
 10
571.76879416805025
 20
585.99214807617682
 30
0.0
 11
560.26879416805036
 21
585.99214807617682
 31
0.0
  0
ARC
  5
521
  8
0
 10
571.76879416805048
 20
593.99214807617682
 30
0.0
 40
1.5
 50
0.0
 51
90.0
  0
ARC
  5
522
  8
0
 10
571.76879416805025
 20
587.49214807617682
 30
0.0
 40
1.5
 50
270.0
 51
0.0
  0
ARC
  5
523
  8
0
 10
562.85077909115944
 20
486.0254868642665
 30
0.0
 40
100.0
 50
91.479532811696103
 51
120.3585489277478
  0
ARC
  5
524
  8
0
 10
564.57598851468924
 20
395.53853326298992
 30
0.0
 40
200.0
 50
91.234015689580232
 51
107.646593485805
  0
ARC
  5
525
  8
0
 10
502.4312769181177
 20
590.8921480761768
 30
0.0
 40
5.0
 50
270.0
 51
287.646593485805
  0
ARC
  5
526
  8
0
 10
521.57504264291595
 20
560.98902383874383
 30
0.0
 40
15.0
 50
147.3759553507999
 51
163.9975055904174
  0
ARC
  5
527
  8
0
 10
517.36391152691226
 20
563.68464523720195
 30
0.0
 40
10.0
 50
120.3585489277478
 51
147.3759553507999
  0
ARC
  5
528
  8
0
 10
516.76879416805048
 20
562.36741986233505
 30
0.0
 40
10.0
 50
163.9975055904174
 51
180.0
  0
ARC
  5
529
  8
0
 10
521.48636945913756
 20
554.54293553584625
 30
0.0
 40
20.0
 50
117.31148802260481
 51
170.35979276221579
  0
LINE
  5
52A
  8
0
  6
CENTER
 10
493.26879416805042
 20
592.99214807617682
 30
0.0
 11
493.26879416805042
 21
538.49214807617682
 31
0.0
1001
ACAD
1000
ASC_BOUNDS
1002
{
1070
    19
1005
1153
1002
}
  0
LINE
  5
52B
  8
0
 10
494.45945988691119
 20
541.49214807617682
 30
0.0
 11
494.45945988691119
 21
550.99214807617682
 31
0.0
  0
LINE
  5
52C
  8
0
 10
495.63134809611648
 20
541.49214807617682
 30
0.0
 11
495.63134809611643
 21
550.99214807617682
 31
0.0
  0
LINE
  5
52D
  8
0
 10
496.76597741855471
 20
541.49214807617682
 30
0.0
 11
496.76597741855483
 21
550.99214807617682
 31
0.0
  0
LINE
  5
52E
  8
0
 10
497.84545407201671
 20
541.49214807617682
 30
0.0
 11
497.84545407201671
 21
550.99214807617682
 31
0.0
  0
LINE
  5
52F
  8
0
 10
498.85275406482879
 20
541.49214807617682
 30
0.0
 11
498.8527540648293
 21
550.99214807617682
 31
0.0
  0
LINE
  5
530
  8
0
 10
499.77199167437288
 20
541.49214807617682
 30
0.0
 11
499.77199167437288
 21
550.99214807617682
 31
0.0
  0
LINE
  5
531
  8
0
 10
500.58866997442021
 20
541.49214807617682
 30
0.0
 11
500.5886699744205
 21
550.99214807617682
 31
0.0
  0
LINE
  5
532
  8
0
 10
501.28990946031951
 20
541.49214807617682
 30
0.0
 11
501.28990946031951
 21
550.99214807617682
 31
0.0
  0
LINE
  5
533
  8
0
 10
501.86465116647747
 20
541.49214807617682
 30
0.0
 11
501.86465116647742
 21
550.99214807617682
 31
0.0
  0
LINE
  5
534
  8
0
 10
502.30383107285428
 20
541.49214807617682
 30
0.0
 11
502.30383107285428
 21
550.99214807617682
 31
0.0
  0
LINE
  5
535
  8
0
 10
502.60052304997288
 20
541.49214807617682
 30
0.0
 11
502.60052304997282
 21
550.99214807617682
 31
0.0
  0
LINE
  5
536
  8
0
  6
CENTER
 10
476.76882921639429
 20
504.63213398921391
 30
0.0
 11
584.26879416805048
 21
504.63213398921391
 31
0.0
  0
LINE
  5
537
  8
0
  6
CENTER
 10
493.26879416805042
 20
521.13209894087004
 30
0.0
 11
493.26879416805042
 21
488.13216903755767
 31
0.0
  0
CIRCLE
  5
538
  8
0
 10
493.26879416805042
 20
504.63213398921391
 30
0.0
 40
7.5
  0
CIRCLE
  5
539
  8
0
 10
493.26879416805042
 20
504.63213398921391
 30
0.0
 40
7.8500000000000218
  0
ARC
  5
53A
  8
0
 10
493.26879416805042
 20
504.63213398921391
 30
0.0
 40
11.888599992978291
 50
45.640793429554357
 51
314.35920657044562
  0
ARC
  5
53B
  8
0
 10
493.26879416805042
 20
504.63213398921391
 30
0.0
 40
13.49996495165618
 50
38.611878216796491
 51
321.38812178320342
  0
ARC
  5
53C
  8
0
 10
573.26879416805059
 20
504.63213398921391
 30
0.0
 40
8.0
 50
237.5490242753844
 51
122.4509757246155
  0
LINE
  5
53D
  8
0
 10
567.26528810045056
 20
510.91619927556548
 30
0.0
 11
501.58076203330609
 21
513.13213398921391
 31
0.0
  0
LINE
  5
53E
  8
0
 10
567.26528810045056
 20
498.34806870286229
 30
0.0
 11
501.58076203330609
 21
496.13213398921391
 31
0.0
  0
ARC
  5
53F
  8
0
 10
567.36643862657593
 20
513.91449355249426
 30
0.0
 40
3.0
 50
268.0678010390223
 51
302.45097572461549
  0
ARC
  5
540
  8
0
 10
567.36643862657593
 20
495.3497744259335
 30
0.0
 40
3.0
 50
57.549024275384468
 51
91.932198960977644
  0
LINE
  5
542
  8
0
 10
613.17495845144651
 20
541.49214807617682
 30
0.0
 11
632.1749584514464
 21
541.49214807617682
 31
0.0
  0
LINE
  5
543
  8
0
 10
609.38522649583911
 20
570.93475193599124
 30
0.0
 11
610.78635845846816
 21
584.54574814438774
 31
0.0
  0
LINE
  5
544
  8
0
 10
609.17495845144651
 20
551.99214807617682
 30
0.0
 11
609.17495845144651
 21
566.83875011703151
 31
0.0
  0
LINE
  5
545
  8
0
 10
610.17495845144651
 20
550.99214807617682
 30
0.0
 11
613.17495845144651
 21
550.99214807617682
 31
0.0
  0
ARC
  5
546
  8
0
 10
649.17495845144651
 20
566.83875011703151
 30
0.0
 40
40.0
 50
174.12260739335699
 51
180.0
  0
ARC
  5
547
  8
0
 10
612.27847340680341
 20
584.3921480761768
 30
0.0
 40
1.5
 50
90.0
 51
174.12260739335699
  0
LINE
  5
548
  8
0
 10
615.1749584514464
 20
585.89214807617668
 30
0.0
 11
615.1749584514464
 21
588.99214807617682
 31
0.0
  0
LINE
  5
549
  8
0
  6
CENTER
 10
622.67495845144651
 20
592.99214807617682
 30
0.0
 11
622.67495845144651
 21
538.49214807617682
 31
0.0
  0
LINE
  5
54A
  8
0
 10
632.00668733336886
 20
541.49214807617682
 30
0.0
 11
632.00668733336875
 21
550.99214807617682
 31
0.0
  0
LINE
  5
54B
  8
0
 10
631.70999535625037
 20
541.49214807617682
 30
0.0
 11
631.70999535625037
 21
550.99214807617682
 31
0.0
  0
LINE
  5
54C
  8
0
 10
631.27081544987368
 20
541.49214807617682
 30
0.0
 11
631.27081544987345
 21
550.99214807617682
 31
0.0
  0
LINE
  5
54D
  8
0
 10
630.69607374371549
 20
541.49214807617682
 30
0.0
 11
630.69607374371549
 21
550.99214807617682
 31
0.0
  0
LINE
  5
54E
  8
0
 10
629.99483425781625
 20
541.49214807617682
 30
0.0
 11
629.99483425781659
 21
550.99214807617682
 31
0.0
  0
LINE
  5
54F
  8
0
 10
629.17815595776892
 20
541.49214807617682
 30
0.0
 11
629.17815595776892
 21
550.99214807617682
 31
0.0
  0
LINE
  5
550
  8
0
 10
628.25891834822482
 20
541.49214807617682
 30
0.0
 11
628.25891834822539
 21
550.99214807617682
 31
0.0
  0
LINE
  5
551
  8
0
 10
627.25161835541269
 20
541.49214807617682
 30
0.0
 11
627.25161835541269
 21
550.99214807617682
 31
0.0
  0
LINE
  5
552
  8
0
 10
626.17214170195075
 20
541.49214807617682
 30
0.0
 11
626.17214170195098
 21
550.99214807617682
 31
0.0
  0
LINE
  5
553
  8
0
 10
625.03751237951258
 20
541.49214807617682
 30
0.0
 11
625.03751237951235
 21
550.99214807617682
 31
0.0
  0
LINE
  5
554
  8
0
 10
632.1749584514464
 20
541.49214807617682
 30
0.0
 11
632.1749584514464
 21
550.99214807617682
 31
0.0
  0
LINE
  5
555
  8
0
 10
623.86562417030734
 20
541.49214807617682
 30
0.0
 11
623.86562417030734
 21
550.99214807617682
 31
0.0
  0
LINE
  5
556
  8
0
 10
635.17495845144651
 20
550.9921480761767
 30
0.0
 11
613.1749584514464
 21
550.99214807617682
 31
0.0
  0
LINE
  5
557
  8
0
 10
633.07144349608961
 20
585.89214807617668
 30
0.0
 11
612.27847340680341
 21
585.89214807617657
 31
0.0
  0
LINE
  5
559
  8
0
 10
630.17495845144651
 20
585.89214807617657
 30
0.0
 11
630.17495845144651
 21
588.99214807617682
 31
0.0
  0
LINE
  5
55B
  8
0
 10
635.96469040705392
 20
570.93475193599124
 30
0.0
 11
634.56355844442487
 21
584.54574814438774
 31
0.0
  0
LINE
  5
55C
  8
0
 10
636.1749584514464
 20
551.9921480761767
 30
0.0
 11
636.1749584514464
 21
566.83875011703151
 31
0.0
  0
ARC
  5
55D
  8
0
 10
596.17495845144651
 20
566.83875011703151
 30
0.0
 40
40.0
 50
0.0
 51
5.8773926066429452
  0
ARC
  5
55E
  8
0
 10
633.07144349608961
 20
584.3921480761768
 30
0.0
 40
1.5
 50
5.8773926066429452
 51
90.0
  0
LINE
  5
55F
  8
0
 10
613.34322956952406
 20
541.49214807617682
 30
0.0
 11
613.34322956952406
 21
550.99214807617682
 31
0.0
  0
LINE
  5
560
  8
0
 10
613.63992154664265
 20
541.49214807617682
 30
0.0
 11
613.63992154664265
 21
550.99214807617682
 31
0.0
  0
LINE
  5
561
  8
0
 10
614.07910145301935
 20
541.49214807617682
 30
0.0
 11
614.07910145301946
 21
550.99214807617682
 31
0.0
  0
LINE
  5
562
  8
0
 10
614.65384315917754
 20
541.49214807617682
 30
0.0
 11
614.65384315917754
 21
550.99214807617682
 31
0.0
  0
LINE
  5
563
  8
0
 10
615.35508264507655
 20
541.49214807617682
 30
0.0
 11
615.35508264507644
 21
550.99214807617682
 31
0.0
  0
LINE
  5
564
  8
0
 10
616.17176094512399
 20
541.49214807617682
 30
0.0
 11
616.17176094512399
 21
550.99214807617682
 31
0.0
  0
LINE
  5
565
  8
0
 10
617.0909985546682
 20
541.49214807617682
 30
0.0
 11
617.09099855466764
 21
550.99214807617682
 31
0.0
  0
LINE
  5
566
  8
0
 10
613.17495845144663
 20
541.49214807617682
 30
0.0
 11
613.17495845144663
 21
550.99214807617682
 31
0.0
  0
LINE
  5
567
  8
0
 10
618.09829854748023
 20
541.49214807617682
 30
0.0
 11
618.09829854748023
 21
550.99214807617682
 31
0.0
  0
LINE
  5
568
  8
0
 10
619.17777520094205
 20
541.49214807617682
 30
0.0
 11
619.17777520094205
 21
550.99214807617682
 31
0.0
  0
LINE
  5
569
  8
0
 10
620.31240452338045
 20
541.49214807617682
 30
0.0
 11
620.31240452338045
 21
550.99214807617682
 31
0.0
  0
LINE
  5
56A
  8
0
 10
621.48429273258557
 20
541.49214807617682
 30
0.0
 11
621.48429273258557
 21
550.99214807617682
 31
0.0
  0
LINE
  5
56B
  8
0
 10
614.67495845144651
 20
593.99214807617693
 30
0.0
 11
614.67495845144663
 21
585.89214807617657
 31
0.0
  0
LINE
  5
56C
  8
0
 10
616.17495845144651
 20
595.49214807617693
 30
0.0
 11
629.17495845144651
 21
595.49214807617693
 31
0.0
  0
ARC
  5
56D
  8
0
 10
616.17495845144651
 20
593.99214807617693
 30
0.0
 40
1.5
 50
90.0
 51
180.0
  0
LINE
  5
56E
  8
0
 10
616.4249584514464
 20
594.99214807617693
 30
0.0
 11
615.27636854666241
 21
589.0194805712996
 31
0.0
  0
LINE
  5
56F
  8
0
 10
615.1749584514464
 20
588.49214807617682
 30
0.0
 11
614.67495845144651
 21
585.89214807617657
 31
0.0
  0
LINE
  5
570
  8
0
 10
628.92495845144663
 20
594.99214807617693
 30
0.0
 11
630.07354835623062
 21
589.0194805712996
 31
0.0
  0
LINE
  5
571
  8
0
 10
630.17495845144651
 20
588.49214807617682
 30
0.0
 11
630.67495845144651
 21
585.89214807617657
 31
0.0
  0
LINE
  5
572
  8
0
 10
630.17495845144663
 20
585.89214807617668
 30
0.0
 11
630.17495845144651
 21
588.99214807617682
 31
0.0
  0
ARC
  5
573
  8
0
 10
629.17495845144651
 20
593.99214807617693
 30
0.0
 40
1.5
 50
0.0
 51
90.0
  0
LINE
  5
574
  8
0
 10
630.67495845144651
 20
593.99214807617693
 30
0.0
 11
630.67495845144663
 21
585.89214807617668
 31
0.0
  0
INSERT
  5
575
  8
0
  6
CONTINUOUS
  2
*X0
 10
0.0
 20
0.0
 30
0.0
1001
ACAD
1000
HATCH
1002
{
1070
    19
1000
_USER
1040
1.5
1040
2.3561944901923439
1000
ASC_BOUNDS
1070
     1
1070
     1
1070
    14
1005
40E
1005
409
1005
40D
1005
40B
1005
40A
1005
40C
1005
408
1005
3FD
1005
402
1005
3FC
1005
400
1005
3FF
1005
401
1005
3FE
1000
ASC_SEEDPOINT
1011
4.1763280313251689
1021
0.0
1031
0.0
1021
565.32834891271057
1031
0.0
1000
R14_HATCH_DATA
1000
575
1011
1.0
1021
0.0
1031
0.0
1021
0.0
1031
0.0
1011
0.0
1021
0.0
1031
0.0
1021
1.0
1031
0.0
1011
0.0
1021
0.0
1031
0.0
1021
0.0
1031
1.0
1040
0.0
1010
0.0
1020
0.0
1030
1.0
1000
_USER
1070
     0
1070
     1
1071
        1
1071
        7
1070
     1
1070
     1
1071
       14
1040
2.6446637360510641
1040
558.63641381789785
1040
0.022803610040628
1040
2.5080514588865408
1040
555.64256242798865
1040
0.0
1040
2.5080514588865408
1040
548.49214807617682
1040
0.0
1040
3.5080514588865719
1040
547.4921480761767
1040
0.0
1040
4.7580514588865421
1040
547.4921480761767
1040
0.0
1040
4.7580514588865412
1040
556.14214807617657
1040
0.0
1040
6.0080514588865421
1040
556.14214807617657
1040
0.0
1040
6.0080514588865386
1040
558.94214807617664
1040
0.0
1040
8.1330514588865412
1040
558.94214807617664
1040
0.0
1040
8.1330514588865412
1040
560.19214807617641
1040
0.0
1040
6.0080514588865421
1040
560.19214807617652
1040
0.0
1040
6.0080514588862561
1040
570.29214807617677
1040
0.0
1040
4.4367171159739316
1040
570.29214807617655
1040
0.3927194441826968
1040
3.4394493615172901
1040
569.36601976169186
1040
0.0
1071
       14
1005
3FE
1005
401
1005
3FF
1005
400
1005
3FC
1005
402
1005
3FD
1005
408
1005
40C
1005
40A
1005
40B
1005
40D
1005
409
1005
40E
1070
     0
1070
     0
1040
2.3561944901923439
1040
1.5
1070
     1
1070
     2
1040
2.3561944901923439
1040
138.96367335068319
1040
169.477377970449
1040
-1.060660171779821
1040
-1.060660171779821
1070
     0
1040
3.926990816987241
1040
138.96367335068319
1040
169.477377970449
1040
1.060660171779821
1040
-1.060660171779821
1070
     0
1040
0.0530386348753856
1071
        1
1040
4.1763280313251689
1040
565.32834891271057
1040
0.0
1002
}
  0
INSERT
  5
576
  8
0
  6
CONTINUOUS
  2
*X1
 10
0.0
 20
0.0
 30
0.0
1001
ACAD
1000
HATCH
1002
{
1070
    19
1000
_USER
1040
1.5
1040
2.3561944901923439
1000
ASC_BOUNDS
1070
     1
1070
     1
1070
    16
1005
488
1005
486
1005
472
1005
473
1005
474
1005
475
1005
476
1005
478
1005
4EA
1005
477
1005
4EE
1005
4ED
1005
47C
1005
47B
1005
489
1005
487
1000
ASC_SEEDPOINT
1011
145.0003804875717
1021
0.0
1031
0.0
1021
565.92413504564126
1031
0.0
1000
R14_HATCH_DATA
1000
576
1011
1.0
1021
0.0
1031
0.0
1021
0.0
1031
0.0
1011
0.0
1021
0.0
1031
0.0
1021
1.0
1031
0.0
1011
0.0
1021
0.0
1031
0.0
1021
0.0
1031
1.0
1040
0.0
1010
0.0
1020
0.0
1030
1.0
1000
_USER
1070
     0
1070
     1
1071
        1
1071
        7
1070
     1
1070
     1
1071
       16
1040
150.05365186825929
1040
568.19214807617664
1040
0.0
1040
146.55365186825941
1040
568.19214807617664
1040
0.0
1040
146.55365186825941
1040
576.9921480761767
1040
0.0
1040
145.0619923310511
1040
576.99214807617648
1040
0.3867373516094132
1040
143.07095602491651
1040
575.1812893663639
1040
0.0
1040
142.0208795722495
1040
558.86407755349649
1040
0.0236824716695726
1040
141.9536518682593
1040
557.44551787709224
1040
0.0
1040
141.9536518682593
1040
550.49214807617648
1040
0.0
1040
142.9536518682593
1040
549.4921480761767
1040
0.0
1040
144.05365186825929
1040
549.4921480761767
1040
0.0
1040
144.05365186825929
1040
552.79214807617677
1040
0.0
1040
145.2036518682593
1040
552.79214807617677
1040
0.0
1040
145.20365186825941
1040
562.69214807617675
1040
0.0
1040
146.90365186825929
1040
562.69214807617664
1040
0.0
1040
146.90365186825929
1040
565.69214807617675
1040
0.0
1040
150.05365186825929
1040
565.69214807617664
1040
0.0
1071
       16
1005
487
1005
489
1005
47B
1005
47C
1005
4ED
1005
4EE
1005
477
1005
4EA
1005
478
1005
476
1005
475
1005
474
1005
473
1005
472
1005
486
1005
488
1070
     0
1070
     0
1040
2.3561944901923439
1040
1.5
1070
     1
1070
     2
1040
2.3561944901923439
1040
138.96367335068319
1040
169.477377970449
1040
-1.060660171779821
1040
-1.060660171779821
1070
     0
1040
3.926990816987241
1040
138.96367335068319
1040
169.477377970449
1040
1.060660171779821
1040
-1.060660171779821
1070
     0
1040
0.0707165409840762
1071
        1
1040
145.0003804875717
1040
565.92413504564126
1040
0.0
1002
}
  0
LINE
  5
579
  8
0
 10
506.76879416805042
 20
551.99214807617682
 30
0.0
 11
505.76879416805042
 21
550.99214807617682
 31
0.0
  0
LINE
  5
57A
  8
0
 10
479.76879416805042
 20
551.99214807617682
 30
0.0
 11
480.76879416805042
 21
550.99214807617682
 31
0.0
1001
ACAD
1000
ASC_BOUNDS
1002
{
1070
    19
1005
581
1002
}
  0
LINE
  5
57B
  8
0
 10
506.76879416805042
 20
551.99214807617682
 30
0.0
 11
493.26879416805042
 21
551.99214807617682
 31
0.0
  0
LINE
  5
57C
  8
0
 10
609.17495845144651
 20
551.99214807617682
 30
0.0
 11
610.17495845144651
 21
550.99214807617682
 31
0.0
  0
LINE
  5
57D
  8
0
 10
636.1749584514464
 20
551.9921480761767
 30
0.0
 11
635.17495845144651
 21
550.9921480761767
 31
0.0
  0
LINE
  5
57E
  8
0
 10
609.17495845144651
 20
551.99214807617682
 30
0.0
 11
636.1749584514464
 21
551.9921480761767
 31
0.0
  0
INSERT
  5
581
  8
0
  6
CONTINUOUS
  2
*X2
 10
0.0
 20
0.0
 30
0.0
1001
ACAD
1000
HATCH
1002
{
1070
    19
1000
_USER
1040
2.0
1040
2.3561944901923439
1000
ASC_BOUNDS
1070
     1
1070
     1
1070
    16
1005
4F9
1005
4F8
1005
4F7
1005
4F6
1005
4F3
1005
4F4
1005
4F5
1005
4E0
1005
57A
1005
4EF
1005
4F2
1005
4F1
1005
4FC
1005
4F0
1005
4FA
1005
4FB
1000
ASC_SEEDPOINT
1011
483.42060017946238
1021
0.0
1031
0.0
1021
570.7487597810549
1031
0.0
1000
R14_HATCH_DATA
1000
581
1011
1.0
1021
0.0
1031
0.0
1021
0.0
1031
0.0
1011
0.0
1021
0.0
1031
0.0
1021
1.0
1031
0.0
1011
0.0
1021
0.0
1031
0.0
1021
0.0
1031
1.0
1040
0.0
1010
0.0
1020
0.0
1030
1.0
1000
_USER
1070
     0
1070
     1
1071
        1
1071
        7
1070
     1
1070
     1
1071
       16
1040
489.26879416805042
1040
573.19214807617675
1040
0.0
1040
485.41879416805028
1040
573.19214807617675
1040
0.0
1040
485.41879416805051
1040
585.89214807617691
1040
0.0
1040
482.87230912340732
1040
585.89214807617668
1040
0.3844779663653147
1040
481.38019417507212
1040
584.54574814438774
1040
0.0
1040
479.97906221244313
1040
570.93475193599124
1040
0.0256505865080408
1040
479.76879416805042
1040
566.83875011703185
1040
0.0
1040
479.76879416805042
1040
551.99214807617682
1040
0.0
1040
480.76879416805042
1040
550.99214807617682
1040
0.0
1040
482.56879416805049
1040
550.99214807617682
1040
0.0
1040
482.5687941680506
1040
555.19214807617686
1040
0.0
1040
483.26879416805048
1040
555.19214807617686
1040
0.0
1040
483.26879416805048
1040
567.19214807617675
1040
0.0
1040
484.81879416805049
1040
567.19214807617675
1040
0.0
1040
484.81879416805049
1040
570.69214807617675
1040
0.0
1040
489.26879416805042
1040
570.69214807617675
1040
0.0
1071
       16
1005
4FB
1005
4FA
1005
4F0
1005
4FC
1005
4F1
1005
4F2
1005
4EF
1005
57A
1005
4E0
1005
4F5
1005
4F4
1005
4F3
1005
4F6
1005
4F7
1005
4F8
1005
4F9
1070
     0
1070
     0
1040
2.3561944901923439
1040
2.0
1070
     1
1070
     2
1040
2.3561944901923439
1040
138.96367335068319
1040
169.477377970449
1040
-1.4142135623730949
1040
-1.414213562373094
1070
     0
1040
3.926990816987241
1040
138.96367335068319
1040
169.477377970449
1040
1.414213562373094
1040
-1.4142135623730949
1070
     0
1040
0.1086710000507886
1071
        1
1040
483.42060017946238
1040
570.7487597810549
1040
0.0
1002
}
  0
INSERT
  5
582
  8
0
  6
CONTINUOUS
  2
*X3
 10
0.0
 20
0.0
 30
0.0
1001
ACAD
1000
HATCH
1002
{
1070
    19
1000
_USER
1040
1.5
1040
2.3561944901923439
1000
ASC_BOUNDS
1070
     1
1070
     1
1070
    15
1005
390
1005
38E
1005
492
1005
491
1005
38C
1005
38B
1005
38A
1005
383
1005
386
1005
385
1005
384
1005
387
1005
388
1005
391
1005
38F
1000
ASC_SEEDPOINT
1011
306.54724077816809
1021
0.0
1031
0.0
1021
566.92727348506969
1031
0.0
1000
R14_HATCH_DATA
1000
582
1011
1.0
1021
0.0
1031
0.0
1021
0.0
1031
0.0
1011
0.0
1021
0.0
1031
0.0
1021
1.0
1031
0.0
1011
0.0
1021
0.0
1031
0.0
1021
0.0
1031
1.0
1040
0.0
1010
0.0
1020
0.0
1030
1.0
1000
_USER
1070
     0
1070
     1
1071
        1
1071
        7
1070
     1
1070
     1
1071
       15
1040
311.29487886959919
1040
567.9921480761767
1040
0.0
1040
307.2948788695993
1040
567.9921480761767
1040
0.0
1040
307.2948788695993
1040
576.9921480761767
1040
0.0
1040
305.64105462753258
1040
576.99214807617682
1040
0.398692099941999
1040
303.64389301817693
1040
575.09866336200912
1040
0.0
1040
302.94487886959922
1040
561.99214807617625
1040
0.0
1040
302.49487886959918
1040
550.69142978670527
1040
0.0
1040
303.69487886959911
1040
549.49214807617693
1040
0.0
1040
304.8448788695992
1040
549.49214807617693
1040
0.0
1040
304.8448788695992
1040
552.79214807617689
1040
0.0
1040
306.29487886959919
1040
552.79214807617677
1040
0.0
1040
306.29487886959919
1040
562.19214807617675
1040
0.0
1040
306.89487886959921
1040
562.19214807617675
1040
0.0
1040
306.89487886959938
1040
565.69214807617675
1040
0.0
1040
311.29487886959919
1040
565.69214807617675
1040
0.0
1071
       15
1005
38F
1005
391
1005
388
1005
387
1005
384
1005
385
1005
386
1005
383
1005
38A
1005
38B
1005
38C
1005
491
1005
492
1005
38E
1005
390
1070
     0
1070
     0
1040
2.3561944901923439
1040
1.5
1070
     1
1070
     2
1040
2.3561944901923439
1040
138.96367335068319
1040
169.477377970449
1040
-1.060660171779821
1040
-1.060660171779821
1070
     0
1040
3.926990816987241
1040
138.96367335068319
1040
169.477377970449
1040
1.060660171779821
1040
-1.060660171779821
1070
     0
1040
0.0993372950902932
1071
        1
1040
306.54724077816809
1040
566.92727348506969
1040
0.0
1002
}
  0
LINE
  5
585
  8
0
 10
8.5080514588865697
 20
552.4921480761767
 30
0.0
 11
9.374076862671167
 21
552.9921480761767
 31
0.0
1001
ACAD
1000
ASC_BOUNDS
1002
{
1070
    19
1005
82B
1002
}
  0
LINE
  5
5CA
  8
0
 10
11.758051458886539
 20
509.06919382653859
 30
0.0
 11
11.758051458886539
 21
500.19507415188912
 31
0.0
  0
LINE
  5
5CB
  8
0
 10
10.258051458886539
 20
509.06919382653859
 30
0.0
 11
10.258051458886539
 21
500.19507415188912
 31
0.0
  0
LINE
  5
610
  8
0
 10
6.5080514588865404
 20
567.49214807617659
 30
0.0
 11
11.008051458886539
 21
567.49214807617648
 31
0.0
  0
CIRCLE
  5
6D8
  8
0
 10
8.1330514588865679
 20
567.19214807617675
 30
0.0
 40
0.3
  0
INSERT
  5
6E7
  8
0
  6
CONTINUOUS
  2
*U4
 10
0.0
 20
0.0
 30
0.0
1001
ACAD
1002
{
1000
R14_HATCH_DATA
1000
6E7
1011
1.0
1021
0.0
1031
0.0
1021
0.0
1031
0.0
1011
0.0
1021
0.0
1031
0.0
1021
1.0
1031
0.0
1011
0.0
1021
0.0
1031
0.0
1021
0.0
1031
1.0
1040
0.0
1010
0.0
1020
0.0
1030
1.0
1000
SOLID
1070
     1
1070
     1
1071
        6
1071
        7
1070
     1
1070
     1
1071
        2
1040
8.4330514588865686
1040
567.19214807617675
1040
1.0
1040
7.8330514588865681
1040
567.19214807617675
1040
1.0
1071
        1
1005
6D8
1071
        7
1070
     1
1070
     1
1071
        2
1040
8.4330514588865402
1040
566.19214807617664
1040
1.0
1040
7.8330514588865414
1040
566.19214807617664
1040
1.0
1071
        1
1005
511
1071
        7
1070
     1
1070
     1
1071
        2
1040
8.4330514588865402
1040
564.92935737642517
1040
1.0
1040
7.8330514588865414
1040
564.92935737642517
1040
1.0
1071
        1
1005
510
1071
        7
1070
     1
1070
     1
1071
        2
1040
8.4330514588865402
1040
563.40610908491726
1040
1.0
1040
7.8330514588865414
1040
563.40610908491726
1040
1.0
1071
        1
1005
50F
1071
        7
1070
     1
1070
     1
1071
        2
1040
8.4330514588865402
1040
561.70314533643739
1040
1.0
1040
7.8330514588865414
1040
561.70314533643739
1040
1.0
1071
        1
1005
50E
1071
        7
1070
     1
1070
     1
1071
        2
1040
7.8330514588865414
1040
560.49214807617636
1040
1.0
1040
8.4330514588865402
1040
560.49214807617636
1040
1.0
1071
        1
1005
50D
1070
     0
1070
     1
1040
0.019646419543371
1071
        6
1040
8.2698351622254904
1040
567.148499204926
1040
0.0
1040
8.1912151402327709
1040
566.16617785269545
1040
0.0
1040
8.2108697728342577
1040
564.83022081366198
1040
0.0
1040
8.0536312204349088
1040
563.33709333555998
1040
0.0
1040
8.1912151402327709
1040
561.52962204745563
1040
0.0
1040
8.2894897948272046
1040
560.58659452660265
1040
0.0
1002
}
  0
LINE
  5
6E8
  8
0
 10
8.508051458886543
 20
558.69214807617675
 30
0.0
 11
8.508051458886543
 21
567.49214807617659
 31
0.0
  0
LINE
  5
733
  8
0
 10
7.5080514588865421
 20
554.8056491986431
 30
0.0
 11
7.5080514588865421
 21
558.69214807617664
 31
0.0
1001
ACAD
1000
ASC_BOUNDS
1002
{
1070
    19
1005
876
1005
82B
1002
}
  0
LINE
  5
734
  8
0
 10
7.0080514588865412
 20
554.3056491986431
 30
0.0
 11
7.5080514588865412
 21
554.8056491986431
 31
0.0
1001
ACAD
1000
ASC_BOUNDS
1002
{
1070
    19
1005
876
1005
82B
1002
}
  0
LINE
  5
784
  8
0
 10
9.0080514588865377
 20
553.34214807617684
 30
0.0
 11
9.008051458886543
 21
558.69214807617675
 31
0.0
1001
ACAD
1000
ASC_BOUNDS
1002
{
1070
    19
1005
82B
1005
82B
1002
}
  0
LINE
  5
786
  8
0
 10
11.008051458886539
 20
552.99214807617682
 30
0.0
 11
9.3580514588865373
 21
552.99214807617682
 31
0.0
  0
LINE
  5
7D1
  8
0
 10
9.3580514588865373
 20
552.99214807617682
 30
0.0
 11
9.3580514588865427
 21
558.69214807617675
 31
0.0
1001
ACAD
1000
ASC_BOUNDS
1002
{
1070
    19
1005
82B
1005
82B
1002
}
  0
LINE
  5
7D4
  8
0
 10
9.3580514588865373
 20
552.99214807617682
 30
0.0
 11
9.0080514588865377
 21
553.34214807617684
 31
0.0
1001
ACAD
1000
ASC_BOUNDS
1002
{
1070
    19
1005
82B
1005
82B
1002
}
  0
INSERT
  5
82B
  8
0
  6
CONTINUOUS
  2
*X5
 10
0.0
 20
0.0
 30
0.0
1001
ACAD
1000
HATCH
1002
{
1070
    19
1000
_USER
1040
0.5
1040
5.4977871437821371
1000
ASC_BOUNDS
1070
     3
1070
     1
1070
     4
1005
7D1
1005
7D4
1005
784
1005
3DF
1070
     1
1070
     4
1005
3F8
1005
3DE
1005
3F7
1005
3F9
1070
     1
1070
    12
1005
7D4
1005
7D1
1005
585
1005
3F8
1005
3F9
1005
3F7
1005
3DE
1005
3F4
1005
734
1005
733
1005
3DF
1005
784
1000
ASC_SEEDPOINT
1011
8.0330428497131834
1021
0.0
1031
0.0
1021
553.20460481805128
1031
0.0
1000
R14_HATCH_DATA
1000
82B
1011
1.0
1021
0.0
1031
0.0
1021
0.0
1031
0.0
1011
0.0
1021
0.0
1031
0.0
1021
1.0
1031
0.0
1011
0.0
1021
0.0
1031
0.0
1021
0.0
1031
1.0
1040
0.0
1010
0.0
1020
0.0
1030
1.0
1000
_USER
1070
     0
1070
     1
1071
        3
1071
        7
1070
     0
1070
     1
1071
       12
1040
9.0080514588865377
1040
553.34214807617661
1040
9.008051458886543
1040
558.69214807617664
1040
7.5080514588865421
1040
558.69214807617664
1040
7.5080514588865421
1040
554.8056491986431
1040
7.0080514588865412
1040
554.3056491986431
1040
7.0080514588865412
1040
541.49214807617659
1040
8.0080514588865412
1040
541.49214807617659
1040
8.0080514588865412
1040
551.49214807617648
1040
8.5080514588865412
1040
551.49214807617648
1040
8.5080514588865412
1040
552.4921480761767
1040
9.3580514588865373
1040
552.98289580498761
1040
9.3580514588865373
1040
552.99214807617693
1071
       12
1005
784
1005
3DF
1005
733
1005
734
1005
3F4
1005
3DE
1005
3F7
1005
3F9
1005
3F8
1005
585
1005
7D1
1005
7D4
1071
       22
1070
     0
1070
     1
1071
        4
1040
8.5080514588865412
1040
551.49214807617648
1040
8.0080514588865412
1040
551.49214807617648
1040
8.0080514588865412
1040
541.49214807617659
1040
8.5080514588865412
1040
541.49214807617659
1071
        4
1005
3F9
1005
3F7
1005
3DE
1005
3F8
1071
        7
1070
     0
1070
     1
1071
        4
1040
9.3580514588865427
1040
558.69214807617664
1040
9.0080514588865412
1040
558.69214807617652
1040
9.0080514588865377
1040
553.34214807617695
1040
9.3580514588865373
1040
552.99214807617682
1071
        4
1005
3DF
1005
784
1005
7D4
1005
7D1
1070
     0
1070
     0
1040
5.4977871437821371
1040
0.5
1070
     0
1070
     1
1040
5.4977871437821371
1040
0.0
1040
0.0
1040
0.3535533905932739
1040
0.3535533905932737
1070
     0
1040
0.0363868608186847
1071
        3
1040
8.0330428497131834
1040
553.20460481805128
1040
0.0
1040
8.2514581768602966
1040
550.83945851799911
1040
0.0
1040
9.1251179658158872
1040
554.6964657176751
1040
0.0
1002
}
  0
INSERT
  5
876
  8
0
  6
CONTINUOUS
  2
*X6
 10
0.0
 20
0.0
 30
0.0
1001
ACAD
1000
HATCH
1002
{
1070
    19
1000
_USER
1040
1.0
1040
5.4977871437821371
1000
ASC_BOUNDS
1070
     1
1070
     1
1070
     8
1005
3F4
1005
3DE
1005
3F3
1005
3EA
1005
3FB
1005
3DF
1005
733
1005
734
1000
ASC_SEEDPOINT
1011
6.1894423660880866
1021
0.0
1031
0.0
1021
552.57630665484089
1031
0.0
1000
R14_HATCH_DATA
1000
876
1011
1.0
1021
0.0
1031
0.0
1021
0.0
1031
0.0
1011
0.0
1021
0.0
1031
0.0
1021
1.0
1031
0.0
1011
0.0
1021
0.0
1031
0.0
1021
0.0
1031
1.0
1040
0.0
1010
0.0
1020
0.0
1030
1.0
1000
_USER
1070
     0
1070
     1
1071
        1
1071
        7
1070
     0
1070
     1
1071
        8
1040
7.0080514588865421
1040
554.3056491986431
1040
7.5080514588865421
1040
554.8056491986431
1040
7.5080514588865421
1040
558.69214807617652
1040
6.2580514588865412
1040
558.69214807617675
1040
6.2580514588865412
1040
555.89214807617668
1040
5.2580514588865412
1040
555.89214807617668
1040
5.2580514588865412
1040
541.49214807617659
1040
7.0080514588865412
1040
541.49214807617659
1071
        8
1005
734
1005
733
1005
3DF
1005
3FB
1005
3EA
1005
3F3
1005
3DE
1005
3F4
1070
     0
1070
     0
1040
5.4977871437821371
1040
1.0
1070
     1
1070
     2
1040
5.4977871437821371
1040
0.0
1040
0.0
1040
0.7071067811865478
1040
0.7071067811865474
1070
     0
1040
0.7853981633974483
1040
0.0
1040
0.0
1040
-0.7071067811865475
1040
0.7071067811865476
1070
     0
1040
0.0677767756011149
1071
        1
1040
6.1894423660880866
1040
552.57630665484089
1040
0.0
1002
}
  0
LINE
  5
877
  8
0
 10
10.258051458886539
 20
572.24214807617659
 30
0.0
 11
10.258051458886539
 21
572.99214807617659
 31
0.0
  0
LINE
  5
878
  8
0
 10
11.758051458886539
 20
572.24214807617648
 30
0.0
 11
11.758051458886539
 21
572.99214807617659
 31
0.0
  0
LINE
  5
879
  8
0
 10
10.258051458886539
 20
572.24214807617659
 30
0.0
 11
11.758051458886539
 21
572.24214807617648
 31
0.0
  0
LINE
  5
900
  8
0
 10
147.2036518682593
 20
565.4921480761767
 30
0.0
 11
152.9536518682593
 21
565.4921480761767
 31
0.0
1001
ACAD
1000
ASC_BOUNDS
1002
{
1070
    19
1005
A36
1005
A36
1005
A20
1002
}
  0
LINE
  5
985
  8
0
 10
147.9536518682593
 20
559.4921480761767
 30
0.0
 11
148.9536518682593
 21
559.4921480761767
 31
0.0
1001
ACAD
1000
ASC_BOUNDS
1002
{
1070
    19
1005
A36
1005
A20
1002
}
  0
LINE
  5
987
  8
0
 10
146.9536518682593
 20
574.7421480761767
 30
0.0
 11
152.95365186825941
 21
574.7421480761767
 31
0.0
  0
LINE
  5
9CC
  8
0
 10
148.9536518682593
 20
559.4921480761767
 30
0.0
 11
148.9536518682593
 21
565.4921480761767
 31
0.0
1001
ACAD
1000
ASC_BOUNDS
1002
{
1070
    19
1005
A36
1005
A20
1002
}
  0
LINE
  5
9CD
  8
0
 10
151.30365186825929
 20
558.49214807617659
 30
0.0
 11
152.9536518682593
 21
558.49214807617659
 31
0.0
1001
ACAD
1000
ASC_BOUNDS
1002
{
1070
    19
1005
A36
1002
}
  0
LINE
  5
9CE
  8
0
 10
150.95365186825941
 20
565.4921480761767
 30
0.0
 11
150.9536518682593
 21
558.84214807617673
 31
0.0
1001
ACAD
1000
ASC_BOUNDS
1002
{
1070
    19
1005
A36
1005
A36
1002
}
  0
LINE
  5
9CF
  8
0
 10
151.30365186825929
 20
558.49214807617659
 30
0.0
 11
150.9536518682593
 21
558.84214807617673
 31
0.0
1001
ACAD
1000
ASC_BOUNDS
1002
{
1070
    19
1005
A36
1005
A36
1002
}
  0
LINE
  5
9D0
  8
0
 10
151.30365186825929
 20
558.49214807617659
 30
0.0
 11
151.30365186825929
 21
565.4921480761767
 31
0.0
1001
ACAD
1000
ASC_BOUNDS
1002
{
1070
    19
1005
A36
1002
}
  0
CIRCLE
  5
9D1
  8
0
 10
149.85365186825931
 20
574.44214807617675
 30
0.0
 40
0.3
  0
INSERT
  5
A20
  8
0
  6
CONTINUOUS
  2
*X7
 10
0.0
 20
0.0
 30
0.0
1001
ACAD
1000
HATCH
1002
{
1070
    19
1000
_USER
1040
1.0
1040
5.4977871437821371
1000
ASC_BOUNDS
1070
     1
1070
     1
1070
    12
1005
48A
1005
45F
1005
460
1005
46C
1005
46D
1005
46E
1005
46F
1005
470
1005
471
1005
900
1005
9CC
1005
985
1000
ASC_SEEDPOINT
1011
147.2177132821445
1021
0.0
1031
0.0
1021
557.54204151257682
1031
0.0
1000
R14_HATCH_DATA
1000
A20
1011
1.0
1021
0.0
1031
0.0
1021
0.0
1031
0.0
1011
0.0
1021
0.0
1031
0.0
1021
1.0
1031
0.0
1011
0.0
1021
0.0
1031
0.0
1021
0.0
1031
1.0
1040
0.0
1010
0.0
1020
0.0
1030
1.0
1000
_USER
1070
     0
1070
     1
1071
        1
1071
        7
1070
     0
1070
     1
1071
       12
1040
147.9536518682593
1040
559.4921480761767
1040
148.9536518682593
1040
559.4921480761767
1040
148.9536518682593
1040
565.4921480761767
1040
147.2036518682593
1040
565.4921480761767
1040
147.2036518682593
1040
562.39214807617657
1040
145.70365186825941
1040
562.39214807617657
1040
145.70365186825941
1040
552.4921480761767
1040
144.35365186825939
1040
552.4921480761767
1040
144.35365186825931
1040
549.4921480761767
1040
145.70365186825941
1040
549.4921480761767
1040
145.70365186825941
1040
541.49214807617659
1040
147.9536518682593
1040
541.49214807617659
1071
       12
1005
985
1005
9CC
1005
900
1005
471
1005
470
1005
46F
1005
46E
1005
46D
1005
46C
1005
460
1005
45F
1005
48A
1070
     0
1070
     0
1040
5.4977871437821371
1040
1.0
1070
     1
1070
     2
1040
5.4977871437821371
1040
0.0
1040
0.0
1040
0.7071067811865478
1040
0.7071067811865474
1070
     0
1040
0.7853981633974483
1040
0.0
1040
0.0
1040
-0.7071067811865475
1040
0.7071067811865476
1070
     0
1040
0.0361142246828392
1071
        1
1040
147.2177132821445
1040
557.54204151257682
1040
0.0
1002
}
  0
INSERT
  5
A36
  8
0
  6
CONTINUOUS
  2
*X8
 10
0.0
 20
0.0
 30
0.0
1001
ACAD
1000
HATCH
1002
{
1070
    19
1000
_USER
1040
0.75
1040
5.4977871437821371
1000
ASC_BOUNDS
1070
     3
1070
     1
1070
     4
1005
9D0
1005
9CF
1005
9CE
1005
900
1070
     1
1070
     4
1005
48D
1005
45F
1005
48B
1005
48C
1070
     1
1070
    13
1005
49E
1005
48E
1005
48D
1005
48C
1005
48B
1005
45F
1005
48A
1005
985
1005
9CC
1005
900
1005
9CE
1005
9CF
1005
9CD
1000
ASC_SEEDPOINT
1011
149.96357702217341
1021
0.0
1031
0.0
1021
558.15598296478686
1031
0.0
1000
R14_HATCH_DATA
1000
A36
1011
1.0
1021
0.0
1031
0.0
1021
0.0
1031
0.0
1011
0.0
1021
0.0
1031
0.0
1021
1.0
1031
0.0
1011
0.0
1021
0.0
1031
0.0
1021
0.0
1031
1.0
1040
0.0
1010
0.0
1020
0.0
1030
1.0
1000
_USER
1070
     0
1070
     1
1071
        3
1071
        7
1070
     0
1070
     1
1071
       13
1040
150.9536518682593
1040
558.84214807617673
1040
150.95365186825941
1040
565.4921480761767
1040
148.9536518682593
1040
565.4921480761767
1040
148.9536518682593
1040
559.4921480761767
1040
147.9536518682593
1040
559.4921480761767
1040
147.9536518682593
1040
541.49214807617659
1040
149.9536518682593
1040
541.49214807617659
1040
149.9536518682593
1040
555.49214807617648
1040
150.4536518682593
1040
555.49214807617648
1040
150.4536518682593
1040
555.9921480761767
1040
152.9536518682593
1040
557.43552374915066
1040
152.9536518682593
1040
558.49214807617659
1040
151.30365186825929
1040
558.49214807617659
1071
       13
1005
9CD
1005
9CF
1005
9CE
1005
900
1005
9CC
1005
985
1005
48A
1005
45F
1005
48B
1005
48C
1005
48D
1005
48E
1005
49E
1071
       22
1070
     0
1070
     1
1071
        4
1040
150.4536518682593
1040
555.49214807617648
1040
149.9536518682593
1040
555.4921480761767
1040
149.9536518682593
1040
541.49214807617659
1040
150.4536518682593
1040
541.49214807617659
1071
        4
1005
48C
1005
48B
1005
45F
1005
48D
1071
       23
1070
     0
1070
     1
1071
        4
1040
151.30365186825929
1040
565.4921480761767
1040
150.95365186825941
1040
565.4921480761767
1040
150.9536518682593
1040
558.84214807617673
1040
151.30365186825941
1040
558.49214807617648
1071
        4
1005
900
1005
9CE
1005
9CF
1005
9D0
1070
     0
1070
     0
1040
5.4977871437821371
1040
0.75
1070
     0
1070
     1
1040
5.4977871437821371
1040
0.0
1040
0.0
1040
0.5303300858899107
1040
0.5303300858899105
1070
     0
1040
0.0361142246828392
1071
        3
1040
149.96357702217341
1040
558.15598296478686
1040
0.0
1040
150.32487453161929
1040
554.79735985102661
1040
0.0
1040
151.19198885076071
1040
558.95049646072539
1040
0.0
1002
}
  0
INSERT
  5
A41
  8
0
  6
CONTINUOUS
  2
*U9
 10
0.0
 20
0.0
 30
0.0
1001
ACAD
1002
{
1000
R14_HATCH_DATA
1000
A41
1011
1.0
1021
0.0
1031
0.0
1021
0.0
1031
0.0
1011
0.0
1021
0.0
1031
0.0
1021
1.0
1031
0.0
1011
0.0
1021
0.0
1031
0.0
1021
0.0
1031
1.0
1040
0.0
1010
0.0
1020
0.0
1030
1.0
1000
SOLID
1070
     1
1070
     1
1071
        5
1071
        7
1070
     1
1070
     1
1071
        2
1040
150.15365186825929
1040
574.44214807617675
1040
1.0
1040
149.55365186825929
1040
574.44214807617675
1040
1.0
1071
        1
1005
9D1
1071
        7
1070
     1
1070
     1
1071
        2
1040
149.55365186825929
1040
573.29214807617655
1040
1.0
1040
150.15365186825929
1040
573.29214807617655
1040
1.0
1071
        1
1005
516
1071
        7
1070
     1
1070
     1
1071
        2
1040
149.55365186825929
1040
571.59693452477859
1040
1.0
1040
150.15365186825929
1040
571.59693452477859
1040
1.0
1071
        1
1005
515
1071
        7
1070
     1
1070
     1
1071
        2
1040
150.15365186825929
1040
569.7695819052808
1040
1.0
1040
149.55365186825929
1040
569.7695819052808
1040
1.0
1071
        1
1005
514
1071
        7
1070
     1
1070
     1
1071
        2
1040
150.15365186825929
1040
568.49214807617648
1040
1.0
1040
149.55365186825929
1040
568.49214807617648
1040
1.0
1071
        1
1005
513
1070
     0
1070
     1
1040
0.0180486512733748
1071
        5
1040
149.9616143832811
1040
574.35159338264918
1040
0.0
1040
149.74493697426959
1040
573.39501482878416
1040
0.0
1040
149.78105012283069
1040
571.69844141629414
1040
0.0
1040
149.8352183633169
1040
569.73113862756441
1040
0.0
1040
149.78105012283069
1040
568.37748980388676
1040
0.0
1002
}
  0
LINE
  5
A42
  8
0
 10
153.7036518682593
 20
579.97693912179034
 30
0.0
 11
153.7036518682593
 21
579.24214807617659
 31
0.0
  0
LINE
  5
A43
  8
0
 10
152.2036518682593
 20
579.97693912179034
 30
0.0
 11
152.2036518682593
 21
579.24214807617659
 31
0.0
  0
LINE
  5
A44
  8
0
 10
152.2036518682593
 20
579.2421480761767
 30
0.0
 11
153.7036518682593
 21
579.2421480761767
 31
0.0
  0
LINE
  5
A46
  8
0
 10
153.7036518682593
 20
510.58507443910918
 30
0.0
 11
153.70365186825941
 21
498.67919353931859
 31
0.0
  0
LINE
  5
A47
  8
0
 10
152.2036518682593
 20
510.58507443910918
 30
0.0
 11
152.2036518682593
 21
498.67919353931859
 31
0.0
  0
LINE
  5
A92
  8
0
 10
320.49487886959918
 20
576.99214807617648
 30
0.0
 11
320.49487886959918
 21
578.99214807617659
 31
0.0
  0
LINE
  5
A94
  8
0
 10
313.24487886959918
 20
579.2421480761767
 30
0.0
 11
314.74487886959918
 21
579.2421480761767
 31
0.0
  0
LINE
  5
A95
  8
0
 10
313.24487886959918
 20
579.97913838248576
 30
0.0
 11
313.24487886959918
 21
579.24214807617659
 31
0.0
  0
LINE
  5
A96
  8
0
 10
314.74487886959918
 20
579.97913838248576
 30
0.0
 11
314.74487886959918
 21
579.24214807617659
 31
0.0
  0
LINE
  5
A97
  8
0
 10
307.49487886959918
 20
574.7421480761767
 30
0.0
 11
307.49487886959918
 21
578.99214807617659
 31
0.0
  0
LINE
  5
A98
  8
0
 10
307.49487886959918
 20
574.7421480761767
 30
0.0
 11
313.99487886959918
 21
574.7421480761767
 31
0.0
  0
LINE
  5
A99
  8
0
 10
311.49487886959918
 20
565.49214807617682
 30
0.0
 11
311.49487886959918
 21
574.7421480761767
 31
0.0
  0
LINE
  5
A9A
  8
0
 10
312.3448788695992
 20
558.49214807617659
 30
0.0
 11
312.3448788695992
 21
565.4921480761767
 31
0.0
  0
LINE
  5
A9B
  8
0
 10
311.99487886959918
 20
565.4921480761767
 30
0.0
 11
311.99487886959918
 21
558.84214807617673
 31
0.0
1001
ACAD
1000
ASC_BOUNDS
1002
{
1070
    19
1005
11F3
1002
}
  0
LINE
  5
A9C
  8
0
 10
312.3448788695992
 20
558.49214807617659
 30
0.0
 11
313.99487886959918
 21
558.49214807617659
 31
0.0
1001
ACAD
1000
ASC_BOUNDS
1002
{
1070
    19
1005
11F3
1002
}
  0
LINE
  5
A9D
  8
0
 10
312.3448788695992
 20
558.49214807617659
 30
0.0
 11
311.99487886959918
 21
558.84214807617673
 31
0.0
1001
ACAD
1000
ASC_BOUNDS
1002
{
1070
    19
1005
11F3
1002
}
  0
ARC
  5
AA2
  8
0
 10
11.008051458886531
 20
562.36714807617659
 30
0.0
 40
10.625
 50
64.942384581696942
 51
85.952225803187105
  0
ARC
  5
AA3
  8
0
 10
11.008051458886531
 20
562.36714807617659
 30
0.0
 40
10.625
 50
94.047774196812767
 51
115.0576154183029
  0
ARC
  5
AEE
  8
0
 10
75.573716509003305
 20
562.36714807617659
 30
0.0
 40
10.625
 50
64.942384581696956
 51
115.0576154183029
  0
ARC
  5
B34
  8
0
 10
152.9536518682593
 20
561.4921480761767
 30
0.0
 40
18.5
 50
71.075355583948777
 51
87.676561388947931
  0
ARC
  5
B35
  8
0
 10
152.9536518682593
 20
561.4921480761767
 30
0.0
 40
18.5
 50
92.323438611052055
 51
108.92464441605119
  0
ARC
  5
B39
  8
0
 10
231.65145249540589
 20
561.4921480761767
 30
0.0
 40
18.5
 50
71.075355583948777
 51
108.92464441605119
  0
ARC
  5
B80
  8
0
 10
313.99487886959918
 20
558.36714807617682
 30
0.0
 40
21.62499999999989
 50
72.507675474889496
 51
88.012464552308074
  0
ARC
  5
B81
  8
0
 10
313.99487886959918
 20
558.36714807617682
 30
0.0
 40
21.62499999999989
 50
91.987535447691911
 51
107.4923245251105
  0
ARC
  5
B85
  8
0
 10
406.78009471401651
 20
551.45048140951019
 30
0.0
 40
28.541666666666622
 50
76.836110689644059
 51
103.163889310356
  0
CIRCLE
  5
C4C
  8
0
 10
310.79487886959919
 20
574.44214807617675
 30
0.0
 40
0.3
  0
INSERT
  5
C57
  8
0
  6
CONTINUOUS
  2
*U10
 10
0.0
 20
0.0
 30
0.0
1001
ACAD
1002
{
1000
R14_HATCH_DATA
1000
C57
1011
1.0
1021
0.0
1031
0.0
1021
0.0
1031
0.0
1011
0.0
1021
0.0
1031
0.0
1021
1.0
1031
0.0
1011
0.0
1021
0.0
1031
0.0
1021
0.0
1031
1.0
1040
0.0
1010
0.0
1020
0.0
1030
1.0
1000
SOLID
1070
     1
1070
     1
1071
        5
1071
        7
1070
     1
1070
     1
1071
        2
1040
311.0948788695992
1040
574.44214807617675
1040
1.0
1040
310.49487886959918
1040
574.44214807617675
1040
1.0
1071
        1
1005
C4C
1071
        7
1070
     1
1070
     1
1071
        2
1040
311.0948788695992
1040
573.29540325082951
1040
1.0
1040
310.49487886959918
1040
573.29540325082951
1040
1.0
1071
        1
1005
382
1071
        7
1070
     1
1070
     1
1071
        2
1040
311.0948788695992
1040
571.53002039200305
1040
1.0
1040
310.49487886959918
1040
571.53002039200305
1040
1.0
1071
        1
1005
359
1071
        7
1070
     1
1070
     1
1071
        2
1040
311.0948788695992
1040
569.73095642224416
1040
1.0
1040
310.49487886959918
1040
569.73095642224416
1040
1.0
1071
        1
1005
35A
1071
        7
1070
     1
1070
     1
1071
        2
1040
311.0948788695992
1040
568.45379028301647
1040
1.0
1040
310.49487886959918
1040
568.45379028301647
1040
1.0
1071
        1
1005
392
1070
     0
1070
     1
1040
0.0379068803075116
1071
        5
1040
310.89679184003512
1040
574.38086313685164
1040
0.0
1040
310.74509898212091
1040
573.16784340967445
1040
0.0
1040
310.85886862555662
1040
571.46203317368247
1040
0.0
1040
310.70717576764241
1040
569.64250309720001
1040
0.0
1040
310.78302219659957
1040
568.27785529697985
1040
0.0
1002
}
  0
LINE
  5
C9A
  8
0
 10
309.99487886959918
 20
561.49214807617682
 30
0.0
 11
309.99487886959918
 21
565.49214807617682
 31
0.0
1001
ACAD
1000
ASC_BOUNDS
1002
{
1070
    19
1005
11F3
1005
D01
1002
}
  0
LINE
  5
CE1
  8
0
 10
308.99487886959929
 20
561.49214807617682
 30
0.0
 11
309.99487886959918
 21
561.49214807617682
 31
0.0
1001
ACAD
1000
ASC_BOUNDS
1002
{
1070
    19
1005
11F3
1005
D01
1002
}
  0
INSERT
  5
D01
  8
0
  6
CONTINUOUS
  2
*X11
 10
0.0
 20
0.0
 30
0.0
1001
ACAD
1000
HATCH
1002
{
1070
    19
1000
_USER
1040
1.25
1040
0.7853981633974483
1000
ASC_BOUNDS
1070
     1
1070
     1
1070
    14
1005
C9A
1005
CE1
1005
375
1005
35D
1005
363
1005
37B
1005
361
1005
362
1005
35F
1005
360
1005
35C
1005
35E
1005
38D
1005
37A
1000
ASC_SEEDPOINT
1011
308.99068172845432
1021
0.0
1031
0.0
1021
562.35552058454425
1031
0.0
1000
R14_HATCH_DATA
1000
D01
1011
1.0
1021
0.0
1031
0.0
1021
0.0
1031
0.0
1011
0.0
1021
0.0
1031
0.0
1021
1.0
1031
0.0
1011
0.0
1021
0.0
1031
0.0
1021
0.0
1031
1.0
1040
0.0
1010
0.0
1020
0.0
1030
1.0
1000
_USER
1070
     0
1070
     1
1071
        1
1071
        7
1070
     0
1070
     1
1071
       14
1040
309.99487886959918
1040
565.49214807617682
1040
307.09487886959931
1040
565.49214807617682
1040
307.0948788695992
1040
561.9921480761767
1040
306.49487886959918
1040
561.9921480761767
1040
306.49487886959918
1040
552.49214807617682
1040
305.3448788695992
1040
552.49214807617682
1040
305.3448788695992
1040
549.59214807617684
1040
306.49487886959912
1040
549.59214807617684
1040
306.49487886959929
1040
547.99214807617682
1040
306.74487886959918
1040
547.99214807617682
1040
306.74487886959918
1040
541.49214807617682
1040
308.99487886959918
1040
541.49214807617682
1040
308.99487886959929
1040
561.49214807617682
1040
309.99487886959918
1040
561.49214807617682
1071
       14
1005
37A
1005
38D
1005
35E
1005
35C
1005
360
1005
35F
1005
362
1005
361
1005
37B
1005
363
1005
35D
1005
375
1005
CE1
1005
C9A
1070
     0
1070
     0
1040
0.7853981633974483
1040
1.25
1070
     1
1070
     2
1040
0.7853981633974483
1040
0.0
1040
0.0
1040
-0.8838834764831842
1040
0.8838834764831844
1070
     0
1040
2.3561944901923439
1040
0.0
1040
0.0
1040
-0.8838834764831844
1040
-0.8838834764831842
1070
     0
1040
0.0636835612133553
1071
        1
1040
308.99068172845432
1040
562.35552058454425
1040
0.0
1002
}
  0
LINE
  5
D44
  8
0
 10
313.24487886959912
 20
511.08871977428629
 30
0.0
 11
313.24487886959912
 21
498.17554820414142
 31
0.0
  0
LINE
  5
D45
  8
0
 10
314.74487886959918
 20
511.08871977428629
 30
0.0
 11
314.74487886959918
 21
498.17554820414142
 31
0.0
  0
CIRCLE
  5
D47
  8
0
 10
152.9536518682593
 20
504.63213398921391
 30
0.0
 40
6.0
  0
CIRCLE
  5
D4A
  8
0
 10
11.008051458886539
 20
504.63213398921391
 30
0.0
 40
4.5
  0
ARC
  5
D8E
  8
0
 10
493.26879416805042
 20
561.36714807617682
 30
0.0
 40
28.625
 50
74.810713262817103
 51
88.498628725017014
  0
LINE
  5
D8F
  8
0
 10
492.51879416805042
 20
589.98232106185003
 30
0.0
 11
492.51879416805042
 21
588.48232106184992
 31
0.0
  0
LINE
  5
D90
  8
0
 10
494.01879416805048
 20
589.98232106185003
 30
0.0
 11
494.01879416805048
 21
588.48232106184992
 31
0.0
  0
ARC
  5
D91
  8
0
 10
493.26879416805042
 20
561.36714807617682
 30
0.0
 40
28.625
 50
91.501371274982986
 51
105.1892867371829
  0
LINE
  5
D93
  8
0
 10
492.51879416805042
 20
588.48232106185003
 30
0.0
 11
494.01879416805048
 21
588.48232106185003
 31
0.0
  0
LINE
  5
D94
  8
0
 10
494.01879416805042
 20
512.09453976751354
 30
0.0
 11
494.01879416805042
 21
497.16972821091417
 31
0.0
  0
LINE
  5
D95
  8
0
 10
492.51879416805042
 20
512.09453976751354
 30
0.0
 11
492.51879416805042
 21
497.16972821091417
 31
0.0
  0
ARC
  5
D99
  8
0
 10
622.67495845144651
 20
561.36714807617682
 30
0.0
 40
28.625
 50
74.810713262817103
 51
105.1892867371829
  0
CIRCLE
  5
E22
  8
0
 10
488.85238030737457
 20
581.99214807617693
 30
0.0
 40
0.4
  0
INSERT
  5
E2D
  8
0
  6
CONTINUOUS
  2
*U12
 10
0.0
 20
0.0
 30
0.0
1001
ACAD
1002
{
1000
R14_HATCH_DATA
1000
E2D
1011
1.0
1021
0.0
1031
0.0
1021
0.0
1031
0.0
1011
0.0
1021
0.0
1031
0.0
1021
1.0
1031
0.0
1011
0.0
1021
0.0
1031
0.0
1021
0.0
1031
1.0
1040
0.0
1010
0.0
1020
0.0
1030
1.0
1000
SOLID
1070
     1
1070
     1
1071
        5
1071
        7
1070
     1
1070
     1
1071
        2
1040
488.4523803073746
1040
581.99214807617693
1040
1.0
1040
489.25238030737461
1040
581.99214807617693
1040
1.0
1071
        1
1005
E22
1071
        7
1070
     1
1070
     1
1071
        2
1040
489.25238030737449
1040
580.55372573581178
1040
1.0
1040
488.4523803073746
1040
580.55372573581178
1040
1.0
1071
        1
1005
51B
1071
        7
1070
     1
1070
     1
1071
        2
1040
489.25238030737449
1040
578.03795553229702
1040
1.0
1040
488.4523803073746
1040
578.03795553229702
1040
1.0
1071
        1
1005
51A
1071
        7
1070
     1
1070
     1
1071
        2
1040
489.25238030737449
1040
575.51512110345902
1040
1.0
1040
488.4523803073746
1040
575.51512110345902
1040
1.0
1071
        1
1005
519
1071
        7
1070
     1
1070
     1
1071
        2
1040
489.25238030737449
1040
573.59214807617684
1040
1.0
1040
488.4523803073746
1040
573.59214807617684
1040
1.0
1071
        1
1005
518
1070
     0
1070
     1
1040
0.062540119365266
1071
        5
1040
488.74721648685681
1040
582.09033754291602
1040
0.0
1040
488.74721648685681
1040
580.33921435591185
1040
0.0
1040
489.12261995896642
1040
578.58809116890791
1040
0.0
1040
488.80978397929789
1040
575.46108561659491
1040
0.0
1040
488.87235147173902
1040
573.45980155800783
1040
0.0
1002
}
  0
LINE
  5
EB3
  8
0
 10
490.76879416805048
 20
565.48232106185003
 30
0.0
 11
493.26879416805042
 21
565.48232106185003
 31
0.0
1001
ACAD
1000
ASC_BOUNDS
1002
{
1070
    19
1005
1153
1002
}
  0
LINE
  5
EB5
  8
0
 10
490.26879416805042
 20
570.4921480761767
 30
0.0
 11
490.26879416805042
 21
565.98232106185003
 31
0.0
1001
ACAD
1000
ASC_BOUNDS
1002
{
1070
    19
1005
1153
1002
}
  0
LINE
  5
EF8
  8
0
 10
490.76879416805048
 20
570.4921480761767
 30
0.0
 11
490.76879416805048
 21
565.48232106185003
 31
0.0
  0
LINE
  5
EF9
  8
0
 10
490.26879416805042
 20
565.98232106185003
 30
0.0
 11
493.26879416805042
 21
565.98232106185003
 31
0.0
  0
LINE
  5
EFA
  8
0
 10
490.26879416805042
 20
565.98232106185003
 30
0.0
 11
490.76879416805048
 21
565.48232106185003
 31
0.0
1001
ACAD
1000
ASC_BOUNDS
1002
{
1070
    19
1005
1153
1002
}
  0
LINE
  5
112D
  8
0
 10
488.26879416805002
 20
570.4921480761767
 30
0.0
 11
488.26879416805019
 21
565.48232106185014
 31
0.0
1001
ACAD
1000
ASC_BOUNDS
1002
{
1070
    19
1005
1161
1005
1153
1002
}
  0
LINE
  5
112F
  8
0
 10
488.26879416805002
 20
565.48232106185014
 30
0.0
 11
487.26879416805008
 21
564.48232106185014
 31
0.0
1001
ACAD
1000
ASC_BOUNDS
1002
{
1070
    19
1005
1161
1005
1153
1002
}
  0
INSERT
  5
1153
  8
0
  6
CONTINUOUS
  2
*X13
 10
0.0
 20
0.0
 30
0.0
1001
ACAD
1000
HATCH
1002
{
1070
    19
1000
_USER
1040
1.0
1040
5.4977871437821371
1000
ASC_BOUNDS
1070
     2
1070
     1
1070
     4
1005
509
1005
4DD
1005
506
1005
507
1070
     1
1070
    13
1005
52A
1005
508
1005
509
1005
507
1005
506
1005
4DD
1005
50C
1005
112F
1005
112D
1005
4E7
1005
EB5
1005
EFA
1005
EB3
1000
ASC_SEEDPOINT
1011
491.7084875035182
1021
0.0
1031
0.0
1021
562.81705945352542
1031
0.0
1000
R14_HATCH_DATA
1000
1153
1011
1.0
1021
0.0
1031
0.0
1021
0.0
1031
0.0
1011
0.0
1021
0.0
1031
0.0
1021
1.0
1031
0.0
1011
0.0
1021
0.0
1031
0.0
1021
0.0
1031
1.0
1040
0.0
1010
0.0
1020
0.0
1030
1.0
1000
_USER
1070
     0
1070
     1
1071
        2
1071
        7
1070
     0
1070
     1
1071
       13
1040
493.26879416805042
1040
565.48232106185003
1040
490.76879416805048
1040
565.48232106185003
1040
490.26879416805042
1040
565.98232106185003
1040
490.26879416805042
1040
570.4921480761767
1040
488.26879416805002
1040
570.4921480761767
1040
488.26879416805019
1040
565.48232106185014
1040
487.26879416805019
1040
564.48232106185014
1040
487.26879416805048
1040
541.49214807617682
1040
488.26879416805042
1040
541.49214807617682
1040
488.26879416805042
1040
555.4921480761767
1040
489.01879416805048
1040
555.4921480761767
1040
489.01879416805048
1040
556.49214807617693
1040
493.26879416805048
1040
558.94588672023292
1071
       13
1005
EB3
1005
EFA
1005
EB5
1005
4E7
1005
112D
1005
112F
1005
50C
1005
4DD
1005
506
1005
507
1005
509
1005
508
1005
52A
1071
       22
1070
     0
1070
     1
1071
        4
1040
489.01879416805042
1040
555.49214807617682
1040
488.26879416805042
1040
555.49214807617682
1040
488.26879416805048
1040
541.49214807617682
1040
489.01879416805042
1040
541.49214807617682
1071
        4
1005
507
1005
506
1005
4DD
1005
509
1070
     0
1070
     0
1040
5.4977871437821371
1040
1.0
1070
     0
1070
     1
1040
5.4977871437821371
1040
0.0
1040
0.0
1040
0.7071067811865478
1040
0.7071067811865474
1070
     0
1040
0.0855949848912542
1071
        2
1040
491.7084875035182
1040
562.81705945352542
1040
0.0
1040
488.71137216801588
1040
551.68971142130044
1040
0.0
1002
}
  0
INSERT
  5
1161
  8
0
  6
CONTINUOUS
  2
*X14
 10
0.0
 20
0.0
 30
0.0
1001
ACAD
1000
HATCH
1002
{
1070
    19
1000
_USER
1040
1.5
1040
5.4977871437821371
1000
ASC_BOUNDS
1070
     1
1070
     1
1070
    13
1005
50C
1005
4DD
1005
4DE
1005
4E0
1005
4E3
1005
4E2
1005
4E1
1005
4E5
1005
4E4
1005
4E6
1005
4E7
1005
112D
1005
112F
1000
ASC_SEEDPOINT
1011
486.22804960007647
1021
0.0
1031
0.0
1021
557.93814553299831
1031
0.0
1000
R14_HATCH_DATA
1000
1161
1011
1.0
1021
0.0
1031
0.0
1021
0.0
1031
0.0
1011
0.0
1021
0.0
1031
0.0
1021
1.0
1031
0.0
1011
0.0
1021
0.0
1031
0.0
1021
0.0
1031
1.0
1040
0.0
1010
0.0
1020
0.0
1030
1.0
1000
_USER
1070
     0
1070
     1
1071
        1
1071
        7
1070
     0
1070
     1
1071
       13
1040
487.26879416805002
1040
564.48232106185014
1040
488.26879416805019
1040
565.48232106185014
1040
488.26879416805002
1040
570.4921480761767
1040
485.01879416805042
1040
570.4921480761767
1040
485.01879416805048
1040
566.99214807617682
1040
483.76879416805048
1040
566.99214807617682
1040
483.76879416805048
1040
554.99214807617682
1040
482.76879416805048
1040
554.99214807617659
1040
482.76879416805048
1040
552.49214807617682
1040
482.76879416805048
1040
550.99214807617682
1040
483.76879416805042
1040
550.99214807617682
1040
483.76879416805042
1040
541.49214807617682
1040
487.26879416805048
1040
541.49214807617682
1071
       13
1005
112F
1005
112D
1005
4E7
1005
4E6
1005
4E4
1005
4E5
1005
4E1
1005
4E2
1005
4E3
1005
4E0
1005
4DE
1005
4DD
1005
50C
1070
     0
1070
     0
1040
5.4977871437821371
1040
1.5
1070
     1
1070
     2
1040
5.4977871437821371
1040
0.0
1040
0.0
1040
1.060660171779821
1040
1.0606601717798201
1070
     0
1040
0.7853981633974483
1040
0.0
1040
0.0
1040
-1.060660171779821
1040
1.060660171779821
1070
     0
1040
0.0855949848912542
1071
        1
1040
486.22804960007647
1040
557.93814553299831
1040
0.0
1002
}
  0
LINE
  5
11E2
  8
0
 10
310.5948788695992
 20
556.99214807617682
 30
0.0
 11
313.11987886959889
 21
558.49214807617659
 31
0.0
1001
ACAD
1000
ASC_BOUNDS
1002
{
1070
    19
1005
11F3
1002
}
  0
INSERT
  5
11F3
  8
0
  6
CONTINUOUS
  2
*X15
 10
0.0
 20
0.0
 30
0.0
1001
ACAD
1000
HATCH
1002
{
1070
    19
1000
_USER
1040
0.75
1040
5.4977871437821371
1000
ASC_BOUNDS
1070
     2
1070
     1
1070
     4
1005
373
1005
35D
1005
374
1005
376
1070
     1
1070
    12
1005
A9D
1005
A9C
1005
11E2
1005
373
1005
376
1005
374
1005
35D
1005
375
1005
CE1
1005
C9A
1005
37A
1005
A9B
1000
ASC_SEEDPOINT
1011
310.5765523933448
1021
0.0
1031
0.0
1021
558.72747945463755
1031
0.0
1000
R14_HATCH_DATA
1000
11F3
1011
1.0
1021
0.0
1031
0.0
1021
0.0
1031
0.0
1011
0.0
1021
0.0
1031
0.0
1021
1.0
1031
0.0
1011
0.0
1021
0.0
1031
0.0
1021
0.0
1031
1.0
1040
0.0
1010
0.0
1020
0.0
1030
1.0
1000
_USER
1070
     0
1070
     1
1071
        2
1071
        7
1070
     0
1070
     1
1071
       12
1040
311.99487886959918
1040
558.84214807617673
1040
311.99487886959918
1040
565.49214807617693
1040
309.99487886959918
1040
565.49214807617682
1040
309.99487886959918
1040
561.49214807617682
1040
308.99487886959929
1040
561.49214807617682
1040
308.99487886959918
1040
541.49214807617682
1040
309.99487886959918
1040
541.49214807617693
1040
309.99487886959918
1040
556.49214807617682
1040
310.5948788695992
1040
556.49214807617682
1040
310.5948788695992
1040
556.99214807617682
1040
313.11987886959889
1040
558.49214807617659
1040
312.3448788695992
1040
558.49214807617659
1071
       12
1005
A9B
1005
37A
1005
C9A
1005
CE1
1005
375
1005
35D
1005
374
1005
376
1005
373
1005
11E2
1005
A9C
1005
A9D
1071
       22
1070
     0
1070
     1
1071
        4
1040
310.5948788695992
1040
556.49214807617682
1040
309.99487886959918
1040
556.49214807617682
1040
309.99487886959918
1040
541.49214807617682
1040
310.59487886959931
1040
541.49214807617682
1071
        4
1005
376
1005
374
1005
35D
1005
373
1070
     0
1070
     0
1040
5.4977871437821371
1040
0.75
1070
     0
1070
     1
1040
5.4977871437821371
1040
0.0
1040
0.0
1040
0.5303300858899107
1040
0.5303300858899105
1070
     0
1040
0.0650042021299474
1071
        2
1040
310.5765523933448
1040
558.72747945463755
1040
0.0
1040
310.18635826161199
1040
555.28225601659483
1040
0.0
1002
}
  0
VIEWPORT
  5
8D
 67
     1
  8
0
 10
143.47825622558591
 20
99.980751991271987
 30
0.0
 40
339.12752973873143
 41
222.1965796813964
 68
     1
 69
     1
1001
ACAD
1000
MVIEW
1002
{
1070
    16
1010
0.0
1020
0.0
1030
0.0
1010
0.0
1020
0.0
1030
1.0
1040
0.0
1040
222.1965796813964
1040
143.47825622558591
1040
99.980751991271987
1040
50.0
1040
0.0
1040
0.0
1070
     0
1070
   100
1070
     1
1070
     1
1070
     0
1070
     0
1070
     0
1070
     0
1040
0.0
1040
0.0
1040
0.0
1040
10.0
1040
10.0
1040
10.0
1040
10.0
1070
     0
1002
{
1002
}
1002
}
  0
VIEWPORT
  5
8F
 67
     1
  8
0
 10
143.37242841720581
 20
99.874916553497314
 30
0.0
 40
229.3958854675293
 41
159.79986648559569
 68
     2
 69
     2
1001
ACAD
1000
MVIEW
1002
{
1070
    16
1010
0.0
1020
0.0
1030
0.0
1010
0.0
1020
0.0
1030
1.0
1040
0.0
1040
300.10452961672468
1040
210.0
1040
148.5
1040
50.0
1040
0.0
1040
0.0
1070
     0
1070
   100
1070
     1
1070
     2
1070
     0
1070
     0
1070
     0
1070
     0
1040
0.0
1040
0.0
1040
0.0
1040
10.0
1040
10.0
1040
10.0
1040
10.0
1070
     0
1002
{
1002
}
1002
}
  0
ENDSEC
  0
EOF
