  0
SECTION
  2
HEADER
  9
$ACADVER
  1
AC1009
  9
$INSBASE
 10
0.0
 20
0.0
 30
0.0
  9
$EXTMIN
 10
-106.375575
 20
-39.242786
 30
0.0
  9
$EXTMAX
 10
222.817773
 20
159.741856
 30
0.0
  9
$LIMMIN
 10
0.0
 20
0.0
  9
$LIMMAX
 10
12.0
 20
9.0
  9
$ORTHOMODE
 70
     1
  9
$REGENMODE
 70
     1
  9
$FILLMODE
 70
     1
  9
$QTEXTMODE
 70
     0
  9
$MIRRTEXT
 70
     1
  9
$DRAGMODE
 70
     2
  9
$LTSCALE
 40
7.0
  9
$OSMODE
 70
     0
  9
$ATTMODE
 70
     1
  9
$TEXTSIZE
 40
10.0
  9
$TRACEWID
 40
0.05
  9
$TEXTSTYLE
  7
ITALICT
  9
$CLAYER
  8
0
  9
$CELTYPE
  6
BYLAYER
  9
$CECOLOR
 62
   256
  9
$DIMSCALE
 40
1.0
  9
$DIMASZ
 40
0.18
  9
$DIMEXO
 40
0.0625
  9
$DIMDLI
 40
0.38
  9
$DIMRND
 40
0.0
  9
$DIMDLE
 40
0.0
  9
$DIMEXE
 40
0.18
  9
$DIMTP
 40
0.0
  9
$DIMTM
 40
0.0
  9
$DIMTXT
 40
0.18
  9
$DIMCEN
 40
0.09
  9
$DIMTSZ
 40
0.0
  9
$DIMTOL
 70
     0
  9
$DIMLIM
 70
     0
  9
$DIMTIH
 70
     1
  9
$DIMTOH
 70
     1
  9
$DIMSE1
 70
     0
  9
$DIMSE2
 70
     0
  9
$DIMTAD
 70
     0
  9
$DIMZIN
 70
     0
  9
$DIMBLK
  1

  9
$DIMASO
 70
     1
  9
$DIMSHO
 70
     0
  9
$DIMPOST
  1

  9
$DIMAPOST
  1

  9
$DIMALT
 70
     0
  9
$DIMALTD
 70
     2
  9
$DIMALTF
 40
25.4
  9
$DIMLFAC
 40
1.0
  9
$DIMTOFL
 70
     0
  9
$DIMTVP
 40
0.0
  9
$DIMTIX
 70
     0
  9
$DIMSOXD
 70
     0
  9
$DIMSAH
 70
     0
  9
$DIMBLK1
  1

  9
$DIMBLK2
  1

  9
$DIMSTYLE
  2
*UNNAMED
  9
$DIMCLRD
 70
     0
  9
$DIMCLRE
 70
     0
  9
$DIMCLRT
 70
     0
  9
$DIMTFAC
 40
1.0
  9
$DIMGAP
 40
0.09
  9
$LUNITS
 70
     2
  9
$LUPREC
 70
     4
  9
$SKETCHINC
 40
0.1
  9
$FILLETRAD
 40
0.0
  9
$AUNITS
 70
     0
  9
$AUPREC
 70
     0
  9
$MENU
  1
wiberger
  9
$ELEVATION
 40
0.0
  9
$PELEVATION
 40
0.0
  9
$THICKNESS
 40
0.0
  9
$LIMCHECK
 70
     0
  9
$BLIPMODE
 70
     1
  9
$CHAMFERA
 40
1.0
  9
$CHAMFERB
 40
1.0
  9
$SKPOLY
 70
     0
  9
$TDCREATE
 40
2450211.379254745
  9
$TDUPDATE
 40
2450211.592386690
  9
$TDINDWG
 40
0.0005302083
  9
$TDUSRTIMER
 40
0.0005302083
  9
$USRTIMER
 70
     1
  9
$ANGBASE
 50
0.0
  9
$ANGDIR
 70
     0
  9
$PDMODE
 70
     0
  9
$PDSIZE
 40
0.0
  9
$PLINEWID
 40
0.0
  9
$COORDS
 70
     2
  9
$SPLFRAME
 70
     0
  9
$SPLINETYPE
 70
     6
  9
$SPLINESEGS
 70
     8
  9
$ATTDIA
 70
     0
  9
$ATTREQ
 70
     1
  9
$HANDLING
 70
     0
  9
$HANDSEED
  5
0
  9
$SURFTAB1
 70
     6
  9
$SURFTAB2
 70
     6
  9
$SURFTYPE
 70
     6
  9
$SURFU
 70
     6
  9
$SURFV
 70
     6
  9
$UCSNAME
  2

  9
$UCSORG
 10
0.0
 20
0.0
 30
0.0
  9
$UCSXDIR
 10
1.0
 20
0.0
 30
0.0
  9
$UCSYDIR
 10
0.0
 20
1.0
 30
0.0
  9
$PUCSNAME
  2

  9
$PUCSORG
 10
0.0
 20
0.0
 30
0.0
  9
$PUCSXDIR
 10
1.0
 20
0.0
 30
0.0
  9
$PUCSYDIR
 10
0.0
 20
1.0
 30
0.0
  9
$USERI1
 70
     0
  9
$USERI2
 70
     0
  9
$USERI3
 70
     0
  9
$USERI4
 70
     0
  9
$USERI5
 70
     0
  9
$USERR1
 40
0.0
  9
$USERR2
 40
0.0
  9
$USERR3
 40
0.0
  9
$USERR4
 40
0.0
  9
$USERR5
 40
0.0
  9
$WORLDVIEW
 70
     1
  9
$SHADEDGE
 70
     3
  9
$SHADEDIF
 70
    70
  9
$TILEMODE
 70
     1
  9
$MAXACTVP
 70
    16
  9
$PINSBASE
 10
0.0
 20
0.0
 30
0.0
  9
$PLIMCHECK
 70
     0
  9
$PEXTMIN
 10
1.000000E+20
 20
1.000000E+20
 30
1.000000E+20
  9
$PEXTMAX
 10
-1.000000E+20
 20
-1.000000E+20
 30
-1.000000E+20
  9
$PLIMMIN
 10
0.0
 20
0.0
  9
$PLIMMAX
 10
12.0
 20
9.0
  9
$UNITMODE
 70
     0
  9
$VISRETAIN
 70
     0
  9
$PLINEGEN
 70
     0
  9
$PSLTSCALE
 70
     0
  9
$TREEDEPTH
 70
  3020
  9
$DWGCODEPAGE
  3
undefined
  0
ENDSEC
  0
SECTION
  2
TABLES
  0
TABLE
  2
VPORT
 70
     2
  0
VPORT
  2
*ACTIVE
 70
     0
 10
0.0
 20
0.0
 11
1.0
 21
1.0
 12
108.324746
 22
65.383593
 13
0.0
 23
0.0
 14
1.0
 24
1.0
 15
0.0
 25
0.0
 16
0.0
 26
0.0
 36
1.0
 17
0.0
 27
0.0
 37
0.0
 40
263.63555
 41
1.767507
 42
50.0
 43
0.0
 44
0.0
 50
0.0
 51
0.0
 71
     0
 72
   100
 73
     1
 74
     0
 75
     0
 76
     0
 77
     0
 78
     0
  0
ENDTAB
  0
TABLE
  2
LTYPE
 70
     4
  0
LTYPE
  2
CONTINUOUS
 70
    64
  3
Solid line
 72
    65
 73
     0
 40
0.0
  0
LTYPE
  2
CENTER
 70
    64
  3
____ _ ____ _ ____ _ ____ _ ____ _ ____ _ ____
 72
    65
 73
     4
 40
2.0
 49
1.25
 49
-0.25
 49
0.25
 49
-0.25
  0
LTYPE
  2
HIDDEN
 70
     0
  3
_ _ _ _ _ _ _ _ _ _ _ _ _ _ _ _ _ _ _ _ _ _ _
 72
    65
 73
     2
 40
0.375
 49
0.25
 49
-0.125
  0
LTYPE
  2
DASHED
 70
     0
  3
__ __ __ __ __ __ __ __ __ __ __ __ __ __ __
 72
    65
 73
     2
 40
0.75
 49
0.5
 49
-0.25
  0
ENDTAB
  0
TABLE
  2
LAYER
 70
     2
  0
LAYER
  2
0
 70
    64
 62
     7
  6
CONTINUOUS
  0
LAYER
  2
SLASK
 70
     0
 62
     1
  6
CONTINUOUS
  0
ENDTAB
  0
TABLE
  2
STYLE
 70
     3
  0
STYLE
  2
STANDARD
 70
     0
 40
0.0
 41
1.0
 50
0.0
 71
     0
 42
0.2
  3
txt
  4

  0
STYLE
  2
ROMANT
 70
     0
 40
12.0
 41
1.0
 50
0.0
 71
     0
 42
12.0
  3
romant
  4

  0
STYLE
  2
ITALICT
 70
     0
 40
10.0
 41
1.2
 50
0.0
 71
     0
 42
10.0
  3
italict
  4

  0
ENDTAB
  0
TABLE
  2
VIEW
 70
     0
  0
ENDTAB
  0
TABLE
  2
UCS
 70
     0
  0
ENDTAB
  0
TABLE
  2
APPID
 70
     1
  0
APPID
  2
ACAD
 70
    64
  0
ENDTAB
  0
TABLE
  2
DIMSTYLE
 70
     0
  0
ENDTAB
  0
ENDSEC
  0
SECTION
  2
BLOCKS
  0
BLOCK
  8
0
  2
*X0
 70
    65
 10
0.0
 20
0.0
 30
0.0
  3
*X
  0
LINE
  8
0
 62
     0
 10
-29.14197
 20
16.414048
 30
0.0
 11
-31.775948
 21
19.048025
 31
0.0
  0
LINE
  8
0
 62
     0
 10
-29.14197
 20
14.292728
 30
0.0
 11
-32.293855
 21
17.444612
 31
0.0
  0
LINE
  8
0
 62
     0
 10
-29.14197
 20
12.171408
 30
0.0
 11
-32.400011
 21
15.429448
 31
0.0
  0
LINE
  8
0
 62
     0
 10
-29.14197
 20
10.050087
 30
0.0
 11
-32.501026
 21
13.409143
 31
0.0
  0
LINE
  8
0
 62
     0
 10
-29.14197
 20
7.928767
 30
0.0
 11
-32.602042
 21
11.388838
 31
0.0
  0
LINE
  8
0
 62
     0
 10
-29.424785
 20
6.090261
 30
0.0
 11
-32.703057
 21
9.368533
 31
0.0
  0
LINE
  8
0
 62
     0
 10
-30.54197
 20
5.086126
 30
0.0
 11
-32.804072
 21
7.348228
 31
0.0
  0
LINE
  8
0
 62
     0
 10
-30.54197
 20
2.964806
 30
0.0
 11
-32.905087
 21
5.327923
 31
0.0
  0
LINE
  8
0
 62
     0
 10
-32.288746
 20
2.590261
 30
0.0
 11
-33.006103
 21
3.307618
 31
0.0
  0
LINE
  8
0
 62
     0
 10
-29.14197
 20
18.535369
 30
0.0
 11
-31.221354
 21
20.614752
 31
0.0
  0
LINE
  8
0
 62
     0
 10
-27.375542
 20
18.890261
 30
0.0
 11
-30.66676
 21
22.181479
 31
0.0
  0
LINE
  8
0
 62
     0
 10
-25.254222
 20
18.890261
 30
0.0
 11
-30.112167
 21
23.748206
 31
0.0
  0
LINE
  8
0
 62
     0
 10
-24.29197
 20
20.04933
 30
0.0
 11
-25.232902
 21
20.990261
 31
0.0
  0
LINE
  8
0
 62
     0
 10
-25.44197
 20
21.19933
 30
0.0
 11
-29.557573
 21
25.314933
 31
0.0
  0
LINE
  8
0
 62
     0
 10
-25.44197
 20
23.32065
 30
0.0
 11
-29.00298
 21
26.881659
 31
0.0
  0
LINE
  8
0
 62
     0
 10
-25.44197
 20
25.44197
 30
0.0
 11
-28.298496
 21
28.298496
 31
0.0
  0
LINE
  8
0
 62
     0
 10
-25.44197
 20
27.563291
 30
0.0
 11
-26.76894
 21
28.890261
 31
0.0
  0
LINE
  8
0
 62
     0
 10
-32.684382
 20
9.742025
 30
0.0
 11
-29.14197
 21
13.284436
 31
0.0
  0
LINE
  8
0
 62
     0
 10
-32.796031
 20
7.509056
 30
0.0
 11
-29.14197
 21
11.163116
 31
0.0
  0
LINE
  8
0
 62
     0
 10
-32.907679
 20
5.276087
 30
0.0
 11
-29.14197
 21
9.041796
 31
0.0
  0
LINE
  8
0
 62
     0
 10
-33.019328
 20
3.043118
 30
0.0
 11
-30.54197
 21
5.520475
 31
0.0
  0
LINE
  8
0
 62
     0
 10
-29.972185
 20
6.090261
 30
0.0
 11
-29.14197
 21
6.920475
 31
0.0
  0
LINE
  8
0
 62
     0
 10
-31.350865
 20
2.590261
 30
0.0
 11
-30.54197
 21
3.399155
 31
0.0
  0
LINE
  8
0
 62
     0
 10
-32.572734
 20
11.974993
 30
0.0
 11
-29.14197
 21
15.405757
 31
0.0
  0
LINE
  8
0
 62
     0
 10
-25.657466
 20
18.890261
 30
0.0
 11
-24.29197
 21
20.255757
 31
0.0
  0
LINE
  8
0
 62
     0
 10
-32.461085
 20
14.207962
 30
0.0
 11
-29.14197
 21
17.527077
 31
0.0
  0
LINE
  8
0
 62
     0
 10
-27.778787
 20
18.890261
 30
0.0
 11
-25.44197
 21
21.227077
 31
0.0
  0
LINE
  8
0
 62
     0
 10
-32.349437
 20
16.440931
 30
0.0
 11
-25.44197
 21
23.348397
 31
0.0
  0
LINE
  8
0
 62
     0
 10
-31.727884
 20
19.183804
 30
0.0
 11
-25.44197
 21
25.469718
 31
0.0
  0
LINE
  8
0
 62
     0
 10
-30.565517
 20
22.467492
 30
0.0
 11
-25.44197
 21
27.591038
 31
0.0
  0
LINE
  8
0
 62
     0
 10
-29.40315
 20
25.751179
 30
0.0
 11
-26.264068
 21
28.890261
 31
0.0
  0
ENDBLK
  8
0
  0
BLOCK
  8
0
  2
*X1
 70
    65
 10
0.0
 20
0.0
 30
0.0
  3
*X
  0
LINE
  8
0
 62
     0
 10
-25.543997
 20
-21.301357
 30
0.0
 11
-24.633148
 21
-20.390507
 31
0.0
  0
LINE
  8
0
 62
     0
 10
-24.393997
 20
-20.151357
 30
0.0
 11
-21.893997
 21
-17.651357
 31
0.0
  0
LINE
  8
0
 62
     0
 10
-24.393997
 20
-18.737143
 30
0.0
 11
-21.893997
 21
-16.237143
 31
0.0
  0
LINE
  8
0
 62
     0
 10
-24.393997
 20
-17.322929
 30
0.0
 11
-21.893997
 21
-14.822929
 31
0.0
  0
LINE
  8
0
 62
     0
 10
-24.393997
 20
-15.908716
 30
0.0
 11
-21.893997
 21
-13.408716
 31
0.0
  0
LINE
  8
0
 62
     0
 10
-24.393997
 20
-14.494502
 30
0.0
 11
-20.893997
 21
-10.994502
 31
0.0
  0
LINE
  8
0
 62
     0
 10
-24.393997
 20
-13.080289
 30
0.0
 11
-20.893997
 21
-9.580289
 31
0.0
  0
LINE
  8
0
 62
     0
 10
-24.393997
 20
-11.666075
 30
0.0
 11
-20.893997
 21
-8.166075
 31
0.0
  0
LINE
  8
0
 62
     0
 10
-24.393997
 20
-10.251862
 30
0.0
 11
-24.032643
 21
-9.890507
 31
0.0
  0
LINE
  8
0
 62
     0
 10
-22.693997
 20
-8.551862
 30
0.0
 11
-21.032643
 21
-6.890507
 31
0.0
  0
LINE
  8
0
 62
     0
 10
-22.693997
 20
-7.137648
 30
0.0
 11
-22.446856
 21
-6.890507
 31
0.0
  0
LINE
  8
0
 62
     0
 10
-25.543997
 20
-22.71557
 30
0.0
 11
-21.893997
 21
-19.06557
 31
0.0
  0
LINE
  8
0
 62
     0
 10
-24.704721
 20
-23.290507
 30
0.0
 11
-21.893997
 21
-20.479784
 31
0.0
  0
LINE
  8
0
 62
     0
 10
-24.393997
 20
-24.393997
 30
0.0
 11
-21.893997
 21
-21.893997
 31
0.0
  0
LINE
  8
0
 62
     0
 10
-24.193997
 20
-25.608211
 30
0.0
 11
-21.893997
 21
-23.308211
 31
0.0
  0
LINE
  8
0
 62
     0
 10
-24.193997
 20
-27.022424
 30
0.0
 11
-21.893997
 21
-24.722424
 31
0.0
  0
LINE
  8
0
 62
     0
 10
-24.193997
 20
-28.436638
 30
0.0
 11
-21.893997
 21
-26.136638
 31
0.0
  0
LINE
  8
0
 62
     0
 10
-24.193997
 20
-29.850851
 30
0.0
 11
-21.893997
 21
-27.550851
 31
0.0
  0
LINE
  8
0
 62
     0
 10
-23.819439
 20
-30.890507
 30
0.0
 11
-21.893997
 21
-28.965065
 31
0.0
  0
LINE
  8
0
 62
     0
 10
-22.405226
 20
-30.890507
 30
0.0
 11
-21.893997
 21
-30.379279
 31
0.0
  0
LINE
  8
0
 62
     0
 10
-21.893997
 20
-19.118196
 30
0.0
 11
-24.393997
 21
-16.618196
 31
0.0
  0
LINE
  8
0
 62
     0
 10
-21.893997
 20
-20.53241
 30
0.0
 11
-24.393997
 21
-18.03241
 31
0.0
  0
LINE
  8
0
 62
     0
 10
-21.893997
 20
-21.946623
 30
0.0
 11
-24.393997
 21
-19.446623
 31
0.0
  0
LINE
  8
0
 62
     0
 10
-21.893997
 20
-23.360837
 30
0.0
 11
-24.864327
 21
-20.390507
 31
0.0
  0
LINE
  8
0
 62
     0
 10
-21.893997
 20
-24.77505
 30
0.0
 11
-25.543997
 21
-21.12505
 31
0.0
  0
LINE
  8
0
 62
     0
 10
-21.893997
 20
-26.189264
 30
0.0
 11
-24.393997
 21
-23.689264
 31
0.0
  0
LINE
  8
0
 62
     0
 10
-24.792754
 20
-23.290507
 30
0.0
 11
-25.543997
 21
-22.539264
 31
0.0
  0
LINE
  8
0
 62
     0
 10
-21.893997
 20
-27.603477
 30
0.0
 11
-24.193997
 21
-25.303477
 31
0.0
  0
LINE
  8
0
 62
     0
 10
-21.893997
 20
-29.017691
 30
0.0
 11
-24.193997
 21
-26.717691
 31
0.0
  0
LINE
  8
0
 62
     0
 10
-21.893997
 20
-30.431905
 30
0.0
 11
-24.193997
 21
-28.131905
 31
0.0
  0
LINE
  8
0
 62
     0
 10
-22.849608
 20
-30.890507
 30
0.0
 11
-24.193997
 21
-29.546118
 31
0.0
  0
LINE
  8
0
 62
     0
 10
-21.893997
 20
-17.703983
 30
0.0
 11
-24.393997
 21
-15.203983
 31
0.0
  0
LINE
  8
0
 62
     0
 10
-21.893997
 20
-16.289769
 30
0.0
 11
-24.393997
 21
-13.789769
 31
0.0
  0
LINE
  8
0
 62
     0
 10
-21.893997
 20
-14.875555
 30
0.0
 11
-24.393997
 21
-12.375555
 31
0.0
  0
LINE
  8
0
 62
     0
 10
-21.893997
 20
-13.461342
 30
0.0
 11
-24.393997
 21
-10.961342
 31
0.0
  0
LINE
  8
0
 62
     0
 10
-21.822308
 20
-12.118818
 30
0.0
 11
-24.050619
 21
-9.890507
 31
0.0
  0
LINE
  8
0
 62
     0
 10
-21.115201
 20
-11.411711
 30
0.0
 11
-22.693997
 21
-9.832915
 31
0.0
  0
LINE
  8
0
 62
     0
 10
-20.893997
 20
-10.218701
 30
0.0
 11
-22.693997
 21
-8.418701
 31
0.0
  0
LINE
  8
0
 62
     0
 10
-20.893997
 20
-8.804488
 30
0.0
 11
-22.693997
 21
-7.004488
 31
0.0
  0
LINE
  8
0
 62
     0
 10
-20.893997
 20
-7.390274
 30
0.0
 11
-21.393764
 21
-6.890507
 31
0.0
  0
ENDBLK
  8
0
  0
BLOCK
  8
0
  2
*X2
 70
    65
 10
0.0
 20
0.0
 30
0.0
  3
*X
  0
LINE
  8
0
 62
     0
 10
-106.176647
 20
142.017833
 30
0.0
 11
-103.875575
 21
144.318905
 31
0.0
  0
LINE
  8
0
 62
     0
 10
-100.702414
 20
147.492066
 30
0.0
 11
-100.625575
 21
147.568905
 31
0.0
  0
LINE
  8
0
 62
     0
 10
-106.097428
 20
144.218373
 30
0.0
 11
-103.875575
 21
146.440226
 31
0.0
  0
LINE
  8
0
 62
     0
 10
-102.823735
 20
147.492066
 30
0.0
 11
-101.023735
 21
149.292066
 31
0.0
  0
LINE
  8
0
 62
     0
 10
-106.018208
 20
146.418912
 30
0.0
 11
-101.875575
 21
150.561546
 31
0.0
  0
LINE
  8
0
 62
     0
 10
-105.938989
 20
148.619452
 30
0.0
 11
-101.875575
 21
152.682866
 31
0.0
  0
LINE
  8
0
 62
     0
 10
-104.839824
 20
151.839938
 30
0.0
 11
-101.875575
 21
154.804187
 31
0.0
  0
LINE
  8
0
 62
     0
 10
-103.532748
 20
155.268334
 30
0.0
 11
-101.875575
 21
156.925507
 31
0.0
  0
LINE
  8
0
 62
     0
 10
-106.255867
 20
139.817293
 30
0.0
 11
-103.875575
 21
142.197585
 31
0.0
  0
LINE
  8
0
 62
     0
 10
-106.335086
 20
137.616753
 30
0.0
 11
-103.875575
 21
140.076265
 31
0.0
  0
LINE
  8
0
 62
     0
 10
-105.338453
 20
136.492066
 30
0.0
 11
-103.875575
 21
137.954944
 31
0.0
  0
LINE
  8
0
 62
     0
 10
-103.875575
 20
146.301982
 30
0.0
 11
-105.947817
 21
148.374224
 31
0.0
  0
LINE
  8
0
 62
     0
 10
-103.875575
 20
144.180661
 30
0.0
 11
-106.021531
 21
146.326618
 31
0.0
  0
LINE
  8
0
 62
     0
 10
-103.875575
 20
142.059341
 30
0.0
 11
-106.095245
 21
144.279011
 31
0.0
  0
LINE
  8
0
 62
     0
 10
-103.875575
 20
139.938021
 30
0.0
 11
-106.168959
 21
142.231405
 31
0.0
  0
LINE
  8
0
 62
     0
 10
-103.875575
 20
137.8167
 30
0.0
 11
-106.242673
 21
140.183798
 31
0.0
  0
LINE
  8
0
 62
     0
 10
-104.672261
 20
136.492066
 30
0.0
 11
-106.316386
 21
138.136192
 31
0.0
  0
LINE
  8
0
 62
     0
 10
-102.944339
 20
147.492066
 30
0.0
 11
-105.516727
 21
150.064454
 31
0.0
  0
LINE
  8
0
 62
     0
 10
-100.823018
 20
147.492066
 30
0.0
 11
-104.931204
 21
151.600252
 31
0.0
  0
LINE
  8
0
 62
     0
 10
-101.875575
 20
150.665943
 30
0.0
 11
-104.345681
 21
153.136049
 31
0.0
  0
LINE
  8
0
 62
     0
 10
-101.875575
 20
152.787263
 30
0.0
 11
-103.760158
 21
154.671847
 31
0.0
  0
LINE
  8
0
 62
     0
 10
-101.875575
 20
154.908584
 30
0.0
 11
-103.174636
 21
156.207644
 31
0.0
  0
ENDBLK
  8
0
  0
BLOCK
  8
0
  2
*X3
 70
    65
 10
0.0
 20
0.0
 30
0.0
  3
*X
  0
LINE
  8
0
 62
     0
 10
-83.907581
 20
136.709734
 30
0.0
 11
-82.107581
 21
138.509734
 31
0.0
  0
LINE
  8
0
 62
     0
 10
-83.907581
 20
138.123948
 30
0.0
 11
-82.107581
 21
139.923948
 31
0.0
  0
LINE
  8
0
 62
     0
 10
-83.907581
 20
139.538161
 30
0.0
 11
-81.521509
 21
141.924234
 31
0.0
  0
LINE
  8
0
 62
     0
 10
-83.907581
 20
140.952375
 30
0.0
 11
-81.107581
 21
143.752375
 31
0.0
  0
LINE
  8
0
 62
     0
 10
-83.907581
 20
142.366589
 30
0.0
 11
-81.107581
 21
145.166589
 31
0.0
  0
LINE
  8
0
 62
     0
 10
-83.907581
 20
143.780802
 30
0.0
 11
-83.196318
 21
144.492066
 31
0.0
  0
LINE
  8
0
 62
     0
 10
-82.707581
 20
144.980802
 30
0.0
 11
-81.107581
 21
146.580802
 31
0.0
  0
LINE
  8
0
 62
     0
 10
-82.707581
 20
146.395016
 30
0.0
 11
-81.610531
 21
147.492066
 31
0.0
  0
LINE
  8
0
 62
     0
 10
-83.907581
 20
135.295521
 30
0.0
 11
-82.107581
 21
137.095521
 31
0.0
  0
LINE
  8
0
 62
     0
 10
-83.907581
 20
133.881307
 30
0.0
 11
-82.107581
 21
135.681307
 31
0.0
  0
LINE
  8
0
 62
     0
 10
-83.907581
 20
132.467094
 30
0.0
 11
-82.107581
 21
134.267094
 31
0.0
  0
LINE
  8
0
 62
     0
 10
-83.907581
 20
131.05288
 30
0.0
 11
-82.107581
 21
132.85288
 31
0.0
  0
LINE
  8
0
 62
     0
 10
-83.054182
 20
130.492066
 30
0.0
 11
-82.107581
 21
131.438667
 31
0.0
  0
LINE
  8
0
 62
     0
 10
-82.107581
 20
137.26191
 30
0.0
 11
-83.907581
 21
139.06191
 31
0.0
  0
LINE
  8
0
 62
     0
 10
-82.107581
 20
135.847697
 30
0.0
 11
-83.907581
 21
137.647697
 31
0.0
  0
LINE
  8
0
 62
     0
 10
-82.107581
 20
134.433483
 30
0.0
 11
-83.907581
 21
136.233483
 31
0.0
  0
LINE
  8
0
 62
     0
 10
-82.107581
 20
133.01927
 30
0.0
 11
-83.907581
 21
134.81927
 31
0.0
  0
LINE
  8
0
 62
     0
 10
-82.107581
 20
131.605056
 30
0.0
 11
-83.907581
 21
133.405056
 31
0.0
  0
LINE
  8
0
 62
     0
 10
-82.408805
 20
130.492066
 30
0.0
 11
-83.907581
 21
131.990843
 31
0.0
  0
LINE
  8
0
 62
     0
 10
-83.823018
 20
130.492066
 30
0.0
 11
-83.907581
 21
130.576629
 31
0.0
  0
LINE
  8
0
 62
     0
 10
-82.107581
 20
138.676124
 30
0.0
 11
-83.907581
 21
140.476124
 31
0.0
  0
LINE
  8
0
 62
     0
 10
-82.107581
 20
140.090337
 30
0.0
 11
-83.907581
 21
141.890337
 31
0.0
  0
LINE
  8
0
 62
     0
 10
-81.926839
 20
141.323809
 30
0.0
 11
-83.907581
 21
143.304551
 31
0.0
  0
LINE
  8
0
 62
     0
 10
-81.356896
 20
142.168079
 30
0.0
 11
-83.680883
 21
144.492066
 31
0.0
  0
LINE
  8
0
 62
     0
 10
-81.107581
 20
143.332978
 30
0.0
 11
-82.707581
 21
144.932978
 31
0.0
  0
LINE
  8
0
 62
     0
 10
-81.107581
 20
144.747192
 30
0.0
 11
-82.707581
 21
146.347192
 31
0.0
  0
LINE
  8
0
 62
     0
 10
-81.107581
 20
146.161405
 30
0.0
 11
-82.438242
 21
147.492066
 31
0.0
  0
ENDBLK
  8
0
  0
BLOCK
  8
0
  2
*X4
 70
    65
 10
0.0
 20
0.0
 30
0.0
  3
*X
  0
LINE
  8
0
 62
     0
 10
-0.677083
 20
202.96967
 30
0.0
 11
0.07107
 21
203.717823
 31
0.0
  0
LINE
  8
0
 62
     0
 10
0.522917
 20
204.16967
 30
0.0
 11
2.822917
 21
206.46967
 31
0.0
  0
LINE
  8
0
 62
     0
 10
0.522917
 20
205.583884
 30
0.0
 11
2.822917
 21
207.883884
 31
0.0
  0
LINE
  8
0
 62
     0
 10
0.522917
 20
206.998098
 30
0.0
 11
2.822917
 21
209.298098
 31
0.0
  0
LINE
  8
0
 62
     0
 10
0.522917
 20
208.412311
 30
0.0
 11
2.822917
 21
210.712311
 31
0.0
  0
LINE
  8
0
 62
     0
 10
0.522917
 20
209.826525
 30
0.0
 11
2.822917
 21
212.126525
 31
0.0
  0
LINE
  8
0
 62
     0
 10
0.522917
 20
211.240738
 30
0.0
 11
2.822917
 21
213.540738
 31
0.0
  0
LINE
  8
0
 62
     0
 10
0.522917
 20
212.654952
 30
0.0
 11
3.822917
 21
215.954952
 31
0.0
  0
LINE
  8
0
 62
     0
 10
0.522917
 20
214.069165
 30
0.0
 11
3.822917
 21
217.369165
 31
0.0
  0
LINE
  8
0
 62
     0
 10
0.522917
 20
215.483379
 30
0.0
 11
1.257362
 21
216.217823
 31
0.0
  0
LINE
  8
0
 62
     0
 10
2.122917
 20
217.083379
 30
0.0
 11
3.822917
 21
218.783379
 31
0.0
  0
LINE
  8
0
 62
     0
 10
2.122917
 20
218.497593
 30
0.0
 11
3.822917
 21
220.197593
 31
0.0
  0
LINE
  8
0
 62
     0
 10
2.122917
 20
219.911806
 30
0.0
 11
2.428935
 21
220.217823
 31
0.0
  0
LINE
  8
0
 62
     0
 10
-0.677083
 20
201.555457
 30
0.0
 11
2.822917
 21
205.055457
 31
0.0
  0
LINE
  8
0
 62
     0
 10
-0.177083
 20
200.641243
 30
0.0
 11
2.822917
 21
203.641243
 31
0.0
  0
LINE
  8
0
 62
     0
 10
-0.177083
 20
199.22703
 30
0.0
 11
2.822917
 21
202.22703
 31
0.0
  0
LINE
  8
0
 62
     0
 10
0.322917
 20
198.312816
 30
0.0
 11
2.822917
 21
200.812816
 31
0.0
  0
LINE
  8
0
 62
     0
 10
0.322917
 20
196.898603
 30
0.0
 11
2.822917
 21
199.398603
 31
0.0
  0
LINE
  8
0
 62
     0
 10
0.322917
 20
195.484389
 30
0.0
 11
2.822917
 21
197.984389
 31
0.0
  0
LINE
  8
0
 62
     0
 10
0.322917
 20
194.070176
 30
0.0
 11
2.822917
 21
196.570176
 31
0.0
  0
LINE
  8
0
 62
     0
 10
0.322917
 20
192.655962
 30
0.0
 11
2.822917
 21
195.155962
 31
0.0
  0
LINE
  8
0
 62
     0
 10
0.322917
 20
191.241748
 30
0.0
 11
2.822917
 21
193.741748
 31
0.0
  0
LINE
  8
0
 62
     0
 10
1.213206
 20
190.717823
 30
0.0
 11
2.822917
 21
192.327535
 31
0.0
  0
LINE
  8
0
 62
     0
 10
2.627419
 20
190.717823
 30
0.0
 11
2.822917
 21
190.913321
 31
0.0
  0
LINE
  8
0
 62
     0
 10
2.822917
 20
203.652263
 30
0.0
 11
0.522917
 21
205.952263
 31
0.0
  0
LINE
  8
0
 62
     0
 10
2.822917
 20
202.238049
 30
0.0
 11
0.522917
 21
204.538049
 31
0.0
  0
LINE
  8
0
 62
     0
 10
2.822917
 20
200.823835
 30
0.0
 11
-0.07107
 21
203.717823
 31
0.0
  0
LINE
  8
0
 62
     0
 10
2.822917
 20
199.409622
 30
0.0
 11
-0.677083
 21
202.909622
 31
0.0
  0
LINE
  8
0
 62
     0
 10
2.822917
 20
197.995408
 30
0.0
 11
-0.677083
 21
201.495408
 31
0.0
  0
LINE
  8
0
 62
     0
 10
2.822917
 20
196.581195
 30
0.0
 11
0.322917
 21
199.081195
 31
0.0
  0
LINE
  8
0
 62
     0
 10
0.186289
 20
199.217823
 30
0.0
 11
-0.177083
 21
199.581195
 31
0.0
  0
LINE
  8
0
 62
     0
 10
2.822917
 20
195.166981
 30
0.0
 11
0.322917
 21
197.666981
 31
0.0
  0
LINE
  8
0
 62
     0
 10
2.822917
 20
193.752768
 30
0.0
 11
0.322917
 21
196.252768
 31
0.0
  0
LINE
  8
0
 62
     0
 10
2.822917
 20
192.338554
 30
0.0
 11
0.322917
 21
194.838554
 31
0.0
  0
LINE
  8
0
 62
     0
 10
2.822917
 20
190.924341
 30
0.0
 11
0.322917
 21
193.424341
 31
0.0
  0
LINE
  8
0
 62
     0
 10
1.615221
 20
190.717823
 30
0.0
 11
0.322917
 21
192.010127
 31
0.0
  0
LINE
  8
0
 62
     0
 10
2.822917
 20
205.066476
 30
0.0
 11
0.522917
 21
207.366476
 31
0.0
  0
LINE
  8
0
 62
     0
 10
2.822917
 20
206.48069
 30
0.0
 11
0.522917
 21
208.78069
 31
0.0
  0
LINE
  8
0
 62
     0
 10
2.822917
 20
207.894903
 30
0.0
 11
0.522917
 21
210.194903
 31
0.0
  0
LINE
  8
0
 62
     0
 10
2.822917
 20
209.309117
 30
0.0
 11
0.522917
 21
211.609117
 31
0.0
  0
LINE
  8
0
 62
     0
 10
2.822917
 20
210.72333
 30
0.0
 11
0.522917
 21
213.02333
 31
0.0
  0
LINE
  8
0
 62
     0
 10
2.822917
 20
212.137544
 30
0.0
 11
0.522917
 21
214.437544
 31
0.0
  0
LINE
  8
0
 62
     0
 10
2.822917
 20
213.551758
 30
0.0
 11
0.522917
 21
215.851758
 31
0.0
  0
LINE
  8
0
 62
     0
 10
3.410095
 20
214.378794
 30
0.0
 11
1.571065
 21
216.217823
 31
0.0
  0
LINE
  8
0
 62
     0
 10
3.822917
 20
215.380185
 30
0.0
 11
2.122917
 21
217.080185
 31
0.0
  0
LINE
  8
0
 62
     0
 10
3.822917
 20
216.794398
 30
0.0
 11
2.122917
 21
218.494398
 31
0.0
  0
LINE
  8
0
 62
     0
 10
3.822917
 20
218.208612
 30
0.0
 11
2.122917
 21
219.908612
 31
0.0
  0
LINE
  8
0
 62
     0
 10
3.822917
 20
219.622825
 30
0.0
 11
3.22792
 21
220.217823
 31
0.0
  0
ENDBLK
  8
0
  0
BLOCK
  8
0
  2
*X5
 70
    65
 10
0.0
 20
0.0
 30
0.0
  3
*X
  0
LINE
  8
0
 62
     0
 10
-18.114003
 20
210.988594
 30
0.0
 11
-14.57348
 21
214.529117
 31
0.0
  0
LINE
  8
0
 62
     0
 10
-18.037064
 20
213.186853
 30
0.0
 11
-14.57348
 21
216.650437
 31
0.0
  0
LINE
  8
0
 62
     0
 10
-10.006094
 20
221.217823
 30
0.0
 11
-9.07348
 21
222.150437
 31
0.0
  0
LINE
  8
0
 62
     0
 10
-17.960125
 20
215.385113
 30
0.0
 11
-14.57348
 21
218.771757
 31
0.0
  0
LINE
  8
0
 62
     0
 10
-12.127415
 20
221.217823
 30
0.0
 11
-9.627415
 21
223.717823
 31
0.0
  0
LINE
  8
0
 62
     0
 10
-17.883186
 20
217.583372
 30
0.0
 11
-14.57348
 21
220.893078
 31
0.0
  0
LINE
  8
0
 62
     0
 10
-14.248735
 20
221.217823
 30
0.0
 11
-10.27348
 21
225.193078
 31
0.0
  0
LINE
  8
0
 62
     0
 10
-17.806247
 20
219.781631
 30
0.0
 11
-10.27348
 21
227.314398
 31
0.0
  0
LINE
  8
0
 62
     0
 10
-17.083829
 20
222.62537
 30
0.0
 11
-10.27348
 21
229.435718
 31
0.0
  0
LINE
  8
0
 62
     0
 10
-15.882599
 20
225.94792
 30
0.0
 11
-10.27348
 21
231.557039
 31
0.0
  0
LINE
  8
0
 62
     0
 10
-14.68137
 20
229.27047
 30
0.0
 11
-10.234016
 21
233.717823
 31
0.0
  0
LINE
  8
0
 62
     0
 10
-13.456506
 20
232.616654
 30
0.0
 11
-12.568691
 21
233.504469
 31
0.0
  0
LINE
  8
0
 62
     0
 10
-18.190942
 20
208.790334
 30
0.0
 11
-14.57348
 21
212.407796
 31
0.0
  0
LINE
  8
0
 62
     0
 10
-18.267882
 20
206.592075
 30
0.0
 11
-14.57348
 21
210.286476
 31
0.0
  0
LINE
  8
0
 62
     0
 10
-18.344821
 20
204.393815
 30
0.0
 11
-14.57348
 21
208.165156
 31
0.0
  0
LINE
  8
0
 62
     0
 10
-18.42176
 20
202.195556
 30
0.0
 11
-16.07348
 21
204.543835
 31
0.0
  0
LINE
  8
0
 62
     0
 10
-15.899493
 20
204.717823
 30
0.0
 11
-14.57348
 21
206.043835
 31
0.0
  0
LINE
  8
0
 62
     0
 10
-17.778172
 20
200.717823
 30
0.0
 11
-16.07348
 21
202.422515
 31
0.0
  0
LINE
  8
0
 62
     0
 10
-14.57348
 20
216.098913
 30
0.0
 11
-17.821463
 21
219.346895
 31
0.0
  0
LINE
  8
0
 62
     0
 10
-14.57348
 20
213.977593
 30
0.0
 11
-17.893198
 21
217.297311
 31
0.0
  0
LINE
  8
0
 62
     0
 10
-14.57348
 20
211.856272
 30
0.0
 11
-17.964934
 21
215.247726
 31
0.0
  0
LINE
  8
0
 62
     0
 10
-14.57348
 20
209.734952
 30
0.0
 11
-18.036669
 21
213.198141
 31
0.0
  0
LINE
  8
0
 62
     0
 10
-14.57348
 20
207.613632
 30
0.0
 11
-18.108405
 21
211.148556
 31
0.0
  0
LINE
  8
0
 62
     0
 10
-14.57348
 20
205.492311
 30
0.0
 11
-18.18014
 21
209.098971
 31
0.0
  0
LINE
  8
0
 62
     0
 10
-15.920313
 20
204.717823
 30
0.0
 11
-18.251876
 21
207.049386
 31
0.0
  0
LINE
  8
0
 62
     0
 10
-16.07348
 20
202.749671
 30
0.0
 11
-18.323611
 21
204.999801
 31
0.0
  0
LINE
  8
0
 62
     0
 10
-16.162953
 20
200.717823
 30
0.0
 11
-18.395347
 21
202.950217
 31
0.0
  0
LINE
  8
0
 62
     0
 10
-18.284274
 20
200.717823
 30
0.0
 11
-18.467082
 21
200.900632
 31
0.0
  0
LINE
  8
0
 62
     0
 10
-14.57348
 20
218.220233
 30
0.0
 11
-17.586965
 21
221.233718
 31
0.0
  0
LINE
  8
0
 62
     0
 10
-14.57348
 20
220.341554
 30
0.0
 11
-17.023676
 21
222.79175
 31
0.0
  0
LINE
  8
0
 62
     0
 10
-13.32843
 20
221.217823
 30
0.0
 11
-16.460388
 21
224.349781
 31
0.0
  0
LINE
  8
0
 62
     0
 10
-11.207109
 20
221.217823
 30
0.0
 11
-15.897099
 21
225.907813
 31
0.0
  0
LINE
  8
0
 62
     0
 10
-9.085789
 20
221.217823
 30
0.0
 11
-15.333811
 21
227.465845
 31
0.0
  0
LINE
  8
0
 62
     0
 10
-9.07348
 20
223.326835
 30
0.0
 11
-9.464469
 21
223.717823
 31
0.0
  0
LINE
  8
0
 62
     0
 10
-10.27348
 20
224.526835
 30
0.0
 11
-14.770522
 21
229.023877
 31
0.0
  0
LINE
  8
0
 62
     0
 10
-10.27348
 20
226.648155
 30
0.0
 11
-14.207234
 21
230.581909
 31
0.0
  0
LINE
  8
0
 62
     0
 10
-10.27348
 20
228.769476
 30
0.0
 11
-13.643946
 21
232.139941
 31
0.0
  0
LINE
  8
0
 62
     0
 10
-10.27348
 20
230.890796
 30
0.0
 11
-12.770449
 21
233.387765
 31
0.0
  0
LINE
  8
0
 62
     0
 10
-10.27348
 20
233.012116
 30
0.0
 11
-10.979187
 21
233.717823
 31
0.0
  0
ENDBLK
  8
0
  0
BLOCK
  8
0
  2
*X6
 70
    65
 10
0.0
 20
0.0
 30
0.0
  3
*X
  0
LINE
  8
0
 62
     0
 10
241.065848
 20
221.266858
 30
0.0
 11
245.107741
 21
225.308751
 31
0.0
  0
LINE
  8
0
 62
     0
 10
250.032104
 20
230.233114
 30
0.0
 11
252.232104
 21
232.433114
 31
0.0
  0
LINE
  8
0
 62
     0
 10
241.149037
 20
224.178475
 30
0.0
 11
245.107741
 21
228.137179
 31
0.0
  0
LINE
  8
0
 62
     0
 10
247.203677
 20
230.233114
 30
0.0
 11
252.007741
 21
235.037179
 31
0.0
  0
LINE
  8
0
 62
     0
 10
241.232226
 20
227.090091
 30
0.0
 11
252.007741
 21
237.865606
 31
0.0
  0
LINE
  8
0
 62
     0
 10
241.448462
 20
230.134753
 30
0.0
 11
252.007741
 21
240.694033
 31
0.0
  0
LINE
  8
0
 62
     0
 10
242.973905
 20
234.488624
 30
0.0
 11
252.007741
 21
243.52246
 31
0.0
  0
LINE
  8
0
 62
     0
 10
244.499349
 20
238.842495
 30
0.0
 11
250.089968
 21
244.433114
 31
0.0
  0
LINE
  8
0
 62
     0
 10
246.024793
 20
243.196366
 30
0.0
 11
247.233554
 21
244.405127
 31
0.0
  0
LINE
  8
0
 62
     0
 10
240.982659
 20
218.355242
 30
0.0
 11
245.107741
 21
222.480324
 31
0.0
  0
LINE
  8
0
 62
     0
 10
252.860531
 20
230.233114
 30
0.0
 11
253.507741
 21
230.880324
 31
0.0
  0
LINE
  8
0
 62
     0
 10
240.89947
 20
215.443626
 30
0.0
 11
245.107741
 21
219.651897
 31
0.0
  0
LINE
  8
0
 62
     0
 10
240.816281
 20
212.53201
 30
0.0
 11
245.107741
 21
216.82347
 31
0.0
  0
LINE
  8
0
 62
     0
 10
240.733092
 20
209.620394
 30
0.0
 11
245.107741
 21
213.995043
 31
0.0
  0
LINE
  8
0
 62
     0
 10
240.649903
 20
206.708778
 30
0.0
 11
243.107741
 21
209.166616
 31
0.0
  0
LINE
  8
0
 62
     0
 10
243.87424
 20
209.933114
 30
0.0
 11
245.107741
 21
211.166616
 31
0.0
  0
LINE
  8
0
 62
     0
 10
242.002667
 20
205.233114
 30
0.0
 11
243.107741
 21
206.338189
 31
0.0
  0
LINE
  8
0
 62
     0
 10
245.107741
 20
224.411161
 30
0.0
 11
241.265465
 21
228.253438
 31
0.0
  0
LINE
  8
0
 62
     0
 10
245.107741
 20
221.582734
 30
0.0
 11
241.186897
 21
225.503578
 31
0.0
  0
LINE
  8
0
 62
     0
 10
245.107741
 20
218.754307
 30
0.0
 11
241.10833
 21
222.753718
 31
0.0
  0
LINE
  8
0
 62
     0
 10
245.107741
 20
215.92588
 30
0.0
 11
241.029763
 21
220.003859
 31
0.0
  0
LINE
  8
0
 62
     0
 10
245.107741
 20
213.097453
 30
0.0
 11
240.951195
 21
217.253999
 31
0.0
  0
LINE
  8
0
 62
     0
 10
245.107741
 20
210.269026
 30
0.0
 11
240.872628
 21
214.504139
 31
0.0
  0
LINE
  8
0
 62
     0
 10
243.107741
 20
209.440599
 30
0.0
 11
240.79406
 21
211.75428
 31
0.0
  0
LINE
  8
0
 62
     0
 10
243.107741
 20
206.612171
 30
0.0
 11
240.715493
 21
209.00442
 31
0.0
  0
LINE
  8
0
 62
     0
 10
241.658372
 20
205.233114
 30
0.0
 11
240.636926
 21
206.25456
 31
0.0
  0
LINE
  8
0
 62
     0
 10
245.107741
 20
227.239588
 30
0.0
 11
241.646719
 21
230.700611
 31
0.0
  0
LINE
  8
0
 62
     0
 10
245.107741
 20
230.068016
 30
0.0
 11
242.380581
 21
232.795176
 31
0.0
  0
LINE
  8
0
 62
     0
 10
247.77107
 20
230.233114
 30
0.0
 11
243.114443
 21
234.889741
 31
0.0
  0
LINE
  8
0
 62
     0
 10
250.599497
 20
230.233114
 30
0.0
 11
243.848305
 21
236.984306
 31
0.0
  0
LINE
  8
0
 62
     0
 10
253.427924
 20
230.233114
 30
0.0
 11
244.582167
 21
239.078871
 31
0.0
  0
LINE
  8
0
 62
     0
 10
252.007741
 20
234.481724
 30
0.0
 11
245.316029
 21
241.173436
 31
0.0
  0
LINE
  8
0
 62
     0
 10
252.007741
 20
237.310151
 30
0.0
 11
246.049892
 21
243.268001
 31
0.0
  0
LINE
  8
0
 62
     0
 10
252.007741
 20
240.138578
 30
0.0
 11
247.713206
 21
244.433114
 31
0.0
  0
LINE
  8
0
 62
     0
 10
252.007741
 20
242.967005
 30
0.0
 11
250.541633
 21
244.433114
 31
0.0
  0
ENDBLK
  8
0
  0
BLOCK
  8
0
  2
*X7
 70
    65
 10
0.0
 20
0.0
 30
0.0
  3
*X
  0
LINE
  8
0
 62
     0
 10
245.507741
 20
156.412287
 30
0.0
 11
247.507741
 21
158.412287
 31
0.0
  0
LINE
  8
0
 62
     0
 10
245.507741
 20
157.8265
 30
0.0
 11
247.507741
 21
159.8265
 31
0.0
  0
LINE
  8
0
 62
     0
 10
245.507741
 20
159.240714
 30
0.0
 11
247.507741
 21
161.240714
 31
0.0
  0
LINE
  8
0
 62
     0
 10
245.507741
 20
160.654928
 30
0.0
 11
247.507741
 21
162.654928
 31
0.0
  0
LINE
  8
0
 62
     0
 10
245.507741
 20
162.069141
 30
0.0
 11
247.507741
 21
164.069141
 31
0.0
  0
LINE
  8
0
 62
     0
 10
245.507741
 20
163.483355
 30
0.0
 11
247.507741
 21
165.483355
 31
0.0
  0
LINE
  8
0
 62
     0
 10
245.507741
 20
164.897568
 30
0.0
 11
248.507741
 21
167.897568
 31
0.0
  0
LINE
  8
0
 62
     0
 10
245.507741
 20
166.311782
 30
0.0
 11
248.507741
 21
169.311782
 31
0.0
  0
LINE
  8
0
 62
     0
 10
245.507741
 20
167.725995
 30
0.0
 11
248.507741
 21
170.725995
 31
0.0
  0
LINE
  8
0
 62
     0
 10
245.507741
 20
169.140209
 30
0.0
 11
245.519292
 21
169.15176
 31
0.0
  0
LINE
  8
0
 62
     0
 10
246.907741
 20
170.540209
 30
0.0
 11
248.507741
 21
172.140209
 31
0.0
  0
LINE
  8
0
 62
     0
 10
246.907741
 20
171.954423
 30
0.0
 11
248.507741
 21
173.554423
 31
0.0
  0
LINE
  8
0
 62
     0
 10
246.907741
 20
173.368636
 30
0.0
 11
247.290865
 21
173.75176
 31
0.0
  0
LINE
  8
0
 62
     0
 10
243.857741
 20
153.348073
 30
0.0
 11
244.061428
 21
153.55176
 31
0.0
  0
LINE
  8
0
 62
     0
 10
245.507741
 20
154.998073
 30
0.0
 11
247.507741
 21
156.998073
 31
0.0
  0
LINE
  8
0
 62
     0
 10
243.857741
 20
151.93386
 30
0.0
 11
245.475641
 21
153.55176
 31
0.0
  0
LINE
  8
0
 62
     0
 10
245.507741
 20
153.58386
 30
0.0
 11
247.507741
 21
155.58386
 31
0.0
  0
LINE
  8
0
 62
     0
 10
243.857741
 20
150.519646
 30
0.0
 11
247.507741
 21
154.169646
 31
0.0
  0
LINE
  8
0
 62
     0
 10
244.104068
 20
149.35176
 30
0.0
 11
247.507741
 21
152.755433
 31
0.0
  0
LINE
  8
0
 62
     0
 10
245.507741
 20
149.341219
 30
0.0
 11
247.507741
 21
151.341219
 31
0.0
  0
LINE
  8
0
 62
     0
 10
245.507741
 20
147.927006
 30
0.0
 11
247.507741
 21
149.927006
 31
0.0
  0
LINE
  8
0
 62
     0
 10
245.507741
 20
146.512792
 30
0.0
 11
247.507741
 21
148.512792
 31
0.0
  0
LINE
  8
0
 62
     0
 10
245.507741
 20
145.098578
 30
0.0
 11
247.507741
 21
147.098578
 31
0.0
  0
LINE
  8
0
 62
     0
 10
245.507741
 20
143.684365
 30
0.0
 11
247.507741
 21
145.684365
 31
0.0
  0
LINE
  8
0
 62
     0
 10
245.507741
 20
142.270151
 30
0.0
 11
247.507741
 21
144.270151
 31
0.0
  0
LINE
  8
0
 62
     0
 10
245.507741
 20
140.855938
 30
0.0
 11
247.507741
 21
142.855938
 31
0.0
  0
LINE
  8
0
 62
     0
 10
245.507741
 20
139.441724
 30
0.0
 11
247.507741
 21
141.441724
 31
0.0
  0
LINE
  8
0
 62
     0
 10
245.831991
 20
138.35176
 30
0.0
 11
247.507741
 21
140.027511
 31
0.0
  0
LINE
  8
0
 62
     0
 10
247.246204
 20
138.35176
 30
0.0
 11
247.507741
 21
138.613297
 31
0.0
  0
LINE
  8
0
 62
     0
 10
247.507741
 20
154.12891
 30
0.0
 11
245.507741
 21
156.12891
 31
0.0
  0
LINE
  8
0
 62
     0
 10
247.507741
 20
152.714697
 30
0.0
 11
245.507741
 21
154.714697
 31
0.0
  0
LINE
  8
0
 62
     0
 10
247.507741
 20
151.300483
 30
0.0
 11
245.256465
 21
153.55176
 31
0.0
  0
LINE
  8
0
 62
     0
 10
247.507741
 20
149.88627
 30
0.0
 11
243.857741
 21
153.53627
 31
0.0
  0
LINE
  8
0
 62
     0
 10
247.507741
 20
148.472056
 30
0.0
 11
243.857741
 21
152.122056
 31
0.0
  0
LINE
  8
0
 62
     0
 10
247.507741
 20
147.057843
 30
0.0
 11
245.507741
 21
149.057843
 31
0.0
  0
LINE
  8
0
 62
     0
 10
245.213824
 20
149.35176
 30
0.0
 11
243.857741
 21
150.707843
 31
0.0
  0
LINE
  8
0
 62
     0
 10
247.507741
 20
145.643629
 30
0.0
 11
245.507741
 21
147.643629
 31
0.0
  0
LINE
  8
0
 62
     0
 10
247.507741
 20
144.229415
 30
0.0
 11
245.507741
 21
146.229415
 31
0.0
  0
LINE
  8
0
 62
     0
 10
247.507741
 20
142.815202
 30
0.0
 11
245.507741
 21
144.815202
 31
0.0
  0
LINE
  8
0
 62
     0
 10
247.507741
 20
141.400988
 30
0.0
 11
245.507741
 21
143.400988
 31
0.0
  0
LINE
  8
0
 62
     0
 10
247.507741
 20
139.986775
 30
0.0
 11
245.507741
 21
141.986775
 31
0.0
  0
LINE
  8
0
 62
     0
 10
247.507741
 20
138.572561
 30
0.0
 11
245.507741
 21
140.572561
 31
0.0
  0
LINE
  8
0
 62
     0
 10
246.314329
 20
138.35176
 30
0.0
 11
245.507741
 21
139.158348
 31
0.0
  0
LINE
  8
0
 62
     0
 10
247.507741
 20
155.543124
 30
0.0
 11
245.507741
 21
157.543124
 31
0.0
  0
LINE
  8
0
 62
     0
 10
247.507741
 20
156.957337
 30
0.0
 11
245.507741
 21
158.957337
 31
0.0
  0
LINE
  8
0
 62
     0
 10
247.507741
 20
158.371551
 30
0.0
 11
245.507741
 21
160.371551
 31
0.0
  0
LINE
  8
0
 62
     0
 10
247.507741
 20
159.785765
 30
0.0
 11
245.507741
 21
161.785765
 31
0.0
  0
LINE
  8
0
 62
     0
 10
247.507741
 20
161.199978
 30
0.0
 11
245.507741
 21
163.199978
 31
0.0
  0
LINE
  8
0
 62
     0
 10
247.507741
 20
162.614192
 30
0.0
 11
245.507741
 21
164.614192
 31
0.0
  0
LINE
  8
0
 62
     0
 10
247.507741
 20
164.028405
 30
0.0
 11
245.507741
 21
166.028405
 31
0.0
  0
LINE
  8
0
 62
     0
 10
247.507741
 20
165.442619
 30
0.0
 11
245.507741
 21
167.442619
 31
0.0
  0
LINE
  8
0
 62
     0
 10
247.737434
 20
166.627139
 30
0.0
 11
245.507741
 21
168.856832
 31
0.0
  0
LINE
  8
0
 62
     0
 10
248.444541
 20
167.334246
 30
0.0
 11
246.627028
 21
169.15176
 31
0.0
  0
LINE
  8
0
 62
     0
 10
248.507741
 20
168.68526
 30
0.0
 11
246.907741
 21
170.28526
 31
0.0
  0
LINE
  8
0
 62
     0
 10
248.507741
 20
170.099473
 30
0.0
 11
246.907741
 21
171.699473
 31
0.0
  0
LINE
  8
0
 62
     0
 10
248.507741
 20
171.513687
 30
0.0
 11
246.907741
 21
173.113687
 31
0.0
  0
LINE
  8
0
 62
     0
 10
248.507741
 20
172.9279
 30
0.0
 11
247.683882
 21
173.75176
 31
0.0
  0
ENDBLK
  8
0
  0
BLOCK
  8
0
  2
*X8
 70
    65
 10
0.0
 20
0.0
 30
0.0
  3
*X
  0
LINE
  8
0
 62
     0
 10
-101.875575
 20
124.398595
 30
0.0
 11
-100.375575
 21
125.898595
 31
0.0
  0
LINE
  8
0
 62
     0
 10
-101.875575
 20
125.812809
 30
0.0
 11
-100.375575
 21
127.312809
 31
0.0
  0
LINE
  8
0
 62
     0
 10
-101.875575
 20
127.227022
 30
0.0
 11
-100.375575
 21
128.727022
 31
0.0
  0
LINE
  8
0
 62
     0
 10
-101.875575
 20
128.641236
 30
0.0
 11
-99.875575
 21
130.641236
 31
0.0
  0
LINE
  8
0
 62
     0
 10
-100.875575
 20
131.055449
 30
0.0
 11
-99.875575
 21
132.055449
 31
0.0
  0
LINE
  8
0
 62
     0
 10
-100.875575
 20
132.469663
 30
0.0
 11
-99.875575
 21
133.469663
 31
0.0
  0
LINE
  8
0
 62
     0
 10
-100.875575
 20
133.883876
 30
0.0
 11
-99.875575
 21
134.883876
 31
0.0
  0
LINE
  8
0
 62
     0
 10
-101.875575
 20
122.984381
 30
0.0
 11
-100.375575
 21
124.484381
 31
0.0
  0
LINE
  8
0
 62
     0
 10
-101.875575
 20
121.570168
 30
0.0
 11
-100.375575
 21
123.070168
 31
0.0
  0
LINE
  8
0
 62
     0
 10
-101.875575
 20
120.155954
 30
0.0
 11
-100.375575
 21
121.655954
 31
0.0
  0
LINE
  8
0
 62
     0
 10
-101.875575
 20
118.741741
 30
0.0
 11
-100.375575
 21
120.241741
 31
0.0
  0
LINE
  8
0
 62
     0
 10
-100.950051
 20
118.253051
 30
0.0
 11
-100.375575
 21
118.827527
 31
0.0
  0
ENDBLK
  8
0
  0
BLOCK
  8
0
  2
*X9
 70
    65
 10
0.0
 20
0.0
 30
0.0
  3
*X
  0
LINE
  8
0
 62
     0
 10
-99.875575
 20
-78.662371
 30
0.0
 11
-98.275575
 21
-77.062371
 31
0.0
  0
LINE
  8
0
 62
     0
 10
-99.875575
 20
-77.248158
 30
0.0
 11
-98.275575
 21
-75.648158
 31
0.0
  0
LINE
  8
0
 62
     0
 10
-99.875575
 20
-75.833944
 30
0.0
 11
-98.275575
 21
-74.233944
 31
0.0
  0
LINE
  8
0
 62
     0
 10
-99.875575
 20
-74.419731
 30
0.0
 11
-98.275575
 21
-72.819731
 31
0.0
  0
LINE
  8
0
 62
     0
 10
-99.875575
 20
-73.005517
 30
0.0
 11
-98.275575
 21
-71.405517
 31
0.0
  0
LINE
  8
0
 62
     0
 10
-99.875575
 20
-71.591304
 30
0.0
 11
-98.275575
 21
-69.991304
 31
0.0
  0
LINE
  8
0
 62
     0
 10
-97.796224
 20
-69.511953
 30
0.0
 11
-96.525575
 21
-68.241304
 31
0.0
  0
LINE
  8
0
 62
     0
 10
-99.875575
 20
-70.17709
 30
0.0
 11
-96.806383
 21
-67.107898
 31
0.0
  0
LINE
  8
0
 62
     0
 10
-98.875575
 20
-67.762877
 30
0.0
 11
-96.875575
 21
-65.762877
 31
0.0
  0
LINE
  8
0
 62
     0
 10
-98.875575
 20
-66.348663
 30
0.0
 11
-96.875575
 21
-64.348663
 31
0.0
  0
LINE
  8
0
 62
     0
 10
-98.875575
 20
-64.934449
 30
0.0
 11
-97.829832
 21
-63.888706
 31
0.0
  0
LINE
  8
0
 62
     0
 10
-99.875575
 20
-80.076585
 30
0.0
 11
-98.275575
 21
-78.476585
 31
0.0
  0
LINE
  8
0
 62
     0
 10
-99.875575
 20
-81.490799
 30
0.0
 11
-98.275575
 21
-79.890799
 31
0.0
  0
LINE
  8
0
 62
     0
 10
-99.875575
 20
-82.905012
 30
0.0
 11
-98.275575
 21
-81.305012
 31
0.0
  0
LINE
  8
0
 62
     0
 10
-99.875575
 20
-84.319226
 30
0.0
 11
-98.275575
 21
-82.719226
 31
0.0
  0
LINE
  8
0
 62
     0
 10
-99.875575
 20
-85.733439
 30
0.0
 11
-98.275575
 21
-84.133439
 31
0.0
  0
LINE
  8
0
 62
     0
 10
-99.875575
 20
-87.147653
 30
0.0
 11
-98.275575
 21
-85.547653
 31
0.0
  0
LINE
  8
0
 62
     0
 10
-99.102415
 20
-87.788706
 30
0.0
 11
-98.275575
 21
-86.961866
 31
0.0
  0
ENDBLK
  8
0
  0
BLOCK
  8
0
  2
*X10
 70
    65
 10
0.0
 20
0.0
 30
0.0
  3
*X
  0
LINE
  8
0
 62
     0
 10
42.348138
 20
-14.220404
 30
0.0
 11
45.098138
 21
-11.470404
 31
0.0
  0
LINE
  8
0
 62
     0
 10
42.348138
 20
-12.806191
 30
0.0
 11
45.098138
 21
-10.056191
 31
0.0
  0
LINE
  8
0
 62
     0
 10
42.348138
 20
-11.391977
 30
0.0
 11
45.098138
 21
-8.641977
 31
0.0
  0
LINE
  8
0
 62
     0
 10
42.348138
 20
-9.977764
 30
0.0
 11
45.098138
 21
-7.227764
 31
0.0
  0
LINE
  8
0
 62
     0
 10
42.348138
 20
-8.56355
 30
0.0
 11
45.098138
 21
-5.81355
 31
0.0
  0
LINE
  8
0
 62
     0
 10
46.600941
 20
-4.310747
 30
0.0
 11
46.848138
 21
-4.06355
 31
0.0
  0
LINE
  8
0
 62
     0
 10
42.348138
 20
-7.149336
 30
0.0
 11
46.647592
 21
-2.849883
 31
0.0
  0
LINE
  8
0
 62
     0
 10
42.348138
 20
-5.735123
 30
0.0
 11
46.348138
 21
-1.735123
 31
0.0
  0
LINE
  8
0
 62
     0
 10
43.348138
 20
-3.320909
 30
0.0
 11
46.348138
 21
-0.320909
 31
0.0
  0
LINE
  8
0
 62
     0
 10
43.348138
 20
-1.906696
 30
0.0
 11
46.348138
 21
1.093304
 31
0.0
  0
LINE
  8
0
 62
     0
 10
43.348138
 20
-0.492482
 30
0.0
 11
45.790191
 21
1.949571
 31
0.0
  0
LINE
  8
0
 62
     0
 10
43.348138
 20
0.921731
 30
0.0
 11
44.375978
 21
1.949571
 31
0.0
  0
LINE
  8
0
 62
     0
 10
42.348138
 20
-15.634618
 30
0.0
 11
45.098138
 21
-12.884618
 31
0.0
  0
LINE
  8
0
 62
     0
 10
42.348138
 20
-17.048831
 30
0.0
 11
45.098138
 21
-14.298831
 31
0.0
  0
LINE
  8
0
 62
     0
 10
42.348138
 20
-18.463045
 30
0.0
 11
45.098138
 21
-15.713045
 31
0.0
  0
LINE
  8
0
 62
     0
 10
42.348138
 20
-19.877259
 30
0.0
 11
45.098138
 21
-17.127259
 31
0.0
  0
LINE
  8
0
 62
     0
 10
42.348138
 20
-21.291472
 30
0.0
 11
45.098138
 21
-18.541472
 31
0.0
  0
LINE
  8
0
 62
     0
 10
42.348138
 20
-22.705686
 30
0.0
 11
45.098138
 21
-19.955686
 31
0.0
  0
LINE
  8
0
 62
     0
 10
42.348138
 20
-24.119899
 30
0.0
 11
45.098138
 21
-21.369899
 31
0.0
  0
LINE
  8
0
 62
     0
 10
42.348138
 20
-25.534113
 30
0.0
 11
45.098138
 21
-22.784113
 31
0.0
  0
LINE
  8
0
 62
     0
 10
42.348138
 20
-26.948326
 30
0.0
 11
45.098138
 21
-24.198326
 31
0.0
  0
LINE
  8
0
 62
     0
 10
43.160249
 20
-27.550429
 30
0.0
 11
45.098138
 21
-25.61254
 31
0.0
  0
ENDBLK
  8
0
  0
BLOCK
  8
0
  2
*X11
 70
    65
 10
0.0
 20
0.0
 30
0.0
  3
*X
  0
LINE
  8
0
 62
     0
 10
212.316296
 20
-18.200515
 30
0.0
 11
215.316296
 21
-15.200515
 31
0.0
  0
LINE
  8
0
 62
     0
 10
212.316296
 20
-16.786301
 30
0.0
 11
215.316296
 21
-13.786301
 31
0.0
  0
LINE
  8
0
 62
     0
 10
212.316296
 20
-15.372088
 30
0.0
 11
215.316296
 21
-12.372088
 31
0.0
  0
LINE
  8
0
 62
     0
 10
212.316296
 20
-13.957874
 30
0.0
 11
215.316296
 21
-10.957874
 31
0.0
  0
LINE
  8
0
 62
     0
 10
212.316296
 20
-12.543661
 30
0.0
 11
215.316296
 21
-9.543661
 31
0.0
  0
LINE
  8
0
 62
     0
 10
212.316296
 20
-11.129447
 30
0.0
 11
215.316296
 21
-8.129447
 31
0.0
  0
LINE
  8
0
 62
     0
 10
212.316296
 20
-9.715233
 30
0.0
 11
215.316296
 21
-6.715233
 31
0.0
  0
LINE
  8
0
 62
     0
 10
218.34753
 20
-3.683999
 30
0.0
 11
219.611572
 21
-2.419958
 31
0.0
  0
LINE
  8
0
 62
     0
 10
212.316296
 20
-8.30102
 30
0.0
 11
219.316296
 21
-1.30102
 31
0.0
  0
LINE
  8
0
 62
     0
 10
212.316296
 20
-6.886806
 30
0.0
 11
219.316296
 21
0.113194
 31
0.0
  0
LINE
  8
0
 62
     0
 10
213.316296
 20
-4.472593
 30
0.0
 11
219.316296
 21
1.527407
 31
0.0
  0
LINE
  8
0
 62
     0
 10
213.316296
 20
-3.058379
 30
0.0
 11
218.249993
 21
1.875318
 31
0.0
  0
LINE
  8
0
 62
     0
 10
213.316296
 20
-1.644166
 30
0.0
 11
216.835779
 21
1.875318
 31
0.0
  0
LINE
  8
0
 62
     0
 10
213.316296
 20
-0.229952
 30
0.0
 11
215.421566
 21
1.875318
 31
0.0
  0
LINE
  8
0
 62
     0
 10
213.316296
 20
1.184262
 30
0.0
 11
214.007352
 21
1.875318
 31
0.0
  0
LINE
  8
0
 62
     0
 10
212.316296
 20
-19.614728
 30
0.0
 11
215.316296
 21
-16.614728
 31
0.0
  0
LINE
  8
0
 62
     0
 10
212.316296
 20
-21.028942
 30
0.0
 11
215.316296
 21
-18.028942
 31
0.0
  0
LINE
  8
0
 62
     0
 10
212.316296
 20
-22.443155
 30
0.0
 11
215.316296
 21
-19.443155
 31
0.0
  0
LINE
  8
0
 62
     0
 10
212.316296
 20
-23.857369
 30
0.0
 11
215.316296
 21
-20.857369
 31
0.0
  0
LINE
  8
0
 62
     0
 10
212.316296
 20
-25.271583
 30
0.0
 11
215.316296
 21
-22.271583
 31
0.0
  0
LINE
  8
0
 62
     0
 10
212.316296
 20
-26.685796
 30
0.0
 11
215.316296
 21
-23.685796
 31
0.0
  0
LINE
  8
0
 62
     0
 10
212.316296
 20
-28.10001
 30
0.0
 11
215.316296
 21
-25.10001
 31
0.0
  0
LINE
  8
0
 62
     0
 10
212.316296
 20
-29.514223
 30
0.0
 11
215.316296
 21
-26.514223
 31
0.0
  0
LINE
  8
0
 62
     0
 10
212.316296
 20
-30.928437
 30
0.0
 11
215.316296
 21
-27.928437
 31
0.0
  0
LINE
  8
0
 62
     0
 10
212.316296
 20
-32.34265
 30
0.0
 11
215.316296
 21
-29.34265
 31
0.0
  0
LINE
  8
0
 62
     0
 10
212.548478
 20
-33.524682
 30
0.0
 11
215.316296
 21
-30.756864
 31
0.0
  0
LINE
  8
0
 62
     0
 10
213.962691
 20
-33.524682
 30
0.0
 11
215.316296
 21
-32.171078
 31
0.0
  0
ENDBLK
  8
0
  0
ENDSEC
  0
SECTION
  2
ENTITIES
  0
CIRCLE
  8
0
 10
17.436921
 20
96.65023
 30
0.0
 40
3.9
  0
ARC
  8
0
 10
80.936921
 20
91.75023
 30
0.0
 40
1.5
 50
270.0
 51
0.0
  0
ARC
  8
0
 10
74.929
 20
91.75023
 30
0.0
 40
1.5
 50
180.0
 51
270.0
  0
ARC
  8
0
 10
80.936921
 20
101.55023
 30
0.0
 40
1.5
 50
0.0
 51
90.0
  0
ARC
  8
0
 10
74.929
 20
101.55023
 30
0.0
 40
1.5
 50
90.0
 51
180.0
  0
LINE
  8
0
 10
73.429
 20
92.05023
 30
0.0
 11
73.429
 21
91.75023
 31
0.0
  0
LINE
  8
0
 10
23.49518
 20
91.05023
 30
0.0
 11
75.429
 21
92.090283
 31
0.0
  0
LINE
  8
0
 10
23.49518
 20
102.25023
 30
0.0
 11
75.429
 21
101.210177
 31
0.0
  0
ARC
  8
0
 10
17.436921
 20
96.65023
 30
0.0
 40
8.25
 50
317.251004
 51
42.748996
  0
LINE
  8
0
 10
73.429
 20
101.55023
 30
0.0
 11
73.429
 21
101.25023
 31
0.0
  0
LINE
  8
0
 10
74.929
 20
90.25023
 30
0.0
 11
80.936921
 21
90.25023
 31
0.0
  0
LINE
  8
0
 10
74.929
 20
103.05023
 30
0.0
 11
80.936921
 21
103.05023
 31
0.0
  0
LINE
  8
0
 10
82.436921
 20
101.55023
 30
0.0
 11
82.436921
 21
91.75023
 31
0.0
  0
LINE
  8
0
 10
16.936921
 20
92.933713
 30
0.0
 11
16.936921
 21
100.366747
 31
0.0
  0
LINE
  8
0
 10
17.936921
 20
92.933713
 30
0.0
 11
17.936921
 21
100.366747
 31
0.0
  0
CIRCLE
  8
0
 10
17.436921
 20
96.65023
 30
0.0
 40
3.75
  0
CIRCLE
  8
0
 10
17.436921
 20
96.65023
 30
0.0
 40
6.7
  0
ARC
  8
0
 10
17.436921
 20
96.65023
 30
0.0
 40
10.6
 50
31.511821
 51
328.488179
  0
LINE
  8
0
 10
26.473764
 20
138.14058
 30
0.0
 11
17.436921
 21
138.14058
 31
0.0
  0
ARC
  8
0
 10
17.436921
 20
96.65023
 30
0.0
 40
11.5
 50
28.681306
 51
331.318694
  0
CIRCLE
  8
0
 10
13.954452
 20
143.4365
 30
0.0
 40
0.3
  0
CIRCLE
  8
0
 10
13.954452
 20
145.187292
 30
0.0
 40
0.3
  0
CIRCLE
  8
0
 10
13.954452
 20
141.56502
 30
0.0
 40
0.3
  0
CIRCLE
  8
0
 10
13.954452
 20
146.96502
 30
0.0
 40
0.3
  0
LINE
  8
0
 10
17.436921
 20
149.16502
 30
0.0
 11
22.77328
 21
149.16502
 31
0.0
  0
LINE
  8
0
 10
15.786921
 20
134.76502
 30
0.0
 11
15.436921
 21
135.11502
 31
0.0
  0
LINE
  8
0
 10
15.786921
 20
134.76502
 30
0.0
 11
17.436921
 21
134.76502
 31
0.0
  0
LINE
  8
0
 10
21.186921
 20
150.26502
 30
0.0
 11
17.936921
 21
150.26502
 31
0.0
  0
LINE
  8
0
 10
21.186921
 20
150.26502
 30
0.0
 11
21.186921
 21
149.16502
 31
0.0
  0
LINE
  8
0
 10
21.186921
 20
150.26502
 30
0.0
 11
20.186921
 21
151.26502
 31
0.0
  0
LINE
  8
0
 10
13.686921
 20
150.26502
 30
0.0
 11
14.686921
 21
151.26502
 31
0.0
  0
LINE
  8
0
 10
17.936921
 20
151.26502
 30
0.0
 11
20.186921
 21
151.26502
 31
0.0
  0
LINE
  8
0
 10
16.936921
 20
149.46502
 30
0.0
 11
17.936921
 21
149.46502
 31
0.0
  0
LINE
  8
0
 10
17.936921
 20
149.46502
 30
0.0
 11
17.936921
 21
151.26502
 31
0.0
  0
LINE
  8
0
 10
16.936921
 20
149.46502
 30
0.0
 11
16.936921
 21
151.26502
 31
0.0
  0
LINE
  8
0
 10
13.686921
 20
147.26502
 30
0.0
 11
13.686921
 21
150.26502
 31
0.0
  0
LINE
  8
0
 10
14.936921
 20
138.26502
 30
0.0
 11
14.936921
 21
147.26502
 31
0.0
  0
LINE
  8
0
 10
14.686921
 20
151.26502
 30
0.0
 11
16.936921
 21
151.26502
 31
0.0
  0
LINE
  8
0
 10
13.686921
 20
147.26502
 30
0.0
 11
14.936921
 21
147.26502
 31
0.0
  0
LINE
  8
0
 10
15.786921
 20
133.375383
 30
0.0
 11
17.436921
 21
133.375383
 31
0.0
  0
LINE
  8
0
 10
17.436921
 20
122.86502
 30
0.0
 11
28.936921
 21
122.86502
 31
0.0
  0
INSERT
  8
0
  2
*X1
 10
34.330919
 20
145.455527
 30
0.0
  0
INSERT
  8
0
  2
*X0
 10
38.978892
 20
120.274759
 30
0.0
  0
LINE
  8
0
 10
18.351854
 20
120.76502
 30
0.0
 11
18.351854
 21
114.56502
 31
0.0
  0
LINE
  8
0
 10
19.252358
 20
120.76502
 30
0.0
 11
19.252358
 21
114.56502
 31
0.0
  0
LINE
  8
0
 10
20.124231
 20
120.76502
 30
0.0
 11
20.124231
 21
114.56502
 31
0.0
  0
LINE
  8
0
 10
20.953723
 20
120.76502
 30
0.0
 11
20.953723
 21
114.56502
 31
0.0
  0
LINE
  8
0
 10
21.727754
 20
120.76502
 30
0.0
 11
21.727754
 21
114.56502
 31
0.0
  0
LINE
  8
0
 10
22.434115
 20
120.76502
 30
0.0
 11
22.434115
 21
114.56502
 31
0.0
  0
LINE
  8
0
 10
23.061668
 20
120.76502
 30
0.0
 11
23.061668
 21
114.56502
 31
0.0
  0
LINE
  8
0
 10
23.600515
 20
120.76502
 30
0.0
 11
23.600515
 21
114.56502
 31
0.0
  0
LINE
  8
0
 10
24.042159
 20
120.76502
 30
0.0
 11
24.042159
 21
114.56502
 31
0.0
  0
LINE
  8
0
 10
24.379634
 20
120.76502
 30
0.0
 11
24.379634
 21
114.56502
 31
0.0
  0
LINE
  8
0
 10
24.607618
 20
120.76502
 30
0.0
 11
24.607618
 21
114.56502
 31
0.0
  0
LINE
  8
0
  6
CENTER
 10
17.436921
 20
111.781736
 30
0.0
 11
17.436921
 21
152.844065
 31
0.0
  0
LINE
  8
0
 10
9.936921
 20
125.06502
 30
0.0
 11
9.936921
 21
135.56502
 31
0.0
  0
LINE
  8
0
 10
13.436921
 20
138.26502
 30
0.0
 11
13.436921
 21
138.56502
 31
0.0
  0
LINE
  8
0
 10
17.436921
 20
114.56502
 30
0.0
 11
24.736921
 21
114.56502
 31
0.0
  0
LINE
  8
0
 10
17.436921
 20
120.76502
 30
0.0
 11
24.936921
 21
120.76502
 31
0.0
  0
LINE
  8
0
 10
17.436921
 20
122.16502
 30
0.0
 11
26.086921
 21
122.16502
 31
0.0
  0
LINE
  8
0
 10
22.436921
 20
114.36502
 30
0.0
 11
22.436921
 21
114.56502
 31
0.0
  0
LINE
  8
0
 10
14.036921
 20
132.36502
 30
0.0
 11
17.436921
 21
132.36502
 31
0.0
  0
LINE
  8
0
 10
13.436921
 20
138.26502
 30
0.0
 11
15.786921
 21
138.26502
 31
0.0
  0
LINE
  8
0
 10
15.786921
 20
133.375383
 30
0.0
 11
15.786921
 21
138.26502
 31
0.0
  0
LINE
  8
0
 10
15.436921
 20
135.11502
 30
0.0
 11
15.436921
 21
138.26502
 31
0.0
  0
LINE
  8
0
 10
14.036921
 20
132.36502
 30
0.0
 11
15.786921
 21
133.375383
 31
0.0
  0
LINE
  8
0
 10
13.436921
 20
128.36502
 30
0.0
 11
17.436921
 21
128.36502
 31
0.0
  0
LINE
  8
0
 10
14.036921
 20
114.96502
 30
0.0
 11
14.036921
 21
132.36502
 31
0.0
  0
LINE
  8
0
 10
13.436921
 20
114.36502
 30
0.0
 11
13.436921
 21
128.36502
 31
0.0
  0
LINE
  8
0
 10
11.636921
 20
135.56502
 30
0.0
 11
11.636921
 21
138.56502
 31
0.0
  0
LINE
  8
0
 10
13.436921
 20
134.26502
 30
0.0
 11
12.436921
 21
133.26502
 31
0.0
  0
LINE
  8
0
 10
13.436921
 20
134.26502
 30
0.0
 11
13.436921
 21
138.26502
 31
0.0
  0
LINE
  8
0
 10
12.436921
 20
114.36502
 30
0.0
 11
12.436921
 21
133.26502
 31
0.0
  0
LINE
  8
0
 10
10.136921
 20
114.56502
 30
0.0
 11
12.436921
 21
114.56502
 31
0.0
  0
LINE
  8
0
 10
10.236921
 20
135.56502
 30
0.0
 11
10.236921
 21
138.56502
 31
0.0
  0
LINE
  8
0
 10
9.936921
 20
135.56502
 30
0.0
 11
11.636921
 21
135.56502
 31
0.0
  0
LINE
  8
0
 10
26.086921
 20
122.16502
 30
0.0
 11
26.086921
 21
122.86502
 31
0.0
  0
LINE
  8
0
 10
8.786921
 20
122.16502
 30
0.0
 11
8.786921
 21
125.06502
 31
0.0
  0
LINE
  8
0
 10
8.786921
 20
125.06502
 30
0.0
 11
9.936921
 21
125.06502
 31
0.0
  0
LINE
  8
0
 10
10.236921
 20
138.56502
 30
0.0
 11
14.936921
 21
138.56502
 31
0.0
  0
LINE
  8
0
 10
24.936921
 20
120.76502
 30
0.0
 11
24.936921
 21
122.16502
 31
0.0
  0
LINE
  8
0
 10
9.936921
 20
120.76502
 30
0.0
 11
9.936921
 21
122.16502
 31
0.0
  0
LINE
  8
0
 10
8.786921
 20
122.16502
 30
0.0
 11
9.936921
 21
122.16502
 31
0.0
  0
LINE
  8
0
 10
9.936921
 20
120.76502
 30
0.0
 11
10.136921
 21
120.76502
 31
0.0
  0
LINE
  8
0
 10
12.436921
 20
114.36502
 30
0.0
 11
22.436921
 21
114.36502
 31
0.0
  0
LINE
  8
0
 10
24.736921
 20
114.56502
 30
0.0
 11
24.736921
 21
120.76502
 31
0.0
  0
LINE
  8
0
 10
10.136921
 20
114.56502
 30
0.0
 11
10.136921
 21
120.76502
 31
0.0
  0
LINE
  8
0
 10
8.436921
 20
122.86502
 30
0.0
 11
8.436921
 21
126.36502
 31
0.0
  0
LINE
  8
0
 10
8.436921
 20
126.36502
 30
0.0
 11
9.936921
 21
126.36502
 31
0.0
  0
LINE
  8
0
 10
9.436921
 20
125.06502
 30
0.0
 11
9.436921
 21
126.36502
 31
0.0
  0
LINE
  8
0
 10
11.436921
 20
138.56502
 30
0.0
 11
11.436921
 21
139.16502
 31
0.0
  0
LINE
  8
0
 10
9.836921
 20
126.36502
 30
0.0
 11
9.836921
 21
139.16502
 31
0.0
  0
LINE
  8
0
 10
9.836921
 20
135.56502
 30
0.0
 11
9.936921
 21
135.56502
 31
0.0
  0
LINE
  8
0
 10
9.836921
 20
139.16502
 30
0.0
 11
14.936921
 21
139.16502
 31
0.0
  0
LINE
  8
0
 10
14.686921
 20
139.16502
 30
0.0
 11
14.686921
 21
141.26502
 31
0.0
  0
LINE
  8
0
 10
13.536921
 20
141.26502
 30
0.0
 11
14.936921
 21
141.26502
 31
0.0
  0
LINE
  8
0
 10
13.536921
 20
141.26502
 30
0.0
 11
13.536921
 21
149.16502
 31
0.0
  0
ARC
  8
0
 10
28.979155
 20
132.032844
 30
0.0
 40
0.5
 50
111.719003
 51
182.862405
  0
LINE
  8
0
 10
24.658643
 20
147.832405
 30
0.0
 11
25.752905
 21
144.741116
 31
0.0
  0
ARC
  8
0
 10
22.77328
 20
147.16502
 30
0.0
 40
2.0
 50
19.493062
 51
90.0
  0
ARC
  8
0
 10
12.100563
 20
147.16502
 30
0.0
 40
2.0
 50
90.0
 51
160.506938
  0
ARC
  8
0
 10
76.331556
 20
153.585884
 30
0.0
 40
2.0
 50
217.043806
 51
291.719003
  0
ARC
  8
0
 10
75.429
 20
156.261474
 30
0.0
 40
2.0
 50
105.304346
 51
180.0
  0
LINE
  8
0
 10
79.175614
 20
159.36027
 30
0.0
 11
23.977449
 21
144.255261
 31
0.0
  0
LINE
  8
0
 10
74.735205
 20
152.381033
 30
0.0
 11
73.529912
 21
153.977969
 31
0.0
  0
LINE
  8
0
 10
73.429
 20
156.261474
 30
0.0
 11
73.429
 21
154.279182
 31
0.0
  0
ARC
  8
0
 10
79.703507
 20
157.431196
 30
0.0
 40
2.0
 50
37.043806
 51
105.304346
  0
ARC
  8
0
 10
80.436921
 20
155.221184
 30
0.0
 40
2.0
 50
291.719003
 51
0.0
  0
LINE
  8
0
 10
81.299858
 20
158.636047
 30
0.0
 11
82.336009
 21
157.263212
 31
0.0
  0
LINE
  8
0
 10
27.990409
 20
132.177201
 30
0.0
 11
81.177031
 21
153.363165
 31
0.0
  0
LINE
  8
0
 10
82.436921
 20
155.221184
 30
0.0
 11
82.436921
 21
156.961999
 31
0.0
  0
LINE
  8
0
 10
10.215199
 20
147.832405
 30
0.0
 11
6.686921
 21
137.86502
 31
0.0
  0
LINE
  8
0
 10
28.936921
 20
122.86502
 30
0.0
 11
28.461921
 21
132.36502
 31
0.0
  0
LINE
  8
0
 10
5.936921
 20
122.86502
 30
0.0
 11
6.686921
 21
137.86502
 31
0.0
  0
LINE
  8
0
 10
12.100563
 20
149.16502
 30
0.0
 11
13.686921
 21
149.16502
 31
0.0
  0
LINE
  8
0
 10
5.936921
 20
122.86502
 30
0.0
 11
8.786921
 21
122.86502
 31
0.0
  0
LINE
  8
0
 10
92.138381
 20
122.86502
 30
0.0
 11
92.888381
 21
137.86502
 31
0.0
  0
LINE
  8
0
 10
115.138381
 20
122.86502
 30
0.0
 11
114.388381
 21
137.86502
 31
0.0
  0
LINE
  8
0
 10
96.416659
 20
147.832405
 30
0.0
 11
92.888381
 21
137.86502
 31
0.0
  0
ARC
  8
0
 10
98.302023
 20
147.16502
 30
0.0
 40
2.0
 50
90.0
 51
160.506938
  0
ARC
  8
0
 10
108.97474
 20
147.16502
 30
0.0
 40
2.0
 50
19.493062
 51
90.0
  0
LINE
  8
0
 10
110.860103
 20
147.832405
 30
0.0
 11
114.388381
 21
137.86502
 31
0.0
  0
LINE
  8
0
 10
96.338381
 20
114.56502
 30
0.0
 11
96.338381
 21
120.76502
 31
0.0
  0
LINE
  8
0
 10
110.938381
 20
114.56502
 30
0.0
 11
110.938381
 21
120.76502
 31
0.0
  0
LINE
  8
0
 10
96.138381
 20
120.76502
 30
0.0
 11
96.138381
 21
122.16502
 31
0.0
  0
LINE
  8
0
 10
111.138381
 20
120.76502
 30
0.0
 11
111.138381
 21
122.16502
 31
0.0
  0
LINE
  8
0
 10
94.988381
 20
122.16502
 30
0.0
 11
94.988381
 21
122.86502
 31
0.0
  0
LINE
  8
0
 10
112.288381
 20
122.16502
 30
0.0
 11
112.288381
 21
122.86502
 31
0.0
  0
LINE
  8
0
 10
98.638381
 20
114.36502
 30
0.0
 11
98.638381
 21
114.56502
 31
0.0
  0
LINE
  8
0
 10
108.638381
 20
114.36502
 30
0.0
 11
108.638381
 21
114.56502
 31
0.0
  0
LINE
  8
0
 10
94.988381
 20
122.16502
 30
0.0
 11
112.288381
 21
122.16502
 31
0.0
  0
LINE
  8
0
 10
96.138381
 20
120.76502
 30
0.0
 11
111.138381
 21
120.76502
 31
0.0
  0
LINE
  8
0
 10
96.338381
 20
114.56502
 30
0.0
 11
110.938381
 21
114.56502
 31
0.0
  0
LINE
  8
0
 10
110.809078
 20
120.76502
 30
0.0
 11
110.809078
 21
114.56502
 31
0.0
  0
LINE
  8
0
 10
110.581094
 20
120.76502
 30
0.0
 11
110.581094
 21
114.56502
 31
0.0
  0
LINE
  8
0
 10
110.243619
 20
120.76502
 30
0.0
 11
110.243619
 21
114.56502
 31
0.0
  0
LINE
  8
0
 10
109.801975
 20
120.76502
 30
0.0
 11
109.801975
 21
114.56502
 31
0.0
  0
LINE
  8
0
 10
109.263128
 20
120.76502
 30
0.0
 11
109.263128
 21
114.56502
 31
0.0
  0
LINE
  8
0
 10
108.635575
 20
120.76502
 30
0.0
 11
108.635575
 21
114.56502
 31
0.0
  0
LINE
  8
0
 10
107.929214
 20
120.76502
 30
0.0
 11
107.929214
 21
114.56502
 31
0.0
  0
LINE
  8
0
 10
107.155183
 20
120.76502
 30
0.0
 11
107.155183
 21
114.56502
 31
0.0
  0
LINE
  8
0
 10
106.325691
 20
120.76502
 30
0.0
 11
106.325691
 21
114.56502
 31
0.0
  0
LINE
  8
0
 10
105.453818
 20
120.76502
 30
0.0
 11
105.453818
 21
114.56502
 31
0.0
  0
LINE
  8
0
 10
104.553314
 20
120.76502
 30
0.0
 11
104.553314
 21
114.56502
 31
0.0
  0
LINE
  8
0
 10
92.138381
 20
122.86502
 30
0.0
 11
115.138381
 21
122.86502
 31
0.0
  0
LINE
  8
0
 10
100.888381
 20
151.26502
 30
0.0
 11
106.388381
 21
151.26502
 31
0.0
  0
LINE
  8
0
 10
99.888381
 20
149.16502
 30
0.0
 11
99.888381
 21
150.26502
 31
0.0
  0
LINE
  8
0
 10
99.888381
 20
150.26502
 30
0.0
 11
100.888381
 21
151.26502
 31
0.0
  0
LINE
  8
0
 10
107.388381
 20
150.26502
 30
0.0
 11
106.388381
 21
151.26502
 31
0.0
  0
LINE
  8
0
 10
107.388381
 20
150.26502
 30
0.0
 11
107.388381
 21
149.16502
 31
0.0
  0
LINE
  8
0
 10
114.290838
 20
138.14058
 30
0.0
 11
92.985925
 21
138.14058
 31
0.0
  0
LINE
  8
0
 10
98.638381
 20
114.36502
 30
0.0
 11
108.638381
 21
114.36502
 31
0.0
  0
LINE
  8
0
 10
98.738381
 20
159.431196
 30
0.0
 11
108.538381
 21
159.431196
 31
0.0
  0
LINE
  8
0
 10
97.238381
 20
153.446534
 30
0.0
 11
97.238381
 21
157.931196
 31
0.0
  0
LINE
  8
0
 10
110.038381
 20
153.446534
 30
0.0
 11
110.038381
 21
157.931196
 31
0.0
  0
ARC
  8
0
 10
98.738381
 20
153.446534
 30
0.0
 40
1.5
 50
180.0
 51
282.757874
  0
ARC
  8
0
 10
98.738381
 20
157.931196
 30
0.0
 40
1.5
 50
90.0
 51
180.0
  0
ARC
  8
0
 10
108.538381
 20
153.446534
 30
0.0
 40
1.5
 50
257.242126
 51
0.0
  0
ARC
  8
0
 10
108.538381
 20
157.931196
 30
0.0
 40
1.5
 50
0.0
 51
90.0
  0
LINE
  8
0
 10
99.013183
 20
149.16502
 30
0.0
 11
99.172658
 21
157.128194
 31
0.0
  0
LINE
  8
0
 10
108.26358
 20
149.16502
 30
0.0
 11
108.104105
 21
157.128194
 31
0.0
  0
LINE
  8
0
 10
73.429
 20
154.279182
 30
0.0
 11
73.529912
 21
153.977969
 31
0.0
  0
LINE
  8
0
 10
82.336009
 20
157.263212
 30
0.0
 11
82.436921
 21
156.961999
 31
0.0
  0
LINE
  8
0
 10
103.638381
 20
114.56502
 30
0.0
 11
103.638381
 21
120.76502
 31
0.0
  0
LINE
  8
0
 10
102.723449
 20
120.76502
 30
0.0
 11
102.723449
 21
114.56502
 31
0.0
  0
LINE
  8
0
 10
101.822945
 20
120.76502
 30
0.0
 11
101.822945
 21
114.56502
 31
0.0
  0
LINE
  8
0
 10
100.951072
 20
120.76502
 30
0.0
 11
100.951072
 21
114.56502
 31
0.0
  0
LINE
  8
0
 10
100.12158
 20
120.76502
 30
0.0
 11
100.12158
 21
114.56502
 31
0.0
  0
LINE
  8
0
 10
99.347549
 20
120.76502
 30
0.0
 11
99.347549
 21
114.56502
 31
0.0
  0
LINE
  8
0
 10
98.641188
 20
120.76502
 30
0.0
 11
98.641188
 21
114.56502
 31
0.0
  0
LINE
  8
0
 10
98.013635
 20
120.76502
 30
0.0
 11
98.013635
 21
114.56502
 31
0.0
  0
LINE
  8
0
 10
97.474788
 20
120.76502
 30
0.0
 11
97.474788
 21
114.56502
 31
0.0
  0
LINE
  8
0
 10
97.033144
 20
120.76502
 30
0.0
 11
97.033144
 21
114.56502
 31
0.0
  0
LINE
  8
0
 10
96.695669
 20
120.76502
 30
0.0
 11
96.695669
 21
114.56502
 31
0.0
  0
LINE
  8
0
 10
96.467684
 20
120.76502
 30
0.0
 11
96.467684
 21
114.56502
 31
0.0
  0
LINE
  8
0
 10
98.302023
 20
149.16502
 30
0.0
 11
108.97474
 21
149.16502
 31
0.0
  0
LINE
  8
0
 10
99.888381
 20
150.26502
 30
0.0
 11
107.388381
 21
150.26502
 31
0.0
  0
ARC
  8
0
 10
-97.875575
 20
96.65023
 30
0.0
 40
8.5
 50
31.579307
 51
328.420693
  0
ARC
  8
0
 10
-97.875575
 20
96.65023
 30
0.0
 40
8.05
 50
33.666569
 51
326.333431
  0
CIRCLE
  8
0
 10
-97.875575
 20
96.65023
 30
0.0
 40
4.878385
  0
CIRCLE
  8
0
 10
-97.875575
 20
96.65023
 30
0.0
 40
3.8
  0
ARC
  8
0
 10
-97.875575
 20
96.65023
 30
0.0
 40
2.8
 50
100.286561
 51
259.713439
  0
ARC
  8
0
 10
-97.875575
 20
96.65023
 30
0.0
 40
6.660953
 50
317.500869
 51
42.499131
  0
LINE
  8
0
 10
-92.964537
 20
101.15023
 30
0.0
 11
-59.972882
 21
100.460244
 31
0.0
  0
LINE
  8
0
 10
-92.964537
 20
92.15023
 30
0.0
 11
-59.972882
 21
92.840216
 31
0.0
  0
ARC
  8
0
 10
-58.185885
 20
99.297375
 30
0.0
 40
2.624224
 50
17.885236
 51
153.410872
  0
ARC
  8
0
 10
-58.185885
 20
94.003086
 30
0.0
 40
2.624224
 50
206.589128
 51
344.247517
  0
ARC
  8
0
 10
-61.22557
 20
96.67395
 30
0.0
 40
6.51305
 50
328.703701
 51
31.771686
  0
LINE
  8
0
 10
-31.576542
 20
137.078613
 30
0.0
 11
-40.198622
 21
137.078613
 31
0.0
  0
LINE
  8
0
 10
-32.087581
 20
139.078613
 30
0.0
 11
-33.087581
 21
140.078613
 31
0.0
  0
LINE
  8
0
 10
-32.087581
 20
137.078613
 30
0.0
 11
-32.087581
 21
139.078613
 31
0.0
  0
LINE
  8
0
 10
-39.687581
 20
139.078613
 30
0.0
 11
-38.687581
 21
140.078613
 31
0.0
  0
LINE
  8
0
 10
-39.687581
 20
137.078613
 30
0.0
 11
-39.687581
 21
139.078613
 31
0.0
  0
LINE
  8
0
 10
-38.687581
 20
140.078613
 30
0.0
 11
-33.087581
 21
140.078613
 31
0.0
  0
LINE
  8
0
 10
-35.887581
 20
110.578613
 30
0.0
 11
-35.887581
 21
115.578613
 31
0.0
  0
LINE
  8
0
 10
-30.158989
 20
110.578613
 30
0.0
 11
-30.158989
 21
115.578613
 31
0.0
  0
LINE
  8
0
 10
-30.371454
 20
110.578613
 30
0.0
 11
-30.371454
 21
115.578613
 31
0.0
  0
LINE
  8
0
 10
-30.719744
 20
110.578613
 30
0.0
 11
-30.719744
 21
115.578613
 31
0.0
  0
LINE
  8
0
 10
-31.195283
 20
110.578613
 30
0.0
 11
-31.195283
 21
115.578613
 31
0.0
  0
LINE
  8
0
 10
-31.786362
 20
110.578613
 30
0.0
 11
-31.786362
 21
115.578613
 31
0.0
  0
LINE
  8
0
 10
-32.478427
 20
110.578613
 30
0.0
 11
-32.478427
 21
115.578613
 31
0.0
  0
LINE
  8
0
 10
-33.254436
 20
110.578613
 30
0.0
 11
-33.254436
 21
115.578613
 31
0.0
  0
LINE
  8
0
 10
-34.095283
 20
110.578613
 30
0.0
 11
-34.095283
 21
115.578613
 31
0.0
  0
LINE
  8
0
 10
-34.980261
 20
110.578613
 30
0.0
 11
-34.980261
 21
115.578613
 31
0.0
  0
LINE
  8
0
 10
-41.687581
 20
115.578613
 30
0.0
 11
-30.087581
 21
115.578613
 31
0.0
  0
LINE
  8
0
 10
-44.387581
 20
116.578613
 30
0.0
 11
-27.387581
 21
116.578613
 31
0.0
  0
ARC
  8
0
 10
-31.576542
 20
136.078613
 30
0.0
 40
1.0
 50
20.869348
 51
90.0
  0
ARC
  8
0
 10
-40.19862
 20
136.078613
 30
0.0
 40
1.0
 50
90.0
 51
159.130652
  0
LINE
  8
0
 10
-30.087581
 20
116.578613
 30
0.0
 11
-30.087581
 21
110.578613
 31
0.0
  0
LINE
  8
0
 10
-41.687581
 20
116.578613
 30
0.0
 11
-41.687581
 21
110.578613
 31
0.0
  0
LINE
  8
0
 10
-41.687581
 20
110.578613
 30
0.0
 11
-30.087581
 21
110.578613
 31
0.0
  0
LINE
  8
0
 10
-27.837581
 20
129.078613
 30
0.0
 11
-30.642147
 21
136.434852
 31
0.0
  0
LINE
  8
0
 10
-43.937581
 20
129.078613
 30
0.0
 11
-41.133016
 21
136.434852
 31
0.0
  0
LINE
  8
0
 10
-27.837581
 20
129.078613
 30
0.0
 11
-27.387581
 21
116.578613
 31
0.0
  0
LINE
  8
0
 10
-43.937581
 20
129.078613
 30
0.0
 11
-44.387581
 21
116.578613
 31
0.0
  0
LINE
  8
0
 10
-43.937581
 20
129.078613
 30
0.0
 11
-27.837581
 21
129.078613
 31
0.0
  0
ARC
  8
0
 10
-33.189697
 20
139.661774
 30
0.0
 40
2.624224
 50
296.589128
 51
74.247517
  0
ARC
  8
0
 10
-38.483986
 20
139.661774
 30
0.0
 40
2.624224
 50
107.885236
 51
243.410872
  0
ARC
  8
0
 10
-35.858972
 20
136.238732
 30
0.0
 40
6.842738
 50
60.382766
 51
120.092621
  0
LINE
  8
0
 10
-39.687581
 20
139.078613
 30
0.0
 11
-32.087581
 21
139.078613
 31
0.0
  0
LINE
  8
0
 10
-41.403709
 20
110.578613
 30
0.0
 11
-41.403709
 21
115.578613
 31
0.0
  0
LINE
  8
0
 10
-36.794901
 20
110.578613
 30
0.0
 11
-36.794901
 21
115.578613
 31
0.0
  0
LINE
  8
0
 10
-37.67988
 20
110.578613
 30
0.0
 11
-37.67988
 21
115.578613
 31
0.0
  0
LINE
  8
0
 10
-38.520726
 20
110.578613
 30
0.0
 11
-38.520726
 21
115.578613
 31
0.0
  0
LINE
  8
0
 10
-39.296736
 20
110.578613
 30
0.0
 11
-39.296736
 21
115.578613
 31
0.0
  0
LINE
  8
0
 10
-39.988801
 20
110.578613
 30
0.0
 11
-39.988801
 21
115.578613
 31
0.0
  0
LINE
  8
0
 10
-40.57988
 20
110.578613
 30
0.0
 11
-40.57988
 21
115.578613
 31
0.0
  0
LINE
  8
0
 10
-41.055419
 20
110.578613
 30
0.0
 11
-41.055419
 21
115.578613
 31
0.0
  0
LINE
  8
0
 10
-41.616174
 20
110.578613
 30
0.0
 11
-41.616174
 21
115.578613
 31
0.0
  0
LINE
  8
0
 10
-98.375575
 20
100.417192
 30
0.0
 11
-98.375575
 21
92.883269
 31
0.0
  0
LINE
  8
0
 10
-97.375575
 20
100.417192
 30
0.0
 11
-97.375575
 21
92.883269
 31
0.0
  0
LINE
  8
0
 10
-94.075575
 20
139.078613
 30
0.0
 11
-97.375575
 21
139.078613
 31
0.0
  0
LINE
  8
0
  6
CENTER
 10
-97.875575
 20
109.25776
 30
0.0
 11
-97.875575
 21
141.154812
 31
0.0
  0
INSERT
  8
0
  2
*X2
 10
0.0
 20
-19.913452
 30
0.0
  0
LINE
  8
0
 10
-101.875575
 20
121.142619
 30
0.0
 11
-101.875575
 21
110.578613
 31
0.0
  0
LINE
  8
0
 10
-100.875575
 20
122.623941
 30
0.0
 11
-101.875575
 21
121.142619
 31
0.0
  0
LINE
  8
0
 10
-100.875575
 20
127.578613
 30
0.0
 11
-100.875575
 21
122.623941
 31
0.0
  0
LINE
  8
0
 10
-98.375575
 20
138.444744
 30
0.0
 11
-97.375575
 21
138.444744
 31
0.0
  0
LINE
  8
0
 10
-97.375575
 20
140.078613
 30
0.0
 11
-97.375575
 21
138.444744
 31
0.0
  0
LINE
  8
0
 10
-98.375575
 20
140.078613
 30
0.0
 11
-98.375575
 21
138.444744
 31
0.0
  0
LINE
  8
0
 10
-93.564536
 20
137.078613
 30
0.0
 11
-97.875575
 21
137.078613
 31
0.0
  0
LINE
  8
0
 10
-94.075575
 20
139.078613
 30
0.0
 11
-95.075575
 21
140.078613
 31
0.0
  0
LINE
  8
0
 10
-94.075575
 20
137.078613
 30
0.0
 11
-94.075575
 21
139.078613
 31
0.0
  0
CIRCLE
  8
0
 10
-101.130734
 20
133.603153
 30
0.0
 40
0.4
  0
CIRCLE
  8
0
 10
-101.130734
 20
131.524599
 30
0.0
 40
0.4
  0
CIRCLE
  8
0
 10
-101.130734
 20
129.778613
 30
0.0
 40
0.4
  0
CIRCLE
  8
0
 10
-101.130734
 20
135.678613
 30
0.0
 40
0.4
  0
LINE
  8
0
 10
-99.875575
 20
122.747089
 30
0.0
 11
-97.875575
 21
122.747089
 31
0.0
  0
LINE
  8
0
 10
-99.525575
 20
127.578613
 30
0.0
 11
-99.525575
 21
122.747089
 31
0.0
  0
LINE
  8
0
 10
-99.875575
 20
123.578613
 30
0.0
 11
-97.875575
 21
123.578613
 31
0.0
  0
LINE
  8
0
 10
-99.875575
 20
127.578613
 30
0.0
 11
-99.875575
 21
122.747089
 31
0.0
  0
LINE
  8
0
 10
-101.675575
 20
139.078613
 30
0.0
 11
-100.675575
 21
140.078613
 31
0.0
  0
LINE
  8
0
 10
-101.675575
 20
136.078613
 30
0.0
 11
-101.675575
 21
139.078613
 31
0.0
  0
LINE
  8
0
 10
-100.675575
 20
140.078613
 30
0.0
 11
-95.075575
 21
140.078613
 31
0.0
  0
LINE
  8
0
 10
-101.675575
 20
136.078613
 30
0.0
 11
-100.375575
 21
136.078613
 31
0.0
  0
LINE
  8
0
 10
-100.375575
 20
127.578613
 30
0.0
 11
-100.375575
 21
136.078613
 31
0.0
  0
LINE
  8
0
 10
-97.875575
 20
110.578613
 30
0.0
 11
-97.875575
 21
115.578613
 31
0.0
  0
LINE
  8
0
 10
-92.146983
 20
110.578613
 30
0.0
 11
-92.146983
 21
115.578613
 31
0.0
  0
LINE
  8
0
 10
-92.359447
 20
110.578613
 30
0.0
 11
-92.359447
 21
115.578613
 31
0.0
  0
LINE
  8
0
 10
-92.707737
 20
110.578613
 30
0.0
 11
-92.707737
 21
115.578613
 31
0.0
  0
LINE
  8
0
 10
-93.183276
 20
110.578613
 30
0.0
 11
-93.183276
 21
115.578613
 31
0.0
  0
LINE
  8
0
 10
-93.774356
 20
110.578613
 30
0.0
 11
-93.774356
 21
115.578613
 31
0.0
  0
LINE
  8
0
 10
-94.46642
 20
110.578613
 30
0.0
 11
-94.46642
 21
115.578613
 31
0.0
  0
LINE
  8
0
 10
-95.24243
 20
110.578613
 30
0.0
 11
-95.24243
 21
115.578613
 31
0.0
  0
LINE
  8
0
 10
-96.083276
 20
110.578613
 30
0.0
 11
-96.083276
 21
115.578613
 31
0.0
  0
LINE
  8
0
 10
-96.968255
 20
110.578613
 30
0.0
 11
-96.968255
 21
115.578613
 31
0.0
  0
LINE
  8
0
 10
-97.875575
 20
115.578613
 30
0.0
 11
-92.075575
 21
115.578613
 31
0.0
  0
LINE
  8
0
 10
-97.875575
 20
116.578613
 30
0.0
 11
-89.375575
 21
116.578613
 31
0.0
  0
LINE
  8
0
 10
-103.675575
 20
124.578613
 30
0.0
 11
-102.475575
 21
124.578613
 31
0.0
  0
LINE
  8
0
 10
-103.875575
 20
125.578613
 30
0.0
 11
-103.475575
 21
125.578613
 31
0.0
  0
LINE
  8
0
 10
-102.475575
 20
127.578613
 30
0.0
 11
-102.475575
 21
124.578613
 31
0.0
  0
LINE
  8
0
 10
-103.475575
 20
127.578613
 30
0.0
 11
-103.475575
 21
124.578613
 31
0.0
  0
ARC
  8
0
 10
-93.564536
 20
136.078613
 30
0.0
 40
1.0
 50
20.869348
 51
90.0
  0
ARC
  8
0
 10
-102.186614
 20
136.078613
 30
0.0
 40
1.0
 50
90.0
 51
159.130652
  0
LINE
  8
0
 10
-100.625575
 20
127.578613
 30
0.0
 11
-100.625575
 21
129.378613
 31
0.0
  0
LINE
  8
0
 10
-101.875575
 20
129.378613
 30
0.0
 11
-100.375575
 21
129.378613
 31
0.0
  0
LINE
  8
0
 10
-101.875575
 20
137.078613
 30
0.0
 11
-101.875575
 21
129.378613
 31
0.0
  0
LINE
  8
0
 10
-92.075575
 20
116.578613
 30
0.0
 11
-92.075575
 21
110.578613
 31
0.0
  0
LINE
  8
0
 10
-103.875575
 20
127.578613
 30
0.0
 11
-99.525575
 21
127.578613
 31
0.0
  0
LINE
  8
0
 10
-103.875575
 20
116.578613
 30
0.0
 11
-103.875575
 21
127.578613
 31
0.0
  0
LINE
  8
0
 10
-103.675575
 20
124.578613
 30
0.0
 11
-103.675575
 21
110.578613
 31
0.0
  0
LINE
  8
0
 10
-103.675575
 20
110.578613
 30
0.0
 11
-92.075575
 21
110.578613
 31
0.0
  0
ARC
  8
0
 10
-58.651443
 20
139.782172
 30
0.0
 40
3.007765
 50
127.398818
 51
270.083224
  0
ARC
  8
0
 10
-57.720328
 20
140.101868
 30
0.0
 40
3.007765
 50
315.880618
 51
82.144827
  0
LINE
  8
0
 10
-90.170007
 20
124.173531
 30
0.0
 11
-55.561081
 21
138.007995
 31
0.0
  0
LINE
  8
0
 10
-57.309258
 20
143.08141
 30
0.0
 11
-92.48395
 21
132.983042
 31
0.0
  0
LINE
  8
0
 10
-91.429547
 20
133.285753
 30
0.0
 11
-92.630141
 21
136.434852
 31
0.0
  0
LINE
  8
0
 10
-105.925575
 20
129.078613
 30
0.0
 11
-103.121009
 21
136.434852
 31
0.0
  0
LINE
  8
0
 10
-89.656383
 20
124.378846
 30
0.0
 11
-89.375575
 21
116.578613
 31
0.0
  0
LINE
  8
0
 10
-105.925575
 20
129.078613
 30
0.0
 11
-106.375575
 21
116.578613
 31
0.0
  0
LINE
  8
0
 10
-97.875575
 20
129.078613
 30
0.0
 11
-91.175739
 21
129.078613
 31
0.0
  0
LINE
  8
0
 10
-102.186614
 20
137.078613
 30
0.0
 11
-101.675575
 21
137.078613
 31
0.0
  0
LINE
  8
0
 10
-106.375575
 20
116.578613
 30
0.0
 11
-103.675575
 21
116.578613
 31
0.0
  0
LINE
  8
0
 10
-100.875575
 20
110.578613
 30
0.0
 11
-100.875575
 21
120.578613
 31
0.0
  0
LINE
  8
0
 10
-100.375575
 20
111.078613
 30
0.0
 11
-100.375575
 21
122.458414
 31
0.0
  0
LINE
  8
0
 10
-99.875575
 20
122.747089
 30
0.0
 11
-100.375575
 21
122.458414
 31
0.0
  0
LINE
  8
0
 10
-100.875575
 20
120.578613
 30
0.0
 11
-97.875575
 21
120.578613
 31
0.0
  0
INSERT
  8
0
  2
*X3
 10
-19.767994
 20
-19.912219
 30
0.0
  0
ARC
  8
0
 10
-97.875575
 20
96.65023
 30
0.0
 40
2.8
 50
280.286561
 51
79.713439
  0
ARC
  8
0
 10
17.436921
 20
96.65023
 30
0.0
 40
2.75
 50
100.475682
 51
259.524318
  0
ARC
  8
0
 10
17.436921
 20
96.65023
 30
0.0
 40
2.75
 50
280.475682
 51
79.524318
  0
CIRCLE
  8
0
 10
-97.875575
 20
96.65023
 30
0.0
 40
4.0
  0
LINE
  8
0
  6
CENTER
 10
-92.975575
 20
-3.194342
 30
0.0
 11
-92.975575
 21
48.582868
 31
0.0
  0
LINE
  8
0
 10
-106.375575
 20
10.118596
 30
0.0
 11
-102.975575
 21
10.118596
 31
0.0
  0
LINE
  8
0
 10
-99.571955
 20
43.118596
 30
0.0
 11
-97.975575
 21
43.118596
 31
0.0
  0
LINE
  8
0
 10
-92.975575
 20
30.118596
 30
0.0
 11
-82.304086
 21
30.118596
 31
0.0
  0
LINE
  8
0
 10
-106.375575
 20
10.118596
 30
0.0
 11
-105.675575
 21
30.118596
 31
0.0
  0
LINE
  8
0
 10
-79.575575
 20
10.118596
 30
0.0
 11
-80.065049
 21
24.103578
 31
0.0
  0
LINE
  8
0
 10
-105.675575
 20
30.118596
 30
0.0
 11
-101.452806
 21
41.798596
 31
0.0
  0
LINE
  8
0
 10
-83.437446
 20
38.864196
 30
0.0
 11
-84.498344
 21
41.798596
 31
0.0
  0
LINE
  8
0
 10
-10.028758
 20
51.862013
 30
0.0
 11
-9.982232
 21
53.806896
 31
0.0
  0
LINE
  8
0
 10
-85.924715
 20
38.207885
 30
0.0
 11
-14.493005
 21
57.056446
 31
0.0
  0
ARC
  8
0
 10
-99.571955
 20
41.118596
 30
0.0
 40
2.0
 50
90.0
 51
160.123128
  0
ARC
  8
0
 10
-86.379195
 20
41.118596
 30
0.0
 40
2.0
 50
19.876872
 51
90.0
  0
LINE
  8
0
 10
-11.310706
 20
55.932985
 30
0.0
 11
-10.158192
 21
54.365679
 31
0.0
  0
LINE
  8
0
 10
-10.158192
 20
54.365679
 30
0.0
 11
-9.982232
 21
53.806896
 31
0.0
  0
LINE
  8
0
 10
-21.361112
 20
53.004613
 30
0.0
 11
-21.413339
 21
50.821435
 31
0.0
  0
LINE
  8
0
 10
-21.413339
 20
50.821435
 30
0.0
 11
-21.237379
 21
50.262652
 31
0.0
  0
LINE
  8
0
 10
-19.943654
 20
48.503314
 30
0.0
 11
-21.237379
 21
50.262652
 31
0.0
  0
ARC
  8
0
 10
-13.727598
 20
54.15573
 30
0.0
 40
3.0
 50
36.328805
 51
104.781621
  0
ARC
  8
0
 10
-13.0279
 20
51.933759
 30
0.0
 40
3.0
 50
290.176792
 51
358.629609
  0
LINE
  8
0
 10
-11.993147
 20
49.117861
 30
0.0
 11
-80.715943
 21
23.864395
 31
0.0
  0
ARC
  8
0
 10
-18.36197
 20
52.932867
 30
0.0
 40
3.0
 50
104.781621
 51
178.629609
  0
ARC
  8
0
 10
-17.526762
 20
50.280569
 30
0.0
 40
3.0
 50
216.328805
 51
290.176792
  0
LINE
  8
0
 10
-83.097575
 20
38.953877
 30
0.0
 11
-83.573185
 21
39.239645
 31
0.0
  0
LINE
  8
0
 10
-102.475575
 20
0.118596
 30
0.0
 11
-83.475575
 21
0.118596
 31
0.0
  0
LINE
  8
0
  6
CONTINUOUS
 10
-102.475575
 20
0.118596
 30
0.0
 11
-102.475575
 21
8.618596
 31
0.0
  0
LINE
  8
0
  6
CONTINUOUS
 10
-102.275575
 20
13.118596
 30
0.0
 11
-102.275575
 21
25.618596
 31
0.0
  0
LINE
  8
0
 10
-102.075575
 20
29.618596
 30
0.0
 11
-95.475575
 21
29.618596
 31
0.0
  0
LINE
  8
0
 10
-102.275575
 20
25.618596
 30
0.0
 11
-100.675575
 21
25.618596
 31
0.0
  0
LINE
  8
0
 10
-103.475575
 20
13.118596
 30
0.0
 11
-102.275575
 21
13.118596
 31
0.0
  0
LINE
  8
0
  6
CONTINUOUS
 10
-102.075575
 20
25.618596
 30
0.0
 11
-102.075575
 21
29.618596
 31
0.0
  0
LINE
  8
0
 10
-103.975575
 20
14.118596
 30
0.0
 11
-102.275575
 21
14.118596
 31
0.0
  0
LINE
  8
0
  6
CONTINUOUS
 10
-103.475575
 20
10.118596
 30
0.0
 11
-103.475575
 21
13.118596
 31
0.0
  0
LINE
  8
0
  6
CONTINUOUS
 10
-103.975575
 20
10.118596
 30
0.0
 11
-103.975575
 21
14.118596
 31
0.0
  0
LINE
  8
0
 10
-102.963096
 20
14.118596
 30
0.0
 11
-102.963096
 21
13.118596
 31
0.0
  0
LINE
  8
0
 10
-79.575575
 20
10.118596
 30
0.0
 11
-92.975575
 21
10.118596
 31
0.0
  0
LINE
  8
0
  6
CONTINUOUS
 10
-83.475575
 20
0.118596
 30
0.0
 11
-83.475575
 21
8.618596
 31
0.0
  0
LINE
  8
0
  6
CONTINUOUS
 10
-102.975575
 20
8.618596
 30
0.0
 11
-102.975575
 21
10.118596
 31
0.0
  0
LINE
  8
0
  6
CONTINUOUS
 10
-82.975575
 20
8.618596
 30
0.0
 11
-82.975575
 21
10.118596
 31
0.0
  0
LINE
  8
0
 10
-102.975575
 20
8.618596
 30
0.0
 11
-102.475575
 21
8.618596
 31
0.0
  0
LINE
  8
0
 10
-92.975575
 20
8.618596
 30
0.0
 11
-82.975575
 21
8.618596
 31
0.0
  0
LINE
  8
0
  6
CONTINUOUS
 10
-98.175575
 20
33.118596
 30
0.0
 11
-98.175575
 21
43.118596
 31
0.0
  0
LINE
  8
0
 10
-98.175575
 20
33.118596
 30
0.0
 11
-96.475575
 21
33.118596
 31
0.0
  0
LINE
  8
0
 10
-96.475575
 20
30.618596
 30
0.0
 11
-102.475575
 21
30.618596
 31
0.0
  0
LINE
  8
0
  6
CONTINUOUS
 10
-102.475575
 20
13.118596
 30
0.0
 11
-102.475575
 21
30.618596
 31
0.0
  0
LINE
  8
0
 10
-102.075575
 20
27.618596
 30
0.0
 11
-102.475575
 21
27.618596
 31
0.0
  0
LINE
  8
0
  6
CONTINUOUS
 10
-100.675575
 20
25.618596
 30
0.0
 11
-100.675575
 21
29.618596
 31
0.0
  0
LINE
  8
0
 10
-100.951541
 20
29.618596
 30
0.0
 11
-100.951541
 21
30.618596
 31
0.0
  0
LINE
  8
0
  6
CONTINUOUS
 10
-96.975575
 20
30.618596
 30
0.0
 11
-96.975575
 21
33.118596
 31
0.0
  0
LINE
  8
0
  6
CONTINUOUS
 10
-99.975575
 20
0.118596
 30
0.0
 11
-99.975575
 21
23.192389
 31
0.0
  0
LINE
  8
0
  6
CONTINUOUS
 10
-98.975575
 20
24.192389
 30
0.0
 11
-98.975575
 21
29.618596
 31
0.0
  0
LINE
  8
0
 10
-99.975575
 20
23.192389
 30
0.0
 11
-98.975575
 21
24.192389
 31
0.0
  0
LINE
  8
0
 10
-97.225575
 20
22.63659
 30
0.0
 11
-95.975575
 21
23.358278
 31
0.0
  0
LINE
  8
0
 10
-97.975575
 20
19.118596
 30
0.0
 11
-92.975575
 21
19.118596
 31
0.0
  0
LINE
  8
0
  6
CONTINUOUS
 10
-96.475575
 20
29.618596
 30
0.0
 11
-96.475575
 21
41.118596
 31
0.0
  0
LINE
  8
0
 10
-97.975575
 20
41.118596
 30
0.0
 11
-96.475575
 21
41.118596
 31
0.0
  0
LINE
  8
0
 10
-96.975575
 20
46.118596
 30
0.0
 11
-93.575575
 21
46.118596
 31
0.0
  0
LINE
  8
0
  6
CONTINUOUS
 10
-97.975575
 20
41.118596
 30
0.0
 11
-97.975575
 21
45.118596
 31
0.0
  0
LINE
  8
0
 10
-92.975575
 20
43.118596
 30
0.0
 11
-86.379195
 21
43.118596
 31
0.0
  0
LINE
  8
0
 10
-95.975575
 20
25.118596
 30
0.0
 11
-95.975575
 21
29.618596
 31
0.0
  0
LINE
  8
0
 10
-95.475575
 20
23.358278
 30
0.0
 11
-95.475575
 21
29.618596
 31
0.0
  0
LINE
  8
0
 10
-95.975575
 20
23.358278
 30
0.0
 11
-92.975575
 21
23.358278
 31
0.0
  0
LINE
  8
0
 10
-95.475575
 20
24.618596
 30
0.0
 11
-92.975575
 21
24.618596
 31
0.0
  0
LINE
  8
0
  6
CONTINUOUS
 10
-87.975575
 20
43.118596
 30
0.0
 11
-87.975575
 21
45.118596
 31
0.0
  0
LINE
  8
0
 10
-97.975575
 20
45.118596
 30
0.0
 11
-96.975575
 21
46.118596
 31
0.0
  0
LINE
  8
0
 10
-87.975575
 20
45.118596
 30
0.0
 11
-88.975575
 21
46.118596
 31
0.0
  0
LINE
  8
0
 10
-87.975575
 20
45.118596
 30
0.0
 11
-92.375575
 21
45.118596
 31
0.0
  0
LINE
  8
0
  6
CONTINUOUS
 10
-92.375575
 20
44.680069
 30
0.0
 11
-92.375575
 21
46.118596
 31
0.0
  0
LINE
  8
0
  6
CONTINUOUS
 10
-93.575575
 20
44.680069
 30
0.0
 11
-93.575575
 21
46.118596
 31
0.0
  0
LINE
  8
0
 10
-92.375575
 20
44.680069
 30
0.0
 11
-93.575575
 21
44.680069
 31
0.0
  0
LINE
  8
0
 10
-92.375575
 20
46.118596
 30
0.0
 11
-88.975575
 21
46.118596
 31
0.0
  0
CIRCLE
  8
0
 10
-97.357778
 20
40.618596
 30
0.0
 40
0.5
  0
CIRCLE
  8
0
 10
-97.357778
 20
33.618596
 30
0.0
 40
0.5
  0
CIRCLE
  8
0
 10
-97.357778
 20
35.865411
 30
0.0
 40
0.5
  0
CIRCLE
  8
0
 10
-97.357778
 20
38.230479
 30
0.0
 40
0.5
  0
LINE
  8
0
 10
-91.982555
 20
0.118596
 30
0.0
 11
-91.982555
 21
8.618596
 31
0.0
  0
LINE
  8
0
 10
-91.000414
 20
0.118596
 30
0.0
 11
-91.000414
 21
8.618596
 31
0.0
  0
LINE
  8
0
 10
-90.039913
 20
0.118596
 30
0.0
 11
-90.039913
 21
8.618596
 31
0.0
  0
LINE
  8
0
 10
-89.111577
 20
0.118596
 30
0.0
 11
-89.111577
 21
8.618596
 31
0.0
  0
LINE
  8
0
 10
-88.225575
 20
0.118596
 30
0.0
 11
-88.225575
 21
8.618596
 31
0.0
  0
LINE
  8
0
 10
-87.391615
 20
0.118596
 30
0.0
 11
-87.391615
 21
8.618596
 31
0.0
  0
LINE
  8
0
 10
-86.618834
 20
0.118596
 30
0.0
 11
-86.618834
 21
8.618596
 31
0.0
  0
LINE
  8
0
 10
-85.915699
 20
0.118596
 30
0.0
 11
-85.915699
 21
8.618596
 31
0.0
  0
LINE
  8
0
 10
-85.289913
 20
0.118596
 30
0.0
 11
-85.289913
 21
8.618596
 31
0.0
  0
LINE
  8
0
 10
-84.748334
 20
0.118596
 30
0.0
 11
-84.748334
 21
8.618596
 31
0.0
  0
LINE
  8
0
 10
-84.296893
 20
0.118596
 30
0.0
 11
-84.296893
 21
8.618596
 31
0.0
  0
LINE
  8
0
 10
-83.940538
 20
0.118596
 30
0.0
 11
-83.940538
 21
8.618596
 31
0.0
  0
LINE
  8
0
 10
-83.683173
 20
0.118596
 30
0.0
 11
-83.683173
 21
8.618596
 31
0.0
  0
LINE
  8
0
 10
-83.527617
 20
0.118596
 30
0.0
 11
-83.527617
 21
8.618596
 31
0.0
  0
ARC
  8
0
 10
-92.975575
 20
-22.342786
 30
0.0
 40
13.4
 50
30.811163
 51
329.188837
  0
CIRCLE
  8
0
 10
-92.975575
 20
-22.342786
 30
0.0
 40
5.2
  0
ARC
  8
0
 10
-92.975575
 20
-22.342786
 30
0.0
 40
4.0
 50
98.626927
 51
261.373073
  0
CIRCLE
  8
0
 10
-92.975575
 20
-22.342786
 30
0.0
 40
5.0
  0
CIRCLE
  8
0
 10
-92.975575
 20
-22.342786
 30
0.0
 40
7.564403
  0
ARC
  8
0
 10
-92.975575
 20
-22.342786
 30
0.0
 40
12.7
 50
32.830863
 51
327.169137
  0
LINE
  8
0
  6
CONTINUOUS
 10
-93.575575
 20
-27.306655
 30
0.0
 11
-93.575575
 21
-17.378916
 31
0.0
  0
LINE
  8
0
  6
CONTINUOUS
 10
-92.375575
 20
-27.306655
 30
0.0
 11
-92.375575
 21
-17.378916
 31
0.0
  0
ARC
  8
0
 10
-92.975575
 20
-22.342786
 30
0.0
 40
4.0
 50
278.626927
 51
81.373073
  0
LINE
  8
0
 10
-9.982232
 20
-16.942786
 30
0.0
 11
-9.982232
 21
-27.742786
 31
0.0
  0
ARC
  8
0
 10
-92.975575
 20
-22.342786
 30
0.0
 40
9.40239
 50
311.884554
 51
48.115446
  0
LINE
  8
0
 10
-86.69824
 20
-29.342786
 30
0.0
 11
-18.325359
 21
-27.560293
 31
0.0
  0
LINE
  8
0
 10
-86.69824
 20
-15.342786
 30
0.0
 11
-18.325359
 21
-17.125279
 31
0.0
  0
LINE
  8
0
 10
-18.825359
 20
-14.442786
 30
0.0
 11
-12.482232
 21
-14.442786
 31
0.0
  0
LINE
  8
0
 10
-18.825359
 20
-30.242786
 30
0.0
 11
-12.482232
 21
-30.242786
 31
0.0
  0
LINE
  8
0
 10
-21.325359
 20
-16.942786
 30
0.0
 11
-21.325359
 21
-17.047069
 31
0.0
  0
LINE
  8
0
 10
-21.325359
 20
-27.638503
 30
0.0
 11
-21.325359
 21
-27.742786
 31
0.0
  0
ARC
  8
0
 10
-18.825359
 20
-16.942786
 30
0.0
 40
2.5
 50
90.0
 51
180.0
  0
ARC
  8
0
 10
-12.482232
 20
-16.942786
 30
0.0
 40
2.5
 50
0.0
 51
90.0
  0
ARC
  8
0
 10
-12.482232
 20
-27.742786
 30
0.0
 40
2.5
 50
270.0
 51
0.0
  0
ARC
  8
0
 10
-18.825359
 20
-27.742786
 30
0.0
 40
2.5
 50
180.0
 51
270.0
  0
LINE
  8
0
 10
21.986955
 20
0.118596
 30
0.0
 11
21.986955
 21
8.618596
 31
0.0
  0
LINE
  8
0
 10
21.831399
 20
0.118596
 30
0.0
 11
21.831399
 21
8.618596
 31
0.0
  0
LINE
  8
0
 10
21.574034
 20
0.118596
 30
0.0
 11
21.574034
 21
8.618596
 31
0.0
  0
LINE
  8
0
 10
21.217679
 20
0.118596
 30
0.0
 11
21.217679
 21
8.618596
 31
0.0
  0
LINE
  8
0
 10
20.766238
 20
0.118596
 30
0.0
 11
20.766238
 21
8.618596
 31
0.0
  0
LINE
  8
0
 10
20.224659
 20
0.118596
 30
0.0
 11
20.224659
 21
8.618596
 31
0.0
  0
LINE
  8
0
 10
19.598873
 20
0.118596
 30
0.0
 11
19.598873
 21
8.618596
 31
0.0
  0
LINE
  8
0
 10
18.895738
 20
0.118596
 30
0.0
 11
18.895738
 21
8.618596
 31
0.0
  0
LINE
  8
0
 10
18.122957
 20
0.118596
 30
0.0
 11
18.122957
 21
8.618596
 31
0.0
  0
LINE
  8
0
 10
17.288997
 20
0.118596
 30
0.0
 11
17.288997
 21
8.618596
 31
0.0
  0
LINE
  8
0
 10
16.402995
 20
0.118596
 30
0.0
 11
16.402995
 21
8.618596
 31
0.0
  0
LINE
  8
0
 10
15.474659
 20
0.118596
 30
0.0
 11
15.474659
 21
8.618596
 31
0.0
  0
LINE
  8
0
 10
14.514158
 20
0.118596
 30
0.0
 11
14.514158
 21
8.618596
 31
0.0
  0
LINE
  8
0
 10
13.532018
 20
0.118596
 30
0.0
 11
13.532018
 21
8.618596
 31
0.0
  0
LINE
  8
0
 10
8.538997
 20
46.118596
 30
0.0
 11
16.538997
 21
46.118596
 31
0.0
  0
LINE
  8
0
 10
17.538997
 20
45.118596
 30
0.0
 11
7.538997
 21
45.118596
 31
0.0
  0
LINE
  8
0
 10
17.538997
 20
45.118596
 30
0.0
 11
16.538997
 21
46.118596
 31
0.0
  0
LINE
  8
0
 10
7.538997
 20
45.118596
 30
0.0
 11
8.538997
 21
46.118596
 31
0.0
  0
LINE
  8
0
  6
CONTINUOUS
 10
17.538997
 20
43.118596
 30
0.0
 11
17.538997
 21
45.118596
 31
0.0
  0
LINE
  8
0
 10
5.942619
 20
43.118596
 30
0.0
 11
19.135377
 21
43.118596
 31
0.0
  0
LINE
  8
0
  6
CONTINUOUS
 10
7.538997
 20
43.118596
 30
0.0
 11
7.538997
 21
45.118596
 31
0.0
  0
LINE
  8
0
 10
2.538997
 20
8.618596
 30
0.0
 11
22.538997
 21
8.618596
 31
0.0
  0
LINE
  8
0
  6
CONTINUOUS
 10
22.538997
 20
8.618596
 30
0.0
 11
22.538997
 21
10.118596
 31
0.0
  0
LINE
  8
0
  6
CONTINUOUS
 10
2.538997
 20
8.618596
 30
0.0
 11
2.538997
 21
10.118596
 31
0.0
  0
LINE
  8
0
  6
CONTINUOUS
 10
22.038997
 20
0.118596
 30
0.0
 11
22.038997
 21
8.618596
 31
0.0
  0
LINE
  8
0
 10
25.938997
 20
10.118596
 30
0.0
 11
-0.861003
 21
10.118596
 31
0.0
  0
LINE
  8
0
  6
CONTINUOUS
 10
3.038997
 20
0.118596
 30
0.0
 11
3.038997
 21
8.618596
 31
0.0
  0
LINE
  8
0
 10
3.038997
 20
0.118596
 30
0.0
 11
22.038997
 21
0.118596
 31
0.0
  0
ARC
  8
0
 10
19.135377
 20
41.118596
 30
0.0
 40
2.0
 50
19.876872
 51
90.0
  0
ARC
  8
0
 10
5.942617
 20
41.118596
 30
0.0
 40
2.0
 50
90.0
 51
160.123128
  0
LINE
  8
0
 10
25.238997
 20
30.118596
 30
0.0
 11
21.016228
 21
41.798596
 31
0.0
  0
LINE
  8
0
 10
-0.161003
 20
30.118596
 30
0.0
 11
4.061766
 21
41.798596
 31
0.0
  0
LINE
  8
0
 10
25.938997
 20
10.118596
 30
0.0
 11
25.238997
 21
30.118596
 31
0.0
  0
LINE
  8
0
 10
-0.861003
 20
10.118596
 30
0.0
 11
-0.161003
 21
30.118596
 31
0.0
  0
LINE
  8
0
 10
-0.161003
 20
30.118596
 30
0.0
 11
25.238997
 21
30.118596
 31
0.0
  0
LINE
  8
0
  6
CONTINUOUS
 10
12.538997
 20
0.118596
 30
0.0
 11
12.538997
 21
8.618596
 31
0.0
  0
LINE
  8
0
 10
11.545977
 20
0.118596
 30
0.0
 11
11.545977
 21
8.618596
 31
0.0
  0
LINE
  8
0
 10
10.563836
 20
0.118596
 30
0.0
 11
10.563836
 21
8.618596
 31
0.0
  0
LINE
  8
0
 10
9.603336
 20
0.118596
 30
0.0
 11
9.603336
 21
8.618596
 31
0.0
  0
LINE
  8
0
 10
8.674999
 20
0.118596
 30
0.0
 11
8.674999
 21
8.618596
 31
0.0
  0
LINE
  8
0
 10
7.788997
 20
0.118596
 30
0.0
 11
7.788997
 21
8.618596
 31
0.0
  0
LINE
  8
0
 10
6.955037
 20
0.118596
 30
0.0
 11
6.955037
 21
8.618596
 31
0.0
  0
LINE
  8
0
 10
6.182256
 20
0.118596
 30
0.0
 11
6.182256
 21
8.618596
 31
0.0
  0
LINE
  8
0
 10
5.479121
 20
0.118596
 30
0.0
 11
5.479121
 21
8.618596
 31
0.0
  0
LINE
  8
0
 10
4.853336
 20
0.118596
 30
0.0
 11
4.853336
 21
8.618596
 31
0.0
  0
LINE
  8
0
 10
4.311756
 20
0.118596
 30
0.0
 11
4.311756
 21
8.618596
 31
0.0
  0
LINE
  8
0
 10
3.860315
 20
0.118596
 30
0.0
 11
3.860315
 21
8.618596
 31
0.0
  0
LINE
  8
0
 10
3.50396
 20
0.118596
 30
0.0
 11
3.50396
 21
8.618596
 31
0.0
  0
LINE
  8
0
 10
3.246595
 20
0.118596
 30
0.0
 11
3.246595
 21
8.618596
 31
0.0
  0
LINE
  8
0
 10
3.091039
 20
0.118596
 30
0.0
 11
3.091039
 21
8.618596
 31
0.0
  0
LINE
  8
0
 10
7.138997
 20
57.056446
 30
0.0
 11
17.938997
 21
57.056446
 31
0.0
  0
LINE
  8
0
 10
4.638997
 20
49.862773
 30
0.0
 11
4.638997
 21
54.556446
 31
0.0
  0
LINE
  8
0
 10
20.438997
 20
49.862773
 30
0.0
 11
20.438997
 21
54.556446
 31
0.0
  0
ARC
  8
0
 10
7.138997
 20
49.862773
 30
0.0
 40
2.5
 50
180.0
 51
262.519477
  0
ARC
  8
0
 10
7.138997
 20
54.556446
 30
0.0
 40
2.5
 50
90.0
 51
180.0
  0
ARC
  8
0
 10
17.938997
 20
54.556446
 30
0.0
 40
2.5
 50
0.0
 51
90.0
  0
ARC
  8
0
 10
17.938997
 20
49.862773
 30
0.0
 40
2.5
 50
277.480523
 51
360.0
  0
LINE
  8
0
 10
7.24328
 20
54.06136
 30
0.0
 11
6.538997
 21
43.118596
 31
0.0
  0
LINE
  8
0
 10
17.834715
 20
54.06136
 30
0.0
 11
18.538997
 21
43.118596
 31
0.0
  0
INSERT
  8
0
  2
*X5
 10
-87.902095
 20
-190.599227
 30
0.0
  0
INSERT
  8
0
  2
*X4
 10
-102.798492
 20
-190.599227
 30
0.0
  0
LINE
  8
0
 10
-91.175739
 20
129.078613
 30
0.0
 11
-92.750035
 21
132.393418
 31
0.0
  0
LINE
  8
0
 10
-90.68717
 20
124.485137
 30
0.0
 11
-91.175739
 21
129.078613
 31
0.0
  0
LINE
  8
0
 10
27.441568
 20
132.48501
 30
0.0
 11
26.473764
 21
138.14058
 31
0.0
  0
LINE
  8
0
 10
26.473764
 20
138.14058
 30
0.0
 11
23.718022
 21
143.675693
 31
0.0
  0
LINE
  8
0
 10
-81.568586
 20
24.381965
 30
0.0
 11
-82.304086
 21
30.118596
 31
0.0
  0
LINE
  8
0
 10
-82.304086
 20
30.118596
 30
0.0
 11
-86.308811
 21
37.304959
 31
0.0
  0
LINE
  8
0
 10
-92.48395
 20
132.983042
 30
0.0
 11
-92.750035
 21
132.393418
 31
0.0
  0
LINE
  8
0
 10
-90.68717
 20
124.485137
 30
0.0
 11
-90.170007
 21
124.173531
 31
0.0
  0
LINE
  8
0
 10
23.977449
 20
144.255261
 30
0.0
 11
23.718022
 21
143.675693
 31
0.0
  0
LINE
  8
0
 10
27.441568
 20
132.48501
 30
0.0
 11
27.990409
 21
132.177201
 31
0.0
  0
LINE
  8
0
 10
-85.924715
 20
38.207885
 30
0.0
 11
-86.308811
 21
37.304959
 31
0.0
  0
LINE
  8
0
 10
-81.568586
 20
24.381965
 30
0.0
 11
-80.715943
 21
23.864395
 31
0.0
  0
INSERT
  8
0
  2
*X7
 10
-182.37974
 20
-130.927296
 30
0.0
  0
INSERT
  8
0
  2
*X6
 10
-182.37974
 20
-186.80865
 30
0.0
  0
LINE
  8
0
 10
205.917773
 20
7.424464
 30
0.0
 11
205.917773
 21
18.424464
 31
0.0
  0
LINE
  8
0
 10
213.602595
 20
57.624464
 30
0.0
 11
212.131347
 21
70.002164
 31
0.0
  0
LINE
  8
0
 10
198.232952
 20
57.624464
 30
0.0
 11
199.7042
 21
70.002164
 31
0.0
  0
ARC
  8
0
 10
209.962869
 20
69.0826
 30
0.0
 40
5.370856
 50
301.684823
 51
66.187244
  0
ARC
  8
0
 10
201.872678
 20
69.0826
 30
0.0
 40
5.370856
 50
113.812756
 51
238.315177
  0
ARC
  8
0
 10
205.917773
 20
55.191987
 30
0.0
 40
19.804247
 50
71.714659
 51
108.285341
  0
LINE
  8
0
 10
222.117773
 20
42.924464
 30
0.0
 11
189.717773
 21
42.924464
 31
0.0
  0
LINE
  8
0
 10
193.95876
 20
7.424464
 30
0.0
 11
193.95876
 21
18.424464
 31
0.0
  0
LINE
  8
0
 10
194.081438
 20
7.424464
 30
0.0
 11
194.081438
 21
18.424464
 31
0.0
  0
LINE
  8
0
 10
194.28497
 20
7.424464
 30
0.0
 11
194.28497
 21
18.424464
 31
0.0
  0
LINE
  8
0
 10
194.567967
 20
7.424464
 30
0.0
 11
194.567967
 21
18.424464
 31
0.0
  0
LINE
  8
0
 10
194.928494
 20
7.424464
 30
0.0
 11
194.928494
 21
18.424464
 31
0.0
  0
LINE
  8
0
 10
195.364088
 20
7.424464
 30
0.0
 11
195.364088
 21
18.424464
 31
0.0
  0
LINE
  8
0
 10
195.871776
 20
7.424464
 30
0.0
 11
195.871776
 21
18.424464
 31
0.0
  0
LINE
  8
0
 10
196.448087
 20
7.424464
 30
0.0
 11
196.448087
 21
18.424464
 31
0.0
  0
LINE
  8
0
 10
197.089087
 20
7.424464
 30
0.0
 11
197.089087
 21
18.424464
 31
0.0
  0
LINE
  8
0
 10
197.790395
 20
7.424464
 30
0.0
 11
197.790395
 21
18.424464
 31
0.0
  0
LINE
  8
0
 10
198.547221
 20
7.424464
 30
0.0
 11
198.547221
 21
18.424464
 31
0.0
  0
LINE
  8
0
 10
199.354396
 20
7.424464
 30
0.0
 11
199.354396
 21
18.424464
 31
0.0
  0
LINE
  8
0
 10
200.206405
 20
7.424464
 30
0.0
 11
200.206405
 21
18.424464
 31
0.0
  0
LINE
  8
0
 10
201.097428
 20
7.424464
 30
0.0
 11
201.097428
 21
18.424464
 31
0.0
  0
LINE
  8
0
 10
202.02138
 20
7.424464
 30
0.0
 11
202.02138
 21
18.424464
 31
0.0
  0
LINE
  8
0
 10
202.971948
 20
7.424464
 30
0.0
 11
202.971948
 21
18.424464
 31
0.0
  0
LINE
  8
0
 10
203.942638
 20
7.424464
 30
0.0
 11
203.942638
 21
18.424464
 31
0.0
  0
LINE
  8
0
 10
204.926821
 20
7.424464
 30
0.0
 11
204.926821
 21
18.424464
 31
0.0
  0
LINE
  8
0
 10
193.917773
 20
7.424464
 30
0.0
 11
193.917773
 21
18.424464
 31
0.0
  0
LINE
  8
0
 10
217.917773
 20
7.424464
 30
0.0
 11
217.917773
 21
18.424464
 31
0.0
  0
LINE
  8
0
 10
206.908726
 20
7.424464
 30
0.0
 11
206.908726
 21
18.424464
 31
0.0
  0
LINE
  8
0
 10
207.892909
 20
7.424464
 30
0.0
 11
207.892909
 21
18.424464
 31
0.0
  0
LINE
  8
0
 10
208.863599
 20
7.424464
 30
0.0
 11
208.863599
 21
18.424464
 31
0.0
  0
LINE
  8
0
 10
209.814167
 20
7.424464
 30
0.0
 11
209.814167
 21
18.424464
 31
0.0
  0
LINE
  8
0
 10
210.738119
 20
7.424464
 30
0.0
 11
210.738119
 21
18.424464
 31
0.0
  0
LINE
  8
0
 10
211.629142
 20
7.424464
 30
0.0
 11
211.629142
 21
18.424464
 31
0.0
  0
LINE
  8
0
 10
212.481151
 20
7.424464
 30
0.0
 11
212.481151
 21
18.424464
 31
0.0
  0
LINE
  8
0
 10
213.288326
 20
7.424464
 30
0.0
 11
213.288326
 21
18.424464
 31
0.0
  0
LINE
  8
0
 10
214.045152
 20
7.424464
 30
0.0
 11
214.045152
 21
18.424464
 31
0.0
  0
LINE
  8
0
 10
214.74646
 20
7.424464
 30
0.0
 11
214.74646
 21
18.424464
 31
0.0
  0
LINE
  8
0
 10
215.38746
 20
7.424464
 30
0.0
 11
215.38746
 21
18.424464
 31
0.0
  0
LINE
  8
0
 10
215.963771
 20
7.424464
 30
0.0
 11
215.963771
 21
18.424464
 31
0.0
  0
LINE
  8
0
 10
216.471459
 20
7.424464
 30
0.0
 11
216.471459
 21
18.424464
 31
0.0
  0
LINE
  8
0
 10
216.907053
 20
7.424464
 30
0.0
 11
216.907053
 21
18.424464
 31
0.0
  0
LINE
  8
0
 10
217.26758
 20
7.424464
 30
0.0
 11
217.26758
 21
18.424464
 31
0.0
  0
LINE
  8
0
 10
217.550577
 20
7.424464
 30
0.0
 11
217.550577
 21
18.424464
 31
0.0
  0
LINE
  8
0
 10
217.754109
 20
7.424464
 30
0.0
 11
217.754109
 21
18.424464
 31
0.0
  0
LINE
  8
0
 10
217.876787
 20
7.424464
 30
0.0
 11
217.876787
 21
18.424464
 31
0.0
  0
LINE
  8
0
 10
87.087015
 20
7.424464
 30
0.0
 11
87.087015
 21
18.424464
 31
0.0
  0
LINE
  8
0
 10
86.964337
 20
7.424464
 30
0.0
 11
86.964337
 21
18.424464
 31
0.0
  0
LINE
  8
0
 10
86.760804
 20
7.424464
 30
0.0
 11
86.760804
 21
18.424464
 31
0.0
  0
LINE
  8
0
 10
86.477808
 20
7.424464
 30
0.0
 11
86.477808
 21
18.424464
 31
0.0
  0
LINE
  8
0
 10
86.117281
 20
7.424464
 30
0.0
 11
86.117281
 21
18.424464
 31
0.0
  0
LINE
  8
0
 10
85.681686
 20
7.424464
 30
0.0
 11
85.681686
 21
18.424464
 31
0.0
  0
LINE
  8
0
 10
85.173999
 20
7.424464
 30
0.0
 11
85.173999
 21
18.424464
 31
0.0
  0
LINE
  8
0
 10
84.597687
 20
7.424464
 30
0.0
 11
84.597687
 21
18.424464
 31
0.0
  0
LINE
  8
0
 10
83.956688
 20
7.424464
 30
0.0
 11
83.956688
 21
18.424464
 31
0.0
  0
LINE
  8
0
 10
83.25538
 20
7.424464
 30
0.0
 11
83.25538
 21
18.424464
 31
0.0
  0
LINE
  8
0
 10
82.498553
 20
7.424464
 30
0.0
 11
82.498553
 21
18.424464
 31
0.0
  0
LINE
  8
0
 10
81.691379
 20
7.424464
 30
0.0
 11
81.691379
 21
18.424464
 31
0.0
  0
LINE
  8
0
 10
80.83937
 20
7.424464
 30
0.0
 11
80.83937
 21
18.424464
 31
0.0
  0
LINE
  8
0
 10
79.948346
 20
7.424464
 30
0.0
 11
79.948346
 21
18.424464
 31
0.0
  0
LINE
  8
0
 10
79.024395
 20
7.424464
 30
0.0
 11
79.024395
 21
18.424464
 31
0.0
  0
LINE
  8
0
 10
78.073827
 20
7.424464
 30
0.0
 11
78.073827
 21
18.424464
 31
0.0
  0
LINE
  8
0
 10
77.103136
 20
7.424464
 30
0.0
 11
77.103136
 21
18.424464
 31
0.0
  0
LINE
  8
0
 10
76.118953
 20
7.424464
 30
0.0
 11
76.118953
 21
18.424464
 31
0.0
  0
LINE
  8
0
  6
CENTER
 10
75.128001
 20
3.069896
 30
0.0
 11
75.128001
 21
63.531135
 31
0.0
  0
ARC
  8
0
 10
171.391189
 20
68.945416
 30
0.0
 40
5.375033
 50
111.262806
 51
283.260894
  0
ARC
  8
0
 10
174.175375
 20
69.809434
 30
0.0
 40
5.186799
 50
289.325765
 51
105.197935
  0
ARC
  8
0
 10
166.246989
 20
-23.086554
 30
0.0
 40
12.902467
 50
333.342819
 51
3.304673
  0
ARC
  8
0
 10
172.128001
 20
-24.742786
 30
0.0
 40
7.0
 50
213.010737
 51
323.817885
  0
ARC
  8
0
 10
166.246989
 20
-21.599017
 30
0.0
 40
12.902467
 50
356.695327
 51
26.657181
  0
ARC
  8
0
 10
172.128001
 20
-19.942786
 30
0.0
 40
7.0
 50
36.182115
 51
146.989263
  0
LINE
  8
0
 10
84.729193
 20
-14.142786
 30
0.0
 11
168.462658
 21
-16.182928
 31
0.0
  0
LINE
  8
0
 10
84.729193
 20
-30.542786
 30
0.0
 11
168.462658
 21
-28.502644
 31
0.0
  0
LINE
  8
0
 10
89.286338
 20
34.121016
 30
0.0
 11
90.364752
 21
33.475858
 31
0.0
  0
LINE
  8
0
 10
85.707904
 20
52.602645
 30
0.0
 11
85.069569
 21
51.411804
 31
0.0
  0
LINE
  8
0
 10
89.286338
 20
34.121016
 30
0.0
 11
88.043236
 21
42.924464
 31
0.0
  0
LINE
  8
0
 10
85.069569
 20
51.411804
 30
0.0
 11
88.043236
 21
42.924464
 31
0.0
  0
ARC
  8
0
 10
75.128001
 20
-22.342786
 30
0.0
 40
12.626277
 50
319.500664
 51
40.499336
  0
ARC
  8
0
 10
75.128001
 20
-22.342786
 30
0.0
 40
3.8
 50
279.08472
 51
80.91528
  0
LINE
  8
0
 10
75.728001
 20
-27.306655
 30
0.0
 11
75.728001
 21
-17.378916
 31
0.0
  0
LINE
  8
0
 10
74.528001
 20
-27.306655
 30
0.0
 11
74.528001
 21
-17.378916
 31
0.0
  0
CIRCLE
  8
0
 10
75.128001
 20
-22.342786
 30
0.0
 40
5.5
  0
CIRCLE
  8
0
 10
75.128001
 20
-22.342786
 30
0.0
 40
5.0
  0
ARC
  8
0
 10
75.128001
 20
-22.342786
 30
0.0
 40
3.8
 50
99.08472
 51
260.91528
  0
CIRCLE
  8
0
 10
75.128001
 20
-22.342786
 30
0.0
 40
11.049635
  0
ARC
  8
0
 10
85.113781
 20
56.124464
 30
0.0
 40
1.5
 50
19.308673
 51
90.0
  0
ARC
  8
0
 10
75.128001
 20
-22.342786
 30
0.0
 40
16.2
 50
29.967294
 51
330.032706
  0
ARC
  8
0
 10
75.128001
 20
-22.342786
 30
0.0
 40
16.9
 50
28.531603
 51
331.468397
  0
CIRCLE
  8
0
 10
70.628001
 20
48.299464
 30
0.0
 40
0.5
  0
CIRCLE
  8
0
 10
70.628001
 20
52.649464
 30
0.0
 40
0.5
  0
CIRCLE
  8
0
 10
70.628001
 20
50.474464
 30
0.0
 40
0.5
  0
CIRCLE
  8
0
 10
70.628001
 20
46.124464
 30
0.0
 40
0.5
  0
CIRCLE
  8
0
 10
70.628001
 20
54.824464
 30
0.0
 40
0.5
  0
LINE
  8
0
 10
80.128001
 20
59.324464
 30
0.0
 11
75.728001
 21
59.324464
 31
0.0
  0
LINE
  8
0
 10
90.364752
 20
33.475858
 30
0.0
 11
176.037557
 21
64.968446
 31
0.0
  0
LINE
  8
0
 10
85.707904
 20
52.602645
 30
0.0
 11
172.972217
 21
74.854759
 31
0.0
  0
LINE
  8
0
 10
88.043236
 20
42.924464
 30
0.0
 11
75.128001
 21
42.924464
 31
0.0
  0
LINE
  8
0
 10
63.128001
 20
7.424464
 30
0.0
 11
63.128001
 21
18.424464
 31
0.0
  0
LINE
  8
0
 10
87.128001
 20
7.424464
 30
0.0
 11
87.128001
 21
18.424464
 31
0.0
  0
LINE
  8
0
 10
63.128001
 20
7.424464
 30
0.0
 11
87.128001
 21
7.424464
 31
0.0
  0
LINE
  8
0
 10
63.128001
 20
42.824464
 30
0.0
 11
72.628001
 21
42.824464
 31
0.0
  0
LINE
  8
0
 10
58.228001
 20
18.424464
 30
0.0
 11
63.128001
 21
18.424464
 31
0.0
  0
LINE
  8
0
 10
61.478001
 20
22.624464
 30
0.0
 11
63.128001
 21
22.624464
 31
0.0
  0
LINE
  8
0
 10
61.478001
 20
18.424464
 30
0.0
 11
61.478001
 21
22.624464
 31
0.0
  0
LINE
  8
0
 10
63.128001
 20
38.224464
 30
0.0
 11
64.528001
 21
38.224464
 31
0.0
  0
LINE
  8
0
 10
64.528001
 20
38.224464
 30
0.0
 11
64.528001
 21
42.824464
 31
0.0
  0
LINE
  8
0
 10
66.128001
 20
36.47015
 30
0.0
 11
66.128001
 21
42.824464
 31
0.0
  0
LINE
  8
0
 10
65.128001
 20
7.424464
 30
0.0
 11
65.128001
 21
35.47015
 31
0.0
  0
LINE
  8
0
 10
67.128001
 20
32.424464
 30
0.0
 11
75.128001
 21
32.424464
 31
0.0
  0
LINE
  8
0
 10
67.128001
 20
7.424464
 30
0.0
 11
67.128001
 21
32.424464
 31
0.0
  0
LINE
  8
0
 10
68.128001
 20
8.424464
 30
0.0
 11
68.128001
 21
35.515063
 31
0.0
  0
LINE
  8
0
 10
72.128001
 20
37.824464
 30
0.0
 11
75.128001
 21
37.824464
 31
0.0
  0
LINE
  8
0
 10
72.128001
 20
37.824464
 30
0.0
 11
68.128001
 21
35.515063
 31
0.0
  0
LINE
  8
0
 10
72.128001
 20
38.824464
 30
0.0
 11
72.128001
 21
42.824464
 31
0.0
  0
LINE
  8
0
 10
63.128001
 20
22.624464
 30
0.0
 11
63.128001
 21
42.824464
 31
0.0
  0
LINE
  8
0
 10
65.128001
 20
35.47015
 30
0.0
 11
66.128001
 21
36.47015
 31
0.0
  0
LINE
  8
0
 10
75.128001
 20
18.424464
 30
0.0
 11
92.028001
 21
18.424464
 31
0.0
  0
LINE
  8
0
 10
65.142221
 20
57.624464
 30
0.0
 11
70.128001
 21
57.624464
 31
0.0
  0
LINE
  8
0
 10
62.728001
 20
23.124464
 30
0.0
 11
62.728001
 21
43.424464
 31
0.0
  0
LINE
  8
0
 10
60.728001
 20
18.424464
 30
0.0
 11
60.728001
 21
23.124464
 31
0.0
  0
LINE
  8
0
 10
60.728001
 20
23.124464
 30
0.0
 11
62.728001
 21
23.124464
 31
0.0
  0
LINE
  8
0
 10
62.728001
 20
38.924464
 30
0.0
 11
63.128001
 21
38.924464
 31
0.0
  0
LINE
  8
0
 10
62.728001
 20
43.424464
 30
0.0
 11
71.628001
 21
43.424464
 31
0.0
  0
LINE
  8
0
 10
63.828001
 20
42.824464
 30
0.0
 11
63.828001
 21
43.424464
 31
0.0
  0
LINE
  8
0
 10
63.726595
 20
56.62045
 30
0.0
 11
58.928001
 21
42.924464
 31
0.0
  0
LINE
  8
0
 10
58.928001
 20
42.924464
 30
0.0
 11
58.228001
 21
18.424464
 31
0.0
  0
ARC
  8
0
 10
65.142221
 20
56.124464
 30
0.0
 40
1.5
 50
90.0
 51
160.691327
  0
LINE
  8
0
 10
86.529407
 20
56.62045
 30
0.0
 11
87.754278
 21
53.124464
 31
0.0
  0
LINE
  8
0
 10
91.585144
 20
33.924464
 30
0.0
 11
92.028001
 21
18.424464
 31
0.0
  0
LINE
  8
0
 10
72.628001
 20
37.824464
 30
0.0
 11
72.628001
 21
42.824464
 31
0.0
  0
LINE
  8
0
 10
69.628001
 20
45.624464
 30
0.0
 11
69.628001
 21
57.624464
 31
0.0
  0
LINE
  8
0
 10
71.128001
 20
43.424464
 30
0.0
 11
71.128001
 21
45.624464
 31
0.0
  0
LINE
  8
0
 10
69.628001
 20
45.624464
 30
0.0
 11
71.628001
 21
45.624464
 31
0.0
  0
LINE
  8
0
 10
70.128001
 20
55.324464
 30
0.0
 11
71.628001
 21
55.324464
 31
0.0
  0
LINE
  8
0
 10
70.128001
 20
55.324464
 30
0.0
 11
70.128001
 21
59.324464
 31
0.0
  0
LINE
  8
0
 10
71.628001
 20
42.824464
 30
0.0
 11
71.628001
 21
55.324464
 31
0.0
  0
LINE
  8
0
 10
71.328001
 20
60.524464
 30
0.0
 11
74.528001
 21
60.524464
 31
0.0
  0
LINE
  8
0
 10
80.128001
 20
57.624464
 30
0.0
 11
80.128001
 21
59.324464
 31
0.0
  0
LINE
  8
0
 10
75.128001
 20
57.624464
 30
0.0
 11
85.113781
 21
57.624464
 31
0.0
  0
LINE
  8
0
 10
72.628001
 20
38.324464
 30
0.0
 11
75.128001
 21
38.324464
 31
0.0
  0
LINE
  8
0
 10
70.128001
 20
59.324464
 30
0.0
 11
71.328001
 21
60.524464
 31
0.0
  0
LINE
  8
0
 10
78.928001
 20
60.524464
 30
0.0
 11
80.128001
 21
59.324464
 31
0.0
  0
LINE
  8
0
 10
74.528001
 20
58.824464
 30
0.0
 11
74.528001
 21
60.524464
 31
0.0
  0
LINE
  8
0
 10
75.728001
 20
58.824464
 30
0.0
 11
75.728001
 21
60.524464
 31
0.0
  0
LINE
  8
0
 10
74.528001
 20
58.824464
 30
0.0
 11
75.728001
 21
58.824464
 31
0.0
  0
LINE
  8
0
 10
75.728001
 20
60.524464
 30
0.0
 11
78.928001
 21
60.524464
 31
0.0
  0
LINE
  8
0
 10
206.517773
 20
60.524464
 30
0.0
 11
209.717773
 21
60.524464
 31
0.0
  0
LINE
  8
0
 10
205.317773
 20
58.824464
 30
0.0
 11
206.517773
 21
58.824464
 31
0.0
  0
LINE
  8
0
 10
206.517773
 20
58.824464
 30
0.0
 11
206.517773
 21
60.524464
 31
0.0
  0
LINE
  8
0
 10
205.317773
 20
58.824464
 30
0.0
 11
205.317773
 21
60.524464
 31
0.0
  0
LINE
  8
0
 10
209.717773
 20
60.524464
 30
0.0
 11
210.917773
 21
59.324464
 31
0.0
  0
LINE
  8
0
 10
200.917773
 20
59.324464
 30
0.0
 11
202.117773
 21
60.524464
 31
0.0
  0
LINE
  8
0
 10
195.931993
 20
57.624464
 30
0.0
 11
215.903554
 21
57.624464
 31
0.0
  0
LINE
  8
0
 10
210.917773
 20
57.624464
 30
0.0
 11
210.917773
 21
59.324464
 31
0.0
  0
LINE
  8
0
 10
202.117773
 20
60.524464
 30
0.0
 11
205.317773
 21
60.524464
 31
0.0
  0
LINE
  8
0
 10
200.917773
 20
57.624464
 30
0.0
 11
200.917773
 21
59.324464
 31
0.0
  0
LINE
  8
0
 10
222.117773
 20
42.924464
 30
0.0
 11
222.817773
 21
18.424464
 31
0.0
  0
ARC
  8
0
 10
215.903554
 20
56.124464
 30
0.0
 40
1.5
 50
19.308673
 51
90.0
  0
LINE
  8
0
 10
217.31918
 20
56.62045
 30
0.0
 11
222.117773
 21
42.924464
 31
0.0
  0
ARC
  8
0
 10
195.931993
 20
56.124464
 30
0.0
 40
1.5
 50
90.0
 51
160.691327
  0
LINE
  8
0
 10
189.717773
 20
42.924464
 30
0.0
 11
189.017773
 21
18.424464
 31
0.0
  0
LINE
  8
0
 10
194.516367
 20
56.62045
 30
0.0
 11
189.717773
 21
42.924464
 31
0.0
  0
LINE
  8
0
 10
189.017773
 20
18.424464
 30
0.0
 11
222.817773
 21
18.424464
 31
0.0
  0
LINE
  8
0
 10
193.917773
 20
7.424464
 30
0.0
 11
217.917773
 21
7.424464
 31
0.0
  0
LINE
  8
0
 10
-97.225575
 20
0.868596
 30
0.0
 11
-97.225575
 21
22.63659
 31
0.0
  0
LINE
  8
0
 10
-97.975575
 20
0.118596
 30
0.0
 11
-97.975575
 21
19.118596
 31
0.0
  0
LINE
  8
0
 10
-100.375575
 20
111.078613
 30
0.0
 11
-97.875575
 21
111.078613
 31
0.0
  0
LINE
  8
0
 10
-100.875575
 20
110.578613
 30
0.0
 11
-100.375575
 21
111.078613
 31
0.0
  0
LINE
  8
0
 10
14.036921
 20
114.96502
 30
0.0
 11
17.436921
 21
114.96502
 31
0.0
  0
LINE
  8
0
 10
13.436921
 20
114.36502
 30
0.0
 11
14.036921
 21
114.96502
 31
0.0
  0
LINE
  8
0
 10
-97.225575
 20
0.868596
 30
0.0
 11
-92.975575
 21
0.868596
 31
0.0
  0
LINE
  8
0
 10
-97.975575
 20
0.118596
 30
0.0
 11
-97.225575
 21
0.868596
 31
0.0
  0
LINE
  8
0
 10
68.128001
 20
8.424464
 30
0.0
 11
75.128001
 21
8.424464
 31
0.0
  0
LINE
  8
0
 10
67.128001
 20
7.424464
 30
0.0
 11
68.128001
 21
8.424464
 31
0.0
  0
INSERT
  8
0
  2
*X8
 10
0.0
 20
-7.674437
 30
0.0
1001
ACAD
1000
HATCH
1002
{
1070
    16
1000
ANSI31
1040
8.0
1040
0.0
1002
}
  0
LINE
  8
0
 10
15.436921
 20
135.11502
 30
0.0
 11
15.436921
 21
133.17331
 31
0.0
  0
INSERT
  8
0
  2
*X9
 10
112.312496
 20
202.153726
 30
0.0
1001
ACAD
1000
HATCH
1002
{
1070
    16
1000
ANSI31
1040
8.0
1040
0.0
1002
}
  0
LINE
  8
0
 10
-95.475575
 20
24.618596
 30
0.0
 11
-95.975575
 21
25.118596
 31
0.0
  0
LINE
  8
0
 10
-95.975575
 20
25.118596
 30
0.0
 11
-95.975575
 21
23.358278
 31
0.0
  0
LINE
  8
0
 10
72.628001
 20
38.324464
 30
0.0
 11
72.128001
 21
38.824464
 31
0.0
  0
LINE
  8
0
 10
72.128001
 20
38.824464
 30
0.0
 11
72.128001
 21
37.824464
 31
0.0
  0
INSERT
  8
0
  2
*X10
 10
-142.323713
 20
27.669026
 30
0.0
1001
ACAD
1000
HATCH
1002
{
1070
    16
1000
ANSI31
1040
8.0
1040
0.0
1002
}
  0
INSERT
  8
0
  2
*X11
 10
-147.188295
 20
40.949146
 30
0.0
1001
ACAD
1000
HATCH
1002
{
1070
    16
1000
ANSI31
1040
8.0
1040
0.0
1002
}
  0
ENDSEC
  0
EOF
