  0
SECTION
  2
HEADER
  9
$ACADVER
  1
AC1014
  9
$ACADMAINTVER
 70
     0
  9
$DWGCODEPAGE
  3
ANSI_1252
  9
$INSBASE
 10
0.0
 20
0.0
 30
0.0
  9
$EXTMIN
 10
187.0
 20
147.0
 30
0.0
  9
$EXTMAX
 10
253.0
 20
210.0
 30
0.0
  9
$LIMMIN
 10
0.0
 20
0.0
  9
$LIMMAX
 10
420.0
 20
297.0
  9
$ORTHOMODE
 70
     0
  9
$REGENMODE
 70
     1
  9
$FILLMODE
 70
     1
  9
$QTEXTMODE
 70
     0
  9
$MIRRTEXT
 70
     1
  9
$DRAGMODE
 70
     2
  9
$LTSCALE
 40
0.25
  9
$OSMODE
 70
     0
  9
$ATTMODE
 70
     1
  9
$TEXTSIZE
 40
2.5
  9
$TRACEWID
 40
1.0
  9
$TEXTSTYLE
  7
STANDARD
  9
$CLAYER
  8
0
  9
$CELTYPE
  6
BYLAYER
  9
$CECOLOR
 62
   256
  9
$CELTSCALE
 40
1.0
  9
$DELOBJ
 70
     1
  9
$DISPSILH
 70
     0
  9
$DIMSCALE
 40
1.0
  9
$DIMASZ
 40
2.5
  9
$DIMEXO
 40
0.625
  9
$DIMDLI
 40
3.75
  9
$DIMRND
 40
0.0
  9
$DIMDLE
 40
0.0
  9
$DIMEXE
 40
1.25
  9
$DIMTP
 40
0.0
  9
$DIMTM
 40
0.0
  9
$DIMTXT
 40
2.5
  9
$DIMCEN
 40
2.5
  9
$DIMTSZ
 40
0.0
  9
$DIMTOL
 70
     0
  9
$DIMLIM
 70
     0
  9
$DIMTIH
 70
     0
  9
$DIMTOH
 70
     0
  9
$DIMSE1
 70
     0
  9
$DIMSE2
 70
     0
  9
$DIMTAD
 70
     1
  9
$DIMZIN
 70
     8
  9
$DIMBLK
  1

  9
$DIMASO
 70
     1
  9
$DIMSHO
 70
     1
  9
$DIMPOST
  1

  9
$DIMAPOST
  1

  9
$DIMALT
 70
     0
  9
$DIMALTD
 70
     4
  9
$DIMALTF
 40
0.0394
  9
$DIMLFAC
 40
1.0
  9
$DIMTOFL
 70
     1
  9
$DIMTVP
 40
0.0
  9
$DIMTIX
 70
     0
  9
$DIMSOXD
 70
     0
  9
$DIMSAH
 70
     0
  9
$DIMBLK1
  1

  9
$DIMBLK2
  1

  9
$DIMSTYLE
  2
STANDARD
  9
$DIMCLRD
 70
     0
  9
$DIMCLRE
 70
     0
  9
$DIMCLRT
 70
     0
  9
$DIMTFAC
 40
1.0
  9
$DIMGAP
 40
0.625
  9
$DIMJUST
 70
     0
  9
$DIMSD1
 70
     0
  9
$DIMSD2
 70
     0
  9
$DIMTOLJ
 70
     1
  9
$DIMTZIN
 70
     0
  9
$DIMALTZ
 70
     0
  9
$DIMALTTZ
 70
     0
  9
$DIMFIT
 70
     3
  9
$DIMUPT
 70
     0
  9
$DIMUNIT
 70
     2
  9
$DIMDEC
 70
     4
  9
$DIMTDEC
 70
     4
  9
$DIMALTU
 70
     8
  9
$DIMALTTD
 70
     4
  9
$DIMTXSTY
  7
STANDARD
  9
$DIMAUNIT
 70
     0
  9
$LUNITS
 70
     2
  9
$LUPREC
 70
     4
  9
$SKETCHINC
 40
1.0
  9
$FILLETRAD
 40
10.0
  9
$AUNITS
 70
     0
  9
$AUPREC
 70
     0
  9
$MENU
  1
acad
  9
$ELEVATION
 40
0.0
  9
$PELEVATION
 40
0.0
  9
$THICKNESS
 40
0.0
  9
$LIMCHECK
 70
     0
  9
$BLIPMODE
 70
     0
  9
$CHAMFERA
 40
0.5
  9
$CHAMFERB
 40
0.5
  9
$CHAMFERC
 40
20.0
  9
$CHAMFERD
 40
0.0
  9
$SKPOLY
 70
     0
  9
$TDCREATE
 40
2451087.462330752
  9
$TDUPDATE
 40
2451088.437378634
  9
$TDINDWG
 40
0.2271906829
  9
$TDUSRTIMER
 40
0.2271906829
  9
$USRTIMER
 70
     1
  9
$ANGBASE
 50
0.0
  9
$ANGDIR
 70
     0
  9
$PDMODE
 70
     0
  9
$PDSIZE
 40
0.0
  9
$PLINEWID
 40
0.0
  9
$COORDS
 70
     1
  9
$SPLFRAME
 70
     0
  9
$SPLINETYPE
 70
     6
  9
$SPLINESEGS
 70
     8
  9
$ATTDIA
 70
     0
  9
$ATTREQ
 70
     1
  9
$HANDLING
 70
     1
  9
$HANDSEED
  5
32C
  9
$SURFTAB1
 70
     6
  9
$SURFTAB2
 70
     6
  9
$SURFTYPE
 70
     6
  9
$SURFU
 70
     6
  9
$SURFV
 70
     6
  9
$UCSNAME
  2

  9
$UCSORG
 10
0.0
 20
0.0
 30
0.0
  9
$UCSXDIR
 10
1.0
 20
0.0
 30
0.0
  9
$UCSYDIR
 10
0.0
 20
1.0
 30
0.0
  9
$PUCSNAME
  2

  9
$PUCSORG
 10
0.0
 20
0.0
 30
0.0
  9
$PUCSXDIR
 10
1.0
 20
0.0
 30
0.0
  9
$PUCSYDIR
 10
0.0
 20
1.0
 30
0.0
  9
$USERI1
 70
     0
  9
$USERI2
 70
     0
  9
$USERI3
 70
     0
  9
$USERI4
 70
     0
  9
$USERI5
 70
     0
  9
$USERR1
 40
0.0
  9
$USERR2
 40
0.0
  9
$USERR3
 40
0.0
  9
$USERR4
 40
0.0
  9
$USERR5
 40
0.0
  9
$WORLDVIEW
 70
     1
  9
$SHADEDGE
 70
     3
  9
$SHADEDIF
 70
    70
  9
$TILEMODE
 70
     1
  9
$MAXACTVP
 70
    48
  9
$PINSBASE
 10
0.0
 20
0.0
 30
0.0
  9
$PLIMCHECK
 70
     0
  9
$PEXTMIN
 10
1.000000E+20
 20
1.000000E+20
 30
1.000000E+20
  9
$PEXTMAX
 10
-1.000000E+20
 20
-1.000000E+20
 30
-1.000000E+20
  9
$PLIMMIN
 10
0.0
 20
0.0
  9
$PLIMMAX
 10
420.0
 20
297.0
  9
$UNITMODE
 70
     0
  9
$VISRETAIN
 70
     1
  9
$PLINEGEN
 70
     0
  9
$PSLTSCALE
 70
     1
  9
$TREEDEPTH
 70
  3020
  9
$PICKSTYLE
 70
     1
  9
$CMLSTYLE
  2
STANDARD
  9
$CMLJUST
 70
     0
  9
$CMLSCALE
 40
20.0
  9
$PROXYGRAPHICS
 70
     1
  9
$MEASUREMENT
 70
     1
  0
ENDSEC
  0
SECTION
  2
CLASSES
  0
CLASS
  1
DICTIONARYVAR
  2
AcDbDictionaryVar
  3
"AutoCAD"
 90
        0
280
     0
281
     0
  0
CLASS
  1
HATCH
  2
AcDbHatch
  3
"ACAD_SEDONA"
 90
        0
280
     0
281
     1
  0
ENDSEC
  0
SECTION
  2
TABLES
  0
TABLE
  2
VPORT
  5
8
100
AcDbSymbolTable
 70
     3
  0
VPORT
  5
32B
100
AcDbSymbolTableRecord
100
AcDbViewportTableRecord
  2
*ACTIVE
 70
     0
 10
0.0
 20
0.0
 11
1.0
 21
1.0
 12
220.875
 22
178.625
 13
0.0
 23
0.0
 14
0.25
 24
0.25
 15
10.0
 25
10.0
 16
0.0
 26
0.0
 36
1.0
 17
0.0
 27
0.0
 37
0.0
 40
64.75
 41
1.884409
 42
50.0
 43
0.0
 44
0.0
 50
0.0
 51
0.0
 71
     0
 72
   100
 73
     1
 74
     1
 75
     1
 76
     0
 77
     0
 78
     0
  0
ENDTAB
  0
TABLE
  2
LTYPE
  5
5
100
AcDbSymbolTable
 70
     2
  0
LTYPE
  5
12
100
AcDbSymbolTableRecord
100
AcDbLinetypeTableRecord
  2
BYBLOCK
 70
     0
  3

 72
    65
 73
     0
 40
0.0
  0
LTYPE
  5
13
100
AcDbSymbolTableRecord
100
AcDbLinetypeTableRecord
  2
BYLAYER
 70
     0
  3

 72
    65
 73
     0
 40
0.0
  0
LTYPE
  5
14
100
AcDbSymbolTableRecord
100
AcDbLinetypeTableRecord
  2
CONTINUOUS
 70
     0
  3
Solid line
 72
    65
 73
     0
 40
0.0
  0
LTYPE
  5
83
100
AcDbSymbolTableRecord
100
AcDbLinetypeTableRecord
  2
CENTER
 70
     0
  3
Center ____ _ ____ _ ____ _ ____ _ ____ _ ____
 72
    65
 73
     4
 40
50.8
 49
31.75
 74
     0
 49
-6.35
 74
     0
 49
6.35
 74
     0
 49
-6.35
 74
     0
  0
ENDTAB
  0
TABLE
  2
LAYER
  5
2
100
AcDbSymbolTable
 70
     1
  0
LAYER
  5
E
100
AcDbSymbolTableRecord
100
AcDbLayerTableRecord
  2
0
 70
     0
 62
     7
  6
CONTINUOUS
  0
ENDTAB
  0
TABLE
  2
STYLE
  5
3
100
AcDbSymbolTable
 70
     2
  0
STYLE
  5
F
100
AcDbSymbolTableRecord
100
AcDbTextStyleTableRecord
  2
STANDARD
 70
     0
 40
0.0
 41
1.0
 50
0.0
 71
     0
 42
2.5
  3
txt
  4

  0
STYLE
  5
82
100
AcDbSymbolTableRecord
100
AcDbTextStyleTableRecord
  2

 70
     1
 40
0.0
 41
1.0
 50
0.0
 71
     0
 42
2.5
  3
ltypeshp.shx
  4

  0
ENDTAB
  0
TABLE
  2
VIEW
  5
6
100
AcDbSymbolTable
 70
     0
  0
ENDTAB
  0
TABLE
  2
UCS
  5
7
100
AcDbSymbolTable
 70
     0
  0
ENDTAB
  0
TABLE
  2
APPID
  5
9
100
AcDbSymbolTable
 70
     3
  0
APPID
  5
10
100
AcDbSymbolTableRecord
100
AcDbRegAppTableRecord
  2
ACAD
 70
     0
  0
APPID
  5
24
100
AcDbSymbolTableRecord
100
AcDbRegAppTableRecord
  2
CONTENTTABDATA
 70
     0
  0
APPID
  5
25
100
AcDbSymbolTableRecord
100
AcDbRegAppTableRecord
  2
CONTENTCURRENTTAB
 70
     0
  0
ENDTAB
  0
TABLE
  2
DIMSTYLE
  5
A
100
AcDbSymbolTable
 70
     1
  0
DIMSTYLE
105
1D
100
AcDbSymbolTableRecord
100
AcDbDimStyleTableRecord
  2
STANDARD
 70
     0
  3

  4

  5

  6

  7

 40
1.0
 41
0.18
 42
0.0625
 43
0.38
 44
0.18
 45
0.0
 46
0.0
 47
0.0
 48
0.0
140
0.18
141
0.09
142
0.0
143
25.4
144
1.0
145
0.0
146
1.0
147
0.09
 71
     0
 72
     0
 73
     1
 74
     1
 75
     0
 76
     0
 77
     0
 78
     0
170
     0
171
     2
172
     0
173
     0
174
     0
175
     0
176
     0
177
     0
178
     0
270
     2
271
     4
272
     4
273
     2
274
     2
340
F
275
     0
280
     0
281
     0
282
     0
283
     1
284
     0
285
     0
286
     0
287
     3
288
     0
  0
ENDTAB
  0
TABLE
  2
BLOCK_RECORD
  5
1
100
AcDbSymbolTable
 70
     0
  0
BLOCK_RECORD
  5
18
100
AcDbSymbolTableRecord
100
AcDbBlockTableRecord
  2
*MODEL_SPACE
  0
BLOCK_RECORD
  5
15
100
AcDbSymbolTableRecord
100
AcDbBlockTableRecord
  2
*PAPER_SPACE
  0
ENDTAB
  0
ENDSEC
  0
SECTION
  2
BLOCKS
  0
BLOCK
  5
19
100
AcDbEntity
  8
0
100
AcDbBlockBegin
  2
*MODEL_SPACE
 70
     0
 10
0.0
 20
0.0
 30
0.0
  3
*MODEL_SPACE
  1

  0
ENDBLK
  5
1A
100
AcDbEntity
  8
0
100
AcDbBlockEnd
  0
BLOCK
  5
16
100
AcDbEntity
 67
     1
  8
0
100
AcDbBlockBegin
  2
*PAPER_SPACE
 70
     0
 10
0.0
 20
0.0
 30
0.0
  3
*PAPER_SPACE
  1

  0
ENDBLK
  5
17
100
AcDbEntity
 67
     1
  8
0
100
AcDbBlockEnd
  0
ENDSEC
  0
SECTION
  2
ENTITIES
  0
LINE
  5
3C
102
{ACAD_REACTORS
330
2E3
102
}
100
AcDbEntity
  8
0
100
AcDbLine
 10
190.0
 20
200.0
 30
0.0
 11
193.25
 21
200.0
 31
0.0
  0
LINE
  5
3D
100
AcDbEntity
  8
0
100
AcDbLine
 10
210.0
 20
200.0
 30
0.0
 11
210.0
 21
206.0
 31
0.0
  0
LINE
  5
3E
102
{ACAD_REACTORS
330
2E3
102
}
100
AcDbEntity
  8
0
100
AcDbLine
 10
209.0
 20
207.0
 30
0.0
 11
191.0
 21
207.0
 31
0.0
  0
LINE
  5
3F
102
{ACAD_REACTORS
330
2E3
102
}
100
AcDbEntity
  8
0
100
AcDbLine
 10
190.0
 20
206.0
 30
0.0
 11
190.0
 21
200.0
 31
0.0
  0
LINE
  5
40
102
{ACAD_REACTORS
330
2E3
102
}
100
AcDbEntity
  8
0
100
AcDbLine
 10
193.5
 20
194.0
 30
0.0
 11
206.5
 21
194.0
 31
0.0
  0
LINE
  5
45
102
{ACAD_REACTORS
330
2E3
102
}
100
AcDbEntity
  8
0
100
AcDbLine
 10
193.5
 20
194.0
 30
0.0
 11
193.25
 21
200.0
 31
0.0
  0
LINE
  5
46
100
AcDbEntity
  8
0
100
AcDbLine
 10
206.5
 20
194.0
 30
0.0
 11
206.75
 21
200.0
 31
0.0
  0
LINE
  5
75
100
AcDbEntity
  8
0
100
AcDbLine
 10
201.391731
 20
200.0
 30
0.0
 11
201.391731
 21
206.0
 31
0.0
  0
LINE
  5
76
100
AcDbEntity
  8
0
100
AcDbLine
 10
202.756374
 20
200.0
 30
0.0
 11
202.756374
 21
206.0
 31
0.0
  0
LINE
  5
77
100
AcDbEntity
  8
0
100
AcDbLine
 10
204.067366
 20
200.0
 30
0.0
 11
204.067366
 21
206.0
 31
0.0
  0
LINE
  5
78
100
AcDbEntity
  8
0
100
AcDbLine
 10
205.299193
 20
200.0
 30
0.0
 11
205.299193
 21
207.0
 31
0.0
  0
LINE
  5
79
100
AcDbEntity
  8
0
100
AcDbLine
 10
206.427876
 20
200.0
 30
0.0
 11
206.427876
 21
206.0
 31
0.0
  0
LINE
  5
7A
100
AcDbEntity
  8
0
100
AcDbLine
 10
207.431448
 20
200.0
 30
0.0
 11
207.431448
 21
206.0
 31
0.0
  0
LINE
  5
7B
100
AcDbEntity
  8
0
100
AcDbLine
 10
208.290376
 20
200.0
 30
0.0
 11
208.290376
 21
206.0
 31
0.0
  0
LINE
  5
7C
100
AcDbEntity
  8
0
100
AcDbLine
 10
208.98794
 20
200.0
 30
0.0
 11
208.98794
 21
206.0
 31
0.0
  0
LINE
  5
7D
100
AcDbEntity
  8
0
100
AcDbLine
 10
209.510565
 20
200.0
 30
0.0
 11
209.510565
 21
206.0
 31
0.0
  0
LINE
  5
7E
100
AcDbEntity
  8
0
100
AcDbLine
 10
209.848078
 20
200.0
 30
0.0
 11
209.848078
 21
206.0
 31
0.0
  0
LINE
  5
7F
100
AcDbEntity
  8
0
100
AcDbLine
 10
209.993908
 20
200.0
 30
0.0
 11
209.993908
 21
206.0
 31
0.0
  0
LINE
  5
80
100
AcDbEntity
  8
0
  6
CENTER
100
AcDbLine
 10
200.0
 20
191.0
 30
0.0
 11
200.0
 21
210.0
 31
0.0
  0
LINE
  5
84
100
AcDbEntity
  8
0
100
AcDbLine
 10
200.0
 20
200.0
 30
0.0
 11
210.0
 21
200.0
 31
0.0
  0
LINE
  5
E9
100
AcDbEntity
  8
0
100
AcDbLine
 10
210.0
 20
206.0
 30
0.0
 11
200.0
 21
206.0
 31
0.0
  0
LINE
  5
FD
100
AcDbEntity
  8
0
100
AcDbLine
 10
210.0
 20
206.0
 30
0.0
 11
209.0
 21
207.0
 31
0.0
  0
CIRCLE
  5
FE
100
AcDbEntity
  8
0
100
AcDbCircle
 10
200.0
 20
160.0
 30
0.0
 40
9.0
  0
LINE
  5
164
100
AcDbEntity
  8
0
100
AcDbLine
 10
200.0
 20
206.0
 30
0.0
 11
200.627808
 21
207.0
 31
0.0
  0
LINE
  5
165
100
AcDbEntity
  8
0
100
AcDbLine
 10
200.627808
 20
207.0
 30
0.0
 11
201.391731
 21
206.0
 31
0.0
  0
LINE
  5
166
100
AcDbEntity
  8
0
100
AcDbLine
 10
201.391731
 20
206.0
 30
0.0
 11
201.871205
 21
207.0
 31
0.0
  0
LINE
  5
167
100
AcDbEntity
  8
0
100
AcDbLine
 10
201.871205
 20
207.0
 30
0.0
 11
202.756374
 21
206.0
 31
0.0
  0
LINE
  5
168
100
AcDbEntity
  8
0
100
AcDbLine
 10
202.756374
 20
206.0
 30
0.0
 11
203.078181
 21
207.0
 31
0.0
  0
LINE
  5
169
100
AcDbEntity
  8
0
100
AcDbLine
 10
203.078181
 20
207.0
 30
0.0
 11
204.067366
 21
206.0
 31
0.0
  0
LINE
  5
16A
100
AcDbEntity
  8
0
100
AcDbLine
 10
204.067366
 20
206.0
 30
0.0
 11
204.225244
 21
207.0
 31
0.0
  0
LINE
  5
16B
100
AcDbEntity
  8
0
100
AcDbLine
 10
204.225244
 20
207.0
 30
0.0
 11
205.299193
 21
206.0
 31
0.0
  0
LINE
  5
16C
100
AcDbEntity
  8
0
100
AcDbLine
 10
205.299193
 20
206.0
 30
0.0
 11
205.290067
 21
207.0
 31
0.0
  0
LINE
  5
16D
100
AcDbEntity
  8
0
100
AcDbLine
 10
205.290067
 20
207.0
 30
0.0
 11
206.427876
 21
206.0
 31
0.0
  0
LINE
  5
16E
100
AcDbEntity
  8
0
100
AcDbLine
 10
206.427876
 20
206.0
 30
0.0
 11
206.251925
 21
207.0
 31
0.0
  0
LINE
  5
16F
100
AcDbEntity
  8
0
100
AcDbLine
 10
206.251925
 20
207.0
 30
0.0
 11
207.431448
 21
206.0
 31
0.0
  0
LINE
  5
170
100
AcDbEntity
  8
0
100
AcDbLine
 10
207.431448
 20
206.0
 30
0.0
 11
207.092097
 21
207.0
 31
0.0
  0
LINE
  5
171
100
AcDbEntity
  8
0
100
AcDbLine
 10
207.092097
 20
207.0
 30
0.0
 11
208.290376
 21
206.0
 31
0.0
  0
LINE
  5
172
100
AcDbEntity
  8
0
100
AcDbLine
 10
208.290376
 20
206.0
 30
0.0
 11
207.794229
 21
207.0
 31
0.0
  0
LINE
  5
173
100
AcDbEntity
  8
0
100
AcDbLine
 10
207.794229
 20
207.0
 30
0.0
 11
208.98794
 21
206.0
 31
0.0
  0
LINE
  5
174
100
AcDbEntity
  8
0
100
AcDbLine
 10
208.98794
 20
206.0
 30
0.0
 11
208.344655
 21
207.0
 31
0.0
  0
LINE
  5
175
100
AcDbEntity
  8
0
100
AcDbLine
 10
208.344655
 20
207.0
 30
0.0
 11
209.510565
 21
206.0
 31
0.0
  0
LINE
  5
176
100
AcDbEntity
  8
0
100
AcDbLine
 10
209.510565
 20
206.0
 30
0.0
 11
208.732662
 21
207.0
 31
0.0
  0
LINE
  5
177
100
AcDbEntity
  8
0
100
AcDbLine
 10
208.732662
 20
207.0
 30
0.0
 11
209.848078
 21
206.0
 31
0.0
  0
LINE
  5
178
100
AcDbEntity
  8
0
100
AcDbLine
 10
209.848078
 20
206.0
 30
0.0
 11
208.950697
 21
207.0
 31
0.0
  0
LINE
  5
179
100
AcDbEntity
  8
0
100
AcDbLine
 10
208.950697
 20
207.0
 30
0.0
 11
209.993908
 21
206.0
 31
0.0
  0
LINE
  5
17A
100
AcDbEntity
  8
0
100
AcDbLine
 10
209.993908
 20
206.0
 30
0.0
 11
209.0
 21
207.0
 31
0.0
  0
LINE
  5
17B
102
{ACAD_REACTORS
330
2E3
102
}
100
AcDbEntity
  8
0
100
AcDbLine
 10
190.0
 20
206.0
 30
0.0
 11
191.0
 21
207.0
 31
0.0
  0
LINE
  5
181
100
AcDbEntity
  8
0
100
AcDbLine
 10
200.0
 20
205.5
 30
0.0
 11
196.0
 21
205.5
 31
0.0
  0
LINE
  5
182
102
{ACAD_REACTORS
330
2E3
102
}
100
AcDbEntity
  8
0
100
AcDbLine
 10
196.0
 20
205.5
 30
0.0
 11
195.0
 21
207.0
 31
0.0
  0
LINE
  5
1DD
100
AcDbEntity
  8
0
100
AcDbLine
 10
200.0
 20
170.0
 30
0.0
 11
200.627808
 21
168.978076
 31
0.0
  0
LINE
  5
1DF
100
AcDbEntity
  8
0
100
AcDbLine
 10
200.0
 20
170.0
 30
0.0
 11
199.372192
 21
168.978076
 31
0.0
  0
LINE
  5
1E0
100
AcDbEntity
  8
0
100
AcDbLine
 10
198.608269
 20
169.902681
 30
0.0
 11
199.372192
 21
168.978076
 31
0.0
  0
LINE
  5
1E1
100
AcDbEntity
  8
0
100
AcDbLine
 10
198.608269
 20
169.902681
 30
0.0
 11
198.128795
 21
168.803328
 31
0.0
  0
LINE
  5
1E2
100
AcDbEntity
  8
0
100
AcDbLine
 10
197.243626
 20
169.612617
 30
0.0
 11
198.128795
 21
168.803328
 31
0.0
  0
LINE
  5
1E3
100
AcDbEntity
  8
0
100
AcDbLine
 10
197.243626
 20
169.612617
 30
0.0
 11
196.921819
 21
168.457234
 31
0.0
  0
LINE
  5
1E4
100
AcDbEntity
  8
0
100
AcDbLine
 10
195.932634
 20
169.135455
 30
0.0
 11
196.921819
 21
168.457234
 31
0.0
  0
LINE
  5
1E5
100
AcDbEntity
  8
0
100
AcDbLine
 10
195.932634
 20
169.135455
 30
0.0
 11
195.774756
 21
167.946528
 31
0.0
  0
LINE
  5
1E6
100
AcDbEntity
  8
0
100
AcDbLine
 10
194.700807
 20
168.480481
 30
0.0
 11
195.774756
 21
167.946528
 31
0.0
  0
LINE
  5
1E7
100
AcDbEntity
  8
0
100
AcDbLine
 10
194.700807
 20
168.480481
 30
0.0
 11
194.709933
 21
167.281153
 31
0.0
  0
LINE
  5
1E8
100
AcDbEntity
  8
0
100
AcDbLine
 10
193.572124
 20
167.660444
 30
0.0
 11
194.709933
 21
167.281153
 31
0.0
  0
LINE
  5
1E9
100
AcDbEntity
  8
0
100
AcDbLine
 10
193.572124
 20
167.660444
 30
0.0
 11
193.748075
 21
166.474058
 31
0.0
  0
LINE
  5
1EA
100
AcDbEntity
  8
0
100
AcDbLine
 10
192.568552
 20
166.691306
 30
0.0
 11
193.748075
 21
166.474058
 31
0.0
  0
LINE
  5
1EB
100
AcDbEntity
  8
0
100
AcDbLine
 10
192.568552
 20
166.691306
 30
0.0
 11
192.907903
 21
165.540953
 31
0.0
  0
LINE
  5
1EC
100
AcDbEntity
  8
0
100
AcDbLine
 10
191.709624
 20
165.591929
 30
0.0
 11
192.907903
 21
165.540953
 31
0.0
  0
LINE
  5
1ED
100
AcDbEntity
  8
0
100
AcDbLine
 10
191.709624
 20
165.591929
 30
0.0
 11
192.205771
 21
164.5
 31
0.0
  0
LINE
  5
1EE
100
AcDbEntity
  8
0
100
AcDbLine
 10
191.01206
 20
164.383711
 30
0.0
 11
192.205771
 21
164.5
 31
0.0
  0
LINE
  5
1EF
100
AcDbEntity
  8
0
100
AcDbLine
 10
191.01206
 20
164.383711
 30
0.0
 11
191.655345
 21
163.371459
 31
0.0
  0
LINE
  5
1F0
100
AcDbEntity
  8
0
100
AcDbLine
 10
190.489435
 20
163.09017
 30
0.0
 11
191.655345
 21
163.371459
 31
0.0
  0
LINE
  5
1F1
100
AcDbEntity
  8
0
100
AcDbLine
 10
190.489435
 20
163.09017
 30
0.0
 11
191.267338
 21
162.177297
 31
0.0
  0
LINE
  5
1F2
100
AcDbEntity
  8
0
100
AcDbLine
 10
190.151922
 20
161.736482
 30
0.0
 11
191.267338
 21
162.177297
 31
0.0
  0
LINE
  5
1F3
100
AcDbEntity
  8
0
100
AcDbLine
 10
190.151922
 20
161.736482
 30
0.0
 11
191.049303
 21
160.940756
 31
0.0
  0
LINE
  5
1F4
100
AcDbEntity
  8
0
100
AcDbLine
 10
190.006092
 20
160.348995
 30
0.0
 11
191.049303
 21
160.940756
 31
0.0
  0
LINE
  5
1F5
100
AcDbEntity
  8
0
100
AcDbLine
 10
190.006092
 20
160.348995
 30
0.0
 11
191.005483
 21
159.685905
 31
0.0
  0
LINE
  5
1F6
100
AcDbEntity
  8
0
100
AcDbLine
 10
190.054781
 20
158.954715
 30
0.0
 11
191.005483
 21
159.685905
 31
0.0
  0
LINE
  5
1F7
100
AcDbEntity
  8
0
100
AcDbLine
 10
190.054781
 20
158.954715
 30
0.0
 11
191.13673
 21
158.437166
 31
0.0
  0
LINE
  5
1F8
100
AcDbEntity
  8
0
100
AcDbLine
 10
190.297043
 20
157.580781
 30
0.0
 11
191.13673
 21
158.437166
 31
0.0
  0
LINE
  5
1F9
100
AcDbEntity
  8
0
100
AcDbLine
 10
190.297043
 20
157.580781
 30
0.0
 11
191.440491
 21
157.218847
 31
0.0
  0
LINE
  5
1FA
100
AcDbEntity
  8
0
100
AcDbLine
 10
190.728161
 20
156.253934
 30
0.0
 11
191.440491
 21
157.218847
 31
0.0
  0
LINE
  5
1FB
100
AcDbEntity
  8
0
100
AcDbLine
 10
190.728161
 20
156.253934
 30
0.0
 11
191.910854
 21
156.05466
 31
0.0
  0
LINE
  5
1FC
100
AcDbEntity
  8
0
100
AcDbLine
 10
191.339746
 20
155.0
 30
0.0
 11
191.910854
 21
156.05466
 31
0.0
  0
LINE
  5
1FD
100
AcDbEntity
  8
0
100
AcDbLine
 10
191.339746
 20
155.0
 30
0.0
 11
192.538662
 21
154.967264
 31
0.0
  0
LINE
  5
1FE
100
AcDbEntity
  8
0
100
AcDbLine
 10
192.119892
 20
153.843385
 30
0.0
 11
192.538662
 21
154.967264
 31
0.0
  0
LINE
  5
1FF
100
AcDbEntity
  8
0
100
AcDbLine
 10
192.119892
 20
153.843385
 30
0.0
 11
193.311697
 21
153.977825
 31
0.0
  0
LINE
  5
200
100
AcDbEntity
  8
0
100
AcDbLine
 10
193.053416
 20
152.806602
 30
0.0
 11
193.311697
 21
153.977825
 31
0.0
  0
LINE
  5
201
100
AcDbEntity
  8
0
100
AcDbLine
 10
193.053416
 20
152.806602
 30
0.0
 11
194.214912
 21
153.1056
 31
0.0
  0
LINE
  5
202
100
AcDbEntity
  8
0
100
AcDbLine
 10
194.122147
 20
151.90983
 30
0.0
 11
194.214912
 21
153.1056
 31
0.0
  0
LINE
  5
203
100
AcDbEntity
  8
0
100
AcDbLine
 10
194.122147
 20
151.90983
 30
0.0
 11
195.230727
 21
152.367567
 31
0.0
  0
LINE
  5
204
100
AcDbEntity
  8
0
100
AcDbLine
 10
195.305284
 20
151.170524
 30
0.0
 11
195.230727
 21
152.367567
 31
0.0
  0
LINE
  5
205
100
AcDbEntity
  8
0
100
AcDbLine
 10
195.305284
 20
151.170524
 30
0.0
 11
196.33937
 21
151.778091
 31
0.0
  0
LINE
  5
206
100
AcDbEntity
  8
0
100
AcDbLine
 10
196.579799
 20
150.603074
 30
0.0
 11
196.33937
 21
151.778091
 31
0.0
  0
LINE
  5
207
100
AcDbEntity
  8
0
100
AcDbLine
 10
196.579799
 20
150.603074
 30
0.0
 11
197.519264
 21
151.348645
 31
0.0
  0
LINE
  5
208
100
AcDbEntity
  8
0
100
AcDbLine
 10
197.920883
 20
150.218524
 30
0.0
 11
197.519264
 21
151.348645
 31
0.0
  0
LINE
  5
209
100
AcDbEntity
  8
0
100
AcDbLine
 10
197.920883
 20
150.218524
 30
0.0
 11
198.747442
 21
151.087587
 31
0.0
  0
LINE
  5
20A
100
AcDbEntity
  8
0
100
AcDbLine
 10
199.302435
 20
150.024359
 30
0.0
 11
198.747442
 21
151.087587
 31
0.0
  0
LINE
  5
20B
100
AcDbEntity
  8
0
100
AcDbLine
 10
199.302435
 20
150.024359
 30
0.0
 11
200.0
 21
151.0
 31
0.0
  0
LINE
  5
20C
100
AcDbEntity
  8
0
100
AcDbLine
 10
200.697565
 20
150.024359
 30
0.0
 11
200.0
 21
151.0
 31
0.0
  0
LINE
  5
20D
100
AcDbEntity
  8
0
100
AcDbLine
 10
200.697565
 20
150.024359
 30
0.0
 11
201.252558
 21
151.087587
 31
0.0
  0
LINE
  5
20E
100
AcDbEntity
  8
0
100
AcDbLine
 10
202.079117
 20
150.218524
 30
0.0
 11
201.252558
 21
151.087587
 31
0.0
  0
LINE
  5
20F
100
AcDbEntity
  8
0
100
AcDbLine
 10
202.079117
 20
150.218524
 30
0.0
 11
202.480736
 21
151.348645
 31
0.0
  0
LINE
  5
210
100
AcDbEntity
  8
0
100
AcDbLine
 10
203.420201
 20
150.603074
 30
0.0
 11
202.480736
 21
151.348645
 31
0.0
  0
LINE
  5
211
100
AcDbEntity
  8
0
100
AcDbLine
 10
203.420201
 20
150.603074
 30
0.0
 11
203.66063
 21
151.778091
 31
0.0
  0
LINE
  5
212
100
AcDbEntity
  8
0
100
AcDbLine
 10
204.694716
 20
151.170524
 30
0.0
 11
203.66063
 21
151.778091
 31
0.0
  0
LINE
  5
213
100
AcDbEntity
  8
0
100
AcDbLine
 10
204.694716
 20
151.170524
 30
0.0
 11
204.769273
 21
152.367567
 31
0.0
  0
LINE
  5
214
100
AcDbEntity
  8
0
100
AcDbLine
 10
205.877853
 20
151.90983
 30
0.0
 11
204.769273
 21
152.367567
 31
0.0
  0
LINE
  5
215
100
AcDbEntity
  8
0
100
AcDbLine
 10
205.877853
 20
151.90983
 30
0.0
 11
205.785088
 21
153.1056
 31
0.0
  0
LINE
  5
216
100
AcDbEntity
  8
0
100
AcDbLine
 10
206.946584
 20
152.806602
 30
0.0
 11
205.785088
 21
153.1056
 31
0.0
  0
LINE
  5
217
100
AcDbEntity
  8
0
100
AcDbLine
 10
206.946584
 20
152.806602
 30
0.0
 11
206.688303
 21
153.977825
 31
0.0
  0
LINE
  5
218
100
AcDbEntity
  8
0
100
AcDbLine
 10
207.880108
 20
153.843385
 30
0.0
 11
206.688303
 21
153.977825
 31
0.0
  0
LINE
  5
219
100
AcDbEntity
  8
0
100
AcDbLine
 10
207.880108
 20
153.843385
 30
0.0
 11
207.461338
 21
154.967264
 31
0.0
  0
LINE
  5
21A
100
AcDbEntity
  8
0
100
AcDbLine
 10
208.660254
 20
155.0
 30
0.0
 11
207.461338
 21
154.967264
 31
0.0
  0
LINE
  5
21B
100
AcDbEntity
  8
0
100
AcDbLine
 10
208.660254
 20
155.0
 30
0.0
 11
208.089146
 21
156.05466
 31
0.0
  0
LINE
  5
21C
100
AcDbEntity
  8
0
100
AcDbLine
 10
209.271839
 20
156.253934
 30
0.0
 11
208.089146
 21
156.05466
 31
0.0
  0
LINE
  5
21D
100
AcDbEntity
  8
0
100
AcDbLine
 10
209.271839
 20
156.253934
 30
0.0
 11
208.559509
 21
157.218847
 31
0.0
  0
LINE
  5
21E
100
AcDbEntity
  8
0
100
AcDbLine
 10
209.702957
 20
157.580781
 30
0.0
 11
208.559509
 21
157.218847
 31
0.0
  0
LINE
  5
21F
100
AcDbEntity
  8
0
100
AcDbLine
 10
209.702957
 20
157.580781
 30
0.0
 11
208.86327
 21
158.437166
 31
0.0
  0
LINE
  5
220
100
AcDbEntity
  8
0
100
AcDbLine
 10
209.945219
 20
158.954715
 30
0.0
 11
208.86327
 21
158.437166
 31
0.0
  0
LINE
  5
221
100
AcDbEntity
  8
0
100
AcDbLine
 10
209.945219
 20
158.954715
 30
0.0
 11
208.994517
 21
159.685905
 31
0.0
  0
LINE
  5
222
100
AcDbEntity
  8
0
100
AcDbLine
 10
209.993908
 20
160.348995
 30
0.0
 11
208.994517
 21
159.685905
 31
0.0
  0
LINE
  5
223
100
AcDbEntity
  8
0
100
AcDbLine
 10
209.993908
 20
160.348995
 30
0.0
 11
208.950697
 21
160.940756
 31
0.0
  0
LINE
  5
224
100
AcDbEntity
  8
0
100
AcDbLine
 10
209.848078
 20
161.736482
 30
0.0
 11
208.950697
 21
160.940756
 31
0.0
  0
LINE
  5
225
100
AcDbEntity
  8
0
100
AcDbLine
 10
209.848078
 20
161.736482
 30
0.0
 11
208.732662
 21
162.177297
 31
0.0
  0
LINE
  5
226
100
AcDbEntity
  8
0
100
AcDbLine
 10
209.510565
 20
163.09017
 30
0.0
 11
208.732662
 21
162.177297
 31
0.0
  0
LINE
  5
227
100
AcDbEntity
  8
0
100
AcDbLine
 10
209.510565
 20
163.09017
 30
0.0
 11
208.344655
 21
163.371459
 31
0.0
  0
LINE
  5
228
100
AcDbEntity
  8
0
100
AcDbLine
 10
208.98794
 20
164.383711
 30
0.0
 11
208.344655
 21
163.371459
 31
0.0
  0
LINE
  5
229
100
AcDbEntity
  8
0
100
AcDbLine
 10
208.98794
 20
164.383711
 30
0.0
 11
207.794229
 21
164.5
 31
0.0
  0
LINE
  5
22A
100
AcDbEntity
  8
0
100
AcDbLine
 10
208.290376
 20
165.591929
 30
0.0
 11
207.794229
 21
164.5
 31
0.0
  0
LINE
  5
22B
100
AcDbEntity
  8
0
100
AcDbLine
 10
208.290376
 20
165.591929
 30
0.0
 11
207.092097
 21
165.540953
 31
0.0
  0
LINE
  5
22C
100
AcDbEntity
  8
0
100
AcDbLine
 10
207.431448
 20
166.691306
 30
0.0
 11
207.092097
 21
165.540953
 31
0.0
  0
LINE
  5
22D
100
AcDbEntity
  8
0
100
AcDbLine
 10
207.431448
 20
166.691306
 30
0.0
 11
206.251925
 21
166.474058
 31
0.0
  0
LINE
  5
22E
100
AcDbEntity
  8
0
100
AcDbLine
 10
206.427876
 20
167.660444
 30
0.0
 11
206.251925
 21
166.474058
 31
0.0
  0
LINE
  5
22F
100
AcDbEntity
  8
0
100
AcDbLine
 10
206.427876
 20
167.660444
 30
0.0
 11
205.290067
 21
167.281153
 31
0.0
  0
LINE
  5
230
100
AcDbEntity
  8
0
100
AcDbLine
 10
205.299193
 20
168.480481
 30
0.0
 11
205.290067
 21
167.281153
 31
0.0
  0
LINE
  5
231
100
AcDbEntity
  8
0
100
AcDbLine
 10
205.299193
 20
168.480481
 30
0.0
 11
204.225244
 21
167.946528
 31
0.0
  0
LINE
  5
232
100
AcDbEntity
  8
0
100
AcDbLine
 10
204.067366
 20
169.135455
 30
0.0
 11
204.225244
 21
167.946528
 31
0.0
  0
LINE
  5
233
100
AcDbEntity
  8
0
100
AcDbLine
 10
204.067366
 20
169.135455
 30
0.0
 11
203.078181
 21
168.457234
 31
0.0
  0
LINE
  5
234
100
AcDbEntity
  8
0
100
AcDbLine
 10
202.756374
 20
169.612617
 30
0.0
 11
203.078181
 21
168.457234
 31
0.0
  0
LINE
  5
235
100
AcDbEntity
  8
0
100
AcDbLine
 10
202.756374
 20
169.612617
 30
0.0
 11
201.871205
 21
168.803328
 31
0.0
  0
LINE
  5
236
100
AcDbEntity
  8
0
100
AcDbLine
 10
201.391731
 20
169.902681
 30
0.0
 11
201.871205
 21
168.803328
 31
0.0
  0
LINE
  5
237
100
AcDbEntity
  8
0
100
AcDbLine
 10
201.391731
 20
169.902681
 30
0.0
 11
200.627808
 21
168.978076
 31
0.0
  0
CIRCLE
  5
23A
100
AcDbEntity
  8
0
100
AcDbCircle
 10
200.0
 20
160.0
 30
0.0
 40
5.0
  0
CIRCLE
  5
23B
100
AcDbEntity
  8
0
100
AcDbCircle
 10
200.0
 20
160.0
 30
0.0
 40
4.0
  0
LINE
  5
23C
100
AcDbEntity
  8
0
  6
CENTER
100
AcDbLine
 10
187.0
 20
160.0
 30
0.0
 11
213.0
 21
160.0
 31
0.0
  0
LINE
  5
23D
100
AcDbEntity
  8
0
  6
CENTER
100
AcDbLine
 10
200.0
 20
147.0
 30
0.0
 11
200.0
 21
173.0
 31
0.0
  0
LINE
  5
23E
100
AcDbEntity
  8
0
  6
CENTER
100
AcDbLine
 10
227.0
 20
160.0
 30
0.0
 11
253.0
 21
160.0
 31
0.0
  0
LINE
  5
23F
100
AcDbEntity
  8
0
  6
CENTER
100
AcDbLine
 10
240.0
 20
147.0
 30
0.0
 11
240.0
 21
173.0
 31
0.0
  0
LINE
  5
240
102
{ACAD_REACTORS
330
30B
102
}
100
AcDbEntity
  8
0
  6
CENTER
100
AcDbLine
 10
240.0
 20
181.0
 30
0.0
 11
240.0
 21
210.0
 31
0.0
  0
LINE
  5
241
100
AcDbEntity
  8
0
100
AcDbLine
 10
246.5
 20
194.0
 30
0.0
 11
246.75
 21
200.0
 31
0.0
  0
LINE
  5
242
102
{ACAD_REACTORS
330
30B
102
}
100
AcDbEntity
  8
0
100
AcDbLine
 10
233.5
 20
194.0
 30
0.0
 11
233.25
 21
200.0
 31
0.0
  0
LINE
  5
243
100
AcDbEntity
  8
0
100
AcDbLine
 10
233.053416
 20
152.806602
 30
0.0
 11
234.214912
 21
153.1056
 31
0.0
  0
LINE
  5
244
100
AcDbEntity
  8
0
100
AcDbLine
 10
232.568552
 20
166.691306
 30
0.0
 11
233.748075
 21
166.474058
 31
0.0
  0
LINE
  5
245
100
AcDbEntity
  8
0
100
AcDbLine
 10
233.572124
 20
167.660444
 30
0.0
 11
233.748075
 21
166.474058
 31
0.0
  0
LINE
  5
246
100
AcDbEntity
  8
0
100
AcDbLine
 10
233.572124
 20
167.660444
 30
0.0
 11
234.709933
 21
167.281153
 31
0.0
  0
CIRCLE
  5
247
100
AcDbEntity
  8
0
100
AcDbCircle
 10
240.0
 20
160.0
 30
0.0
 40
9.0
  0
LINE
  5
248
100
AcDbEntity
  8
0
100
AcDbLine
 10
230.006092
 20
160.348995
 30
0.0
 11
231.005483
 21
159.685905
 31
0.0
  0
LINE
  5
249
100
AcDbEntity
  8
0
100
AcDbLine
 10
232.119892
 20
153.843385
 30
0.0
 11
232.538662
 21
154.967264
 31
0.0
  0
LINE
  5
24A
100
AcDbEntity
  8
0
100
AcDbLine
 10
233.053416
 20
152.806602
 30
0.0
 11
233.311697
 21
153.977825
 31
0.0
  0
LINE
  5
24B
100
AcDbEntity
  8
0
100
AcDbLine
 10
232.119892
 20
153.843385
 30
0.0
 11
233.311697
 21
153.977825
 31
0.0
  0
LINE
  5
24C
100
AcDbEntity
  8
0
100
AcDbLine
 10
231.339746
 20
155.0
 30
0.0
 11
232.538662
 21
154.967264
 31
0.0
  0
LINE
  5
24D
100
AcDbEntity
  8
0
100
AcDbLine
 10
231.339746
 20
155.0
 30
0.0
 11
231.910854
 21
156.05466
 31
0.0
  0
LINE
  5
24E
100
AcDbEntity
  8
0
100
AcDbLine
 10
230.728161
 20
156.253934
 30
0.0
 11
231.910854
 21
156.05466
 31
0.0
  0
LINE
  5
24F
100
AcDbEntity
  8
0
100
AcDbLine
 10
230.728161
 20
156.253934
 30
0.0
 11
231.440491
 21
157.218847
 31
0.0
  0
LINE
  5
250
100
AcDbEntity
  8
0
100
AcDbLine
 10
230.297043
 20
157.580781
 30
0.0
 11
231.440491
 21
157.218847
 31
0.0
  0
LINE
  5
251
100
AcDbEntity
  8
0
100
AcDbLine
 10
230.297043
 20
157.580781
 30
0.0
 11
231.13673
 21
158.437166
 31
0.0
  0
LINE
  5
252
100
AcDbEntity
  8
0
100
AcDbLine
 10
230.054781
 20
158.954715
 30
0.0
 11
231.13673
 21
158.437166
 31
0.0
  0
LINE
  5
253
100
AcDbEntity
  8
0
100
AcDbLine
 10
230.054781
 20
158.954715
 30
0.0
 11
231.005483
 21
159.685905
 31
0.0
  0
LINE
  5
254
100
AcDbEntity
  8
0
100
AcDbLine
 10
232.568552
 20
166.691306
 30
0.0
 11
232.907903
 21
165.540953
 31
0.0
  0
LINE
  5
255
100
AcDbEntity
  8
0
100
AcDbLine
 10
230.006092
 20
160.348995
 30
0.0
 11
231.049303
 21
160.940756
 31
0.0
  0
LINE
  5
256
100
AcDbEntity
  8
0
100
AcDbLine
 10
230.151922
 20
161.736482
 30
0.0
 11
231.049303
 21
160.940756
 31
0.0
  0
LINE
  5
257
100
AcDbEntity
  8
0
100
AcDbLine
 10
230.151922
 20
161.736482
 30
0.0
 11
231.267338
 21
162.177297
 31
0.0
  0
LINE
  5
258
100
AcDbEntity
  8
0
100
AcDbLine
 10
230.489435
 20
163.09017
 30
0.0
 11
231.267338
 21
162.177297
 31
0.0
  0
LINE
  5
259
100
AcDbEntity
  8
0
100
AcDbLine
 10
230.489435
 20
163.09017
 30
0.0
 11
231.655345
 21
163.371459
 31
0.0
  0
LINE
  5
25A
100
AcDbEntity
  8
0
100
AcDbLine
 10
231.01206
 20
164.383711
 30
0.0
 11
231.655345
 21
163.371459
 31
0.0
  0
LINE
  5
25B
100
AcDbEntity
  8
0
100
AcDbLine
 10
231.01206
 20
164.383711
 30
0.0
 11
232.205771
 21
164.5
 31
0.0
  0
LINE
  5
25C
100
AcDbEntity
  8
0
100
AcDbLine
 10
231.709624
 20
165.591929
 30
0.0
 11
232.205771
 21
164.5
 31
0.0
  0
LINE
  5
25D
100
AcDbEntity
  8
0
100
AcDbLine
 10
231.709624
 20
165.591929
 30
0.0
 11
232.907903
 21
165.540953
 31
0.0
  0
CIRCLE
  5
25E
100
AcDbEntity
  8
0
100
AcDbCircle
 10
240.0
 20
160.0
 30
0.0
 40
4.0
  0
CIRCLE
  5
25F
100
AcDbEntity
  8
0
100
AcDbCircle
 10
240.0
 20
160.0
 30
0.0
 40
5.0
  0
LINE
  5
260
100
AcDbEntity
  8
0
100
AcDbLine
 10
249.993908
 20
160.348995
 30
0.0
 11
248.994517
 21
159.685905
 31
0.0
  0
LINE
  5
261
100
AcDbEntity
  8
0
100
AcDbLine
 10
242.079117
 20
150.218524
 30
0.0
 11
241.252558
 21
151.087587
 31
0.0
  0
LINE
  5
262
100
AcDbEntity
  8
0
100
AcDbLine
 10
237.920883
 20
150.218524
 30
0.0
 11
237.519264
 21
151.348645
 31
0.0
  0
LINE
  5
263
100
AcDbEntity
  8
0
100
AcDbLine
 10
236.579799
 20
150.603074
 30
0.0
 11
237.519264
 21
151.348645
 31
0.0
  0
LINE
  5
264
100
AcDbEntity
  8
0
100
AcDbLine
 10
236.579799
 20
150.603074
 30
0.0
 11
236.33937
 21
151.778091
 31
0.0
  0
LINE
  5
265
100
AcDbEntity
  8
0
100
AcDbLine
 10
235.305284
 20
151.170524
 30
0.0
 11
236.33937
 21
151.778091
 31
0.0
  0
LINE
  5
266
100
AcDbEntity
  8
0
100
AcDbLine
 10
235.305284
 20
151.170524
 30
0.0
 11
235.230727
 21
152.367567
 31
0.0
  0
LINE
  5
267
100
AcDbEntity
  8
0
100
AcDbLine
 10
234.122147
 20
151.90983
 30
0.0
 11
235.230727
 21
152.367567
 31
0.0
  0
LINE
  5
268
100
AcDbEntity
  8
0
100
AcDbLine
 10
234.122147
 20
151.90983
 30
0.0
 11
234.214912
 21
153.1056
 31
0.0
  0
LINE
  5
269
100
AcDbEntity
  8
0
100
AcDbLine
 10
240.697565
 20
150.024359
 30
0.0
 11
241.252558
 21
151.087587
 31
0.0
  0
LINE
  5
26A
100
AcDbEntity
  8
0
100
AcDbLine
 10
240.697565
 20
150.024359
 30
0.0
 11
240.0
 21
151.0
 31
0.0
  0
LINE
  5
26B
100
AcDbEntity
  8
0
100
AcDbLine
 10
239.302435
 20
150.024359
 30
0.0
 11
240.0
 21
151.0
 31
0.0
  0
LINE
  5
26C
100
AcDbEntity
  8
0
100
AcDbLine
 10
239.302435
 20
150.024359
 30
0.0
 11
238.747442
 21
151.087587
 31
0.0
  0
LINE
  5
26D
100
AcDbEntity
  8
0
100
AcDbLine
 10
237.920883
 20
150.218524
 30
0.0
 11
238.747442
 21
151.087587
 31
0.0
  0
LINE
  5
26E
100
AcDbEntity
  8
0
100
AcDbLine
 10
247.880108
 20
153.843385
 30
0.0
 11
247.461338
 21
154.967264
 31
0.0
  0
LINE
  5
26F
100
AcDbEntity
  8
0
100
AcDbLine
 10
246.946584
 20
152.806602
 30
0.0
 11
245.785088
 21
153.1056
 31
0.0
  0
LINE
  5
270
100
AcDbEntity
  8
0
100
AcDbLine
 10
245.877853
 20
151.90983
 30
0.0
 11
245.785088
 21
153.1056
 31
0.0
  0
LINE
  5
271
100
AcDbEntity
  8
0
100
AcDbLine
 10
245.877853
 20
151.90983
 30
0.0
 11
244.769273
 21
152.367567
 31
0.0
  0
LINE
  5
272
100
AcDbEntity
  8
0
100
AcDbLine
 10
244.694716
 20
151.170524
 30
0.0
 11
244.769273
 21
152.367567
 31
0.0
  0
LINE
  5
273
100
AcDbEntity
  8
0
100
AcDbLine
 10
244.694716
 20
151.170524
 30
0.0
 11
243.66063
 21
151.778091
 31
0.0
  0
LINE
  5
274
100
AcDbEntity
  8
0
100
AcDbLine
 10
243.420201
 20
150.603074
 30
0.0
 11
243.66063
 21
151.778091
 31
0.0
  0
LINE
  5
275
100
AcDbEntity
  8
0
100
AcDbLine
 10
243.420201
 20
150.603074
 30
0.0
 11
242.480736
 21
151.348645
 31
0.0
  0
LINE
  5
276
100
AcDbEntity
  8
0
100
AcDbLine
 10
242.079117
 20
150.218524
 30
0.0
 11
242.480736
 21
151.348645
 31
0.0
  0
LINE
  5
277
100
AcDbEntity
  8
0
100
AcDbLine
 10
247.880108
 20
153.843385
 30
0.0
 11
246.688303
 21
153.977825
 31
0.0
  0
LINE
  5
278
100
AcDbEntity
  8
0
100
AcDbLine
 10
246.946584
 20
152.806602
 30
0.0
 11
246.688303
 21
153.977825
 31
0.0
  0
LINE
  5
279
100
AcDbEntity
  8
0
100
AcDbLine
 10
249.945219
 20
158.954715
 30
0.0
 11
248.994517
 21
159.685905
 31
0.0
  0
LINE
  5
27A
100
AcDbEntity
  8
0
100
AcDbLine
 10
249.945219
 20
158.954715
 30
0.0
 11
248.86327
 21
158.437166
 31
0.0
  0
LINE
  5
27B
100
AcDbEntity
  8
0
100
AcDbLine
 10
249.702957
 20
157.580781
 30
0.0
 11
248.86327
 21
158.437166
 31
0.0
  0
LINE
  5
27C
100
AcDbEntity
  8
0
100
AcDbLine
 10
249.702957
 20
157.580781
 30
0.0
 11
248.559509
 21
157.218847
 31
0.0
  0
LINE
  5
27D
100
AcDbEntity
  8
0
100
AcDbLine
 10
249.271839
 20
156.253934
 30
0.0
 11
248.559509
 21
157.218847
 31
0.0
  0
LINE
  5
27E
100
AcDbEntity
  8
0
100
AcDbLine
 10
249.271839
 20
156.253934
 30
0.0
 11
248.089146
 21
156.05466
 31
0.0
  0
LINE
  5
27F
100
AcDbEntity
  8
0
100
AcDbLine
 10
248.660254
 20
155.0
 30
0.0
 11
248.089146
 21
156.05466
 31
0.0
  0
LINE
  5
280
100
AcDbEntity
  8
0
100
AcDbLine
 10
248.660254
 20
155.0
 30
0.0
 11
247.461338
 21
154.967264
 31
0.0
  0
LINE
  5
281
100
AcDbEntity
  8
0
100
AcDbLine
 10
241.391731
 20
169.902681
 30
0.0
 11
241.871205
 21
168.803328
 31
0.0
  0
LINE
  5
282
100
AcDbEntity
  8
0
100
AcDbLine
 10
237.243626
 20
169.612617
 30
0.0
 11
238.128795
 21
168.803328
 31
0.0
  0
LINE
  5
283
100
AcDbEntity
  8
0
100
AcDbLine
 10
234.700807
 20
168.480481
 30
0.0
 11
234.709933
 21
167.281153
 31
0.0
  0
LINE
  5
284
100
AcDbEntity
  8
0
100
AcDbLine
 10
234.700807
 20
168.480481
 30
0.0
 11
235.774756
 21
167.946528
 31
0.0
  0
LINE
  5
285
100
AcDbEntity
  8
0
100
AcDbLine
 10
235.932634
 20
169.135455
 30
0.0
 11
235.774756
 21
167.946528
 31
0.0
  0
LINE
  5
286
100
AcDbEntity
  8
0
100
AcDbLine
 10
235.932634
 20
169.135455
 30
0.0
 11
236.921819
 21
168.457234
 31
0.0
  0
LINE
  5
287
100
AcDbEntity
  8
0
100
AcDbLine
 10
237.243626
 20
169.612617
 30
0.0
 11
236.921819
 21
168.457234
 31
0.0
  0
LINE
  5
288
100
AcDbEntity
  8
0
100
AcDbLine
 10
241.391731
 20
169.902681
 30
0.0
 11
240.627808
 21
168.978076
 31
0.0
  0
LINE
  5
289
100
AcDbEntity
  8
0
100
AcDbLine
 10
238.608269
 20
169.902681
 30
0.0
 11
238.128795
 21
168.803328
 31
0.0
  0
LINE
  5
28A
100
AcDbEntity
  8
0
100
AcDbLine
 10
238.608269
 20
169.902681
 30
0.0
 11
239.372192
 21
168.978076
 31
0.0
  0
LINE
  5
28B
100
AcDbEntity
  8
0
100
AcDbLine
 10
240.0
 20
170.0
 30
0.0
 11
239.372192
 21
168.978076
 31
0.0
  0
LINE
  5
28C
100
AcDbEntity
  8
0
100
AcDbLine
 10
240.0
 20
170.0
 30
0.0
 11
240.627808
 21
168.978076
 31
0.0
  0
LINE
  5
28D
100
AcDbEntity
  8
0
100
AcDbLine
 10
247.431448
 20
166.691306
 30
0.0
 11
247.092097
 21
165.540953
 31
0.0
  0
LINE
  5
28E
100
AcDbEntity
  8
0
100
AcDbLine
 10
248.290376
 20
165.591929
 30
0.0
 11
247.092097
 21
165.540953
 31
0.0
  0
LINE
  5
28F
100
AcDbEntity
  8
0
100
AcDbLine
 10
248.290376
 20
165.591929
 30
0.0
 11
247.794229
 21
164.5
 31
0.0
  0
LINE
  5
290
100
AcDbEntity
  8
0
100
AcDbLine
 10
248.98794
 20
164.383711
 30
0.0
 11
247.794229
 21
164.5
 31
0.0
  0
LINE
  5
291
100
AcDbEntity
  8
0
100
AcDbLine
 10
248.98794
 20
164.383711
 30
0.0
 11
248.344655
 21
163.371459
 31
0.0
  0
LINE
  5
292
100
AcDbEntity
  8
0
100
AcDbLine
 10
249.510565
 20
163.09017
 30
0.0
 11
248.344655
 21
163.371459
 31
0.0
  0
LINE
  5
293
100
AcDbEntity
  8
0
100
AcDbLine
 10
249.510565
 20
163.09017
 30
0.0
 11
248.732662
 21
162.177297
 31
0.0
  0
LINE
  5
294
100
AcDbEntity
  8
0
100
AcDbLine
 10
249.848078
 20
161.736482
 30
0.0
 11
248.732662
 21
162.177297
 31
0.0
  0
LINE
  5
295
100
AcDbEntity
  8
0
100
AcDbLine
 10
249.848078
 20
161.736482
 30
0.0
 11
248.950697
 21
160.940756
 31
0.0
  0
LINE
  5
296
100
AcDbEntity
  8
0
100
AcDbLine
 10
249.993908
 20
160.348995
 30
0.0
 11
248.950697
 21
160.940756
 31
0.0
  0
LINE
  5
297
100
AcDbEntity
  8
0
100
AcDbLine
 10
246.427876
 20
167.660444
 30
0.0
 11
245.290067
 21
167.281153
 31
0.0
  0
LINE
  5
298
100
AcDbEntity
  8
0
100
AcDbLine
 10
242.756374
 20
169.612617
 30
0.0
 11
241.871205
 21
168.803328
 31
0.0
  0
LINE
  5
299
100
AcDbEntity
  8
0
100
AcDbLine
 10
242.756374
 20
169.612617
 30
0.0
 11
243.078181
 21
168.457234
 31
0.0
  0
LINE
  5
29A
100
AcDbEntity
  8
0
100
AcDbLine
 10
244.067366
 20
169.135455
 30
0.0
 11
243.078181
 21
168.457234
 31
0.0
  0
LINE
  5
29B
100
AcDbEntity
  8
0
100
AcDbLine
 10
244.067366
 20
169.135455
 30
0.0
 11
244.225244
 21
167.946528
 31
0.0
  0
LINE
  5
29C
100
AcDbEntity
  8
0
100
AcDbLine
 10
245.299193
 20
168.480481
 30
0.0
 11
244.225244
 21
167.946528
 31
0.0
  0
LINE
  5
29D
100
AcDbEntity
  8
0
100
AcDbLine
 10
245.299193
 20
168.480481
 30
0.0
 11
245.290067
 21
167.281153
 31
0.0
  0
LINE
  5
29E
100
AcDbEntity
  8
0
100
AcDbLine
 10
246.427876
 20
167.660444
 30
0.0
 11
246.251925
 21
166.474058
 31
0.0
  0
LINE
  5
29F
100
AcDbEntity
  8
0
100
AcDbLine
 10
247.431448
 20
166.691306
 30
0.0
 11
246.251925
 21
166.474058
 31
0.0
  0
LINE
  5
2A0
102
{ACAD_REACTORS
330
30B
102
}
100
AcDbEntity
  8
0
100
AcDbLine
 10
233.5
 20
194.0
 30
0.0
 11
246.5
 21
194.0
 31
0.0
  0
LINE
  5
2A1
102
{ACAD_REACTORS
330
30B
102
}
100
AcDbEntity
  8
0
100
AcDbLine
 10
249.0
 20
207.0
 30
0.0
 11
231.0
 21
207.0
 31
0.0
  0
LINE
  5
2A2
102
{ACAD_REACTORS
330
30B
102
}
100
AcDbEntity
  8
0
100
AcDbLine
 10
230.0
 20
206.0
 30
0.0
 11
231.0
 21
207.0
 31
0.0
  0
LINE
  5
2A3
102
{ACAD_REACTORS
330
30B
102
}
100
AcDbEntity
  8
0
100
AcDbLine
 10
230.0
 20
206.0
 30
0.0
 11
230.0
 21
200.0
 31
0.0
  0
LINE
  5
2A4
102
{ACAD_REACTORS
330
30B
102
}
100
AcDbEntity
  8
0
100
AcDbLine
 10
230.0
 20
200.0
 30
0.0
 11
233.25
 21
200.0
 31
0.0
  0
LINE
  5
2A5
102
{ACAD_REACTORS
330
30B
102
}
100
AcDbEntity
  8
0
100
AcDbLine
 10
236.0
 20
205.5
 30
0.0
 11
235.0
 21
207.0
 31
0.0
  0
LINE
  5
2A6
100
AcDbEntity
  8
0
100
AcDbLine
 10
249.993908
 20
206.0
 30
0.0
 11
249.0
 21
207.0
 31
0.0
  0
LINE
  5
2A7
100
AcDbEntity
  8
0
100
AcDbLine
 10
248.950697
 20
207.0
 30
0.0
 11
249.993908
 21
206.0
 31
0.0
  0
LINE
  5
2A8
100
AcDbEntity
  8
0
100
AcDbLine
 10
249.848078
 20
206.0
 30
0.0
 11
248.950697
 21
207.0
 31
0.0
  0
LINE
  5
2A9
100
AcDbEntity
  8
0
100
AcDbLine
 10
248.732662
 20
207.0
 30
0.0
 11
249.848078
 21
206.0
 31
0.0
  0
LINE
  5
2AA
100
AcDbEntity
  8
0
100
AcDbLine
 10
249.510565
 20
206.0
 30
0.0
 11
248.732662
 21
207.0
 31
0.0
  0
LINE
  5
2AB
100
AcDbEntity
  8
0
100
AcDbLine
 10
248.344655
 20
207.0
 30
0.0
 11
249.510565
 21
206.0
 31
0.0
  0
LINE
  5
2AC
100
AcDbEntity
  8
0
100
AcDbLine
 10
248.98794
 20
206.0
 30
0.0
 11
248.344655
 21
207.0
 31
0.0
  0
LINE
  5
2AD
100
AcDbEntity
  8
0
100
AcDbLine
 10
247.794229
 20
207.0
 30
0.0
 11
248.98794
 21
206.0
 31
0.0
  0
LINE
  5
2AE
100
AcDbEntity
  8
0
100
AcDbLine
 10
248.290376
 20
206.0
 30
0.0
 11
247.794229
 21
207.0
 31
0.0
  0
LINE
  5
2AF
100
AcDbEntity
  8
0
100
AcDbLine
 10
247.092097
 20
207.0
 30
0.0
 11
248.290376
 21
206.0
 31
0.0
  0
LINE
  5
2B0
100
AcDbEntity
  8
0
100
AcDbLine
 10
247.431448
 20
206.0
 30
0.0
 11
247.092097
 21
207.0
 31
0.0
  0
LINE
  5
2B1
100
AcDbEntity
  8
0
100
AcDbLine
 10
246.251925
 20
207.0
 30
0.0
 11
247.431448
 21
206.0
 31
0.0
  0
LINE
  5
2B2
100
AcDbEntity
  8
0
100
AcDbLine
 10
246.427876
 20
206.0
 30
0.0
 11
246.251925
 21
207.0
 31
0.0
  0
LINE
  5
2B3
100
AcDbEntity
  8
0
100
AcDbLine
 10
245.290067
 20
207.0
 30
0.0
 11
246.427876
 21
206.0
 31
0.0
  0
LINE
  5
2B4
100
AcDbEntity
  8
0
100
AcDbLine
 10
245.299193
 20
206.0
 30
0.0
 11
245.290067
 21
207.0
 31
0.0
  0
LINE
  5
2B5
100
AcDbEntity
  8
0
100
AcDbLine
 10
244.225244
 20
207.0
 30
0.0
 11
245.299193
 21
206.0
 31
0.0
  0
LINE
  5
2B6
100
AcDbEntity
  8
0
100
AcDbLine
 10
244.067366
 20
206.0
 30
0.0
 11
244.225244
 21
207.0
 31
0.0
  0
LINE
  5
2B7
100
AcDbEntity
  8
0
100
AcDbLine
 10
243.078181
 20
207.0
 30
0.0
 11
244.067366
 21
206.0
 31
0.0
  0
LINE
  5
2B8
100
AcDbEntity
  8
0
100
AcDbLine
 10
242.756374
 20
206.0
 30
0.0
 11
243.078181
 21
207.0
 31
0.0
  0
LINE
  5
2B9
100
AcDbEntity
  8
0
100
AcDbLine
 10
241.871205
 20
207.0
 30
0.0
 11
242.756374
 21
206.0
 31
0.0
  0
LINE
  5
2BA
100
AcDbEntity
  8
0
100
AcDbLine
 10
241.391731
 20
206.0
 30
0.0
 11
241.871205
 21
207.0
 31
0.0
  0
LINE
  5
2BB
100
AcDbEntity
  8
0
100
AcDbLine
 10
240.627808
 20
207.0
 30
0.0
 11
241.391731
 21
206.0
 31
0.0
  0
LINE
  5
2BC
100
AcDbEntity
  8
0
100
AcDbLine
 10
240.0
 20
206.0
 30
0.0
 11
240.627808
 21
207.0
 31
0.0
  0
LINE
  5
2BD
100
AcDbEntity
  8
0
100
AcDbLine
 10
250.0
 20
206.0
 30
0.0
 11
249.0
 21
207.0
 31
0.0
  0
LINE
  5
2BE
100
AcDbEntity
  8
0
100
AcDbLine
 10
245.299193
 20
200.0
 30
0.0
 11
245.299193
 21
207.0
 31
0.0
  0
LINE
  5
2BF
100
AcDbEntity
  8
0
100
AcDbLine
 10
250.0
 20
206.0
 30
0.0
 11
240.0
 21
206.0
 31
0.0
  0
LINE
  5
2C0
100
AcDbEntity
  8
0
100
AcDbLine
 10
240.0
 20
200.0
 30
0.0
 11
250.0
 21
200.0
 31
0.0
  0
LINE
  5
2C1
100
AcDbEntity
  8
0
100
AcDbLine
 10
241.391731
 20
200.0
 30
0.0
 11
241.391731
 21
206.0
 31
0.0
  0
LINE
  5
2C2
102
{ACAD_REACTORS
330
30B
102
}
100
AcDbEntity
  8
0
100
AcDbLine
 10
240.0
 20
205.5
 30
0.0
 11
236.0
 21
205.5
 31
0.0
  0
LINE
  5
2C3
100
AcDbEntity
  8
0
100
AcDbLine
 10
249.993908
 20
200.0
 30
0.0
 11
249.993908
 21
206.0
 31
0.0
  0
LINE
  5
2C4
100
AcDbEntity
  8
0
100
AcDbLine
 10
249.848078
 20
200.0
 30
0.0
 11
249.848078
 21
206.0
 31
0.0
  0
LINE
  5
2C5
100
AcDbEntity
  8
0
100
AcDbLine
 10
249.510565
 20
200.0
 30
0.0
 11
249.510565
 21
206.0
 31
0.0
  0
LINE
  5
2C6
100
AcDbEntity
  8
0
100
AcDbLine
 10
248.98794
 20
200.0
 30
0.0
 11
248.98794
 21
206.0
 31
0.0
  0
LINE
  5
2C7
100
AcDbEntity
  8
0
100
AcDbLine
 10
248.290376
 20
200.0
 30
0.0
 11
248.290376
 21
206.0
 31
0.0
  0
LINE
  5
2C8
100
AcDbEntity
  8
0
100
AcDbLine
 10
247.431448
 20
200.0
 30
0.0
 11
247.431448
 21
206.0
 31
0.0
  0
LINE
  5
2C9
100
AcDbEntity
  8
0
100
AcDbLine
 10
246.427876
 20
200.0
 30
0.0
 11
246.427876
 21
206.0
 31
0.0
  0
LINE
  5
2CA
100
AcDbEntity
  8
0
100
AcDbLine
 10
244.067366
 20
200.0
 30
0.0
 11
244.067366
 21
206.0
 31
0.0
  0
LINE
  5
2CB
100
AcDbEntity
  8
0
100
AcDbLine
 10
242.756374
 20
200.0
 30
0.0
 11
242.756374
 21
206.0
 31
0.0
  0
LINE
  5
2CC
100
AcDbEntity
  8
0
100
AcDbLine
 10
250.0
 20
200.0
 30
0.0
 11
250.0
 21
206.0
 31
0.0
  0
LINE
  5
2CD
102
{ACAD_REACTORS
330
2E3
102
}
100
AcDbEntity
  8
0
100
AcDbLine
 10
200.0
 20
196.5
 30
0.0
 11
196.0
 21
196.5
 31
0.0
  0
LINE
  5
2CE
102
{ACAD_REACTORS
330
2E3
102
}
100
AcDbEntity
  8
0
100
AcDbLine
 10
200.0
 20
199.0
 30
0.0
 11
196.0
 21
199.0
 31
0.0
  0
LINE
  5
2CF
100
AcDbEntity
  8
0
100
AcDbLine
 10
198.0
 20
196.5
 30
0.0
 11
198.0
 21
199.0
 31
0.0
  0
LINE
  5
2D1
102
{ACAD_REACTORS
330
2E3
102
}
100
AcDbEntity
  8
0
100
AcDbLine
 10
196.0
 20
196.5
 30
0.0
 11
196.0
 21
199.0
 31
0.0
  0
LINE
  5
2D2
102
{ACAD_REACTORS
330
2E3
102
}
100
AcDbEntity
  8
0
100
AcDbLine
 10
197.0
 20
199.0
 30
0.0
 11
196.0
 21
205.5
 31
0.0
  0
LINE
  5
2D3
102
{ACAD_REACTORS
330
2E3
102
}
100
AcDbEntity
  8
0
100
AcDbLine
 10
197.25
 20
194.0
 30
0.0
 11
197.25
 21
196.5
 31
0.0
  0
HATCH
  5
2E3
100
AcDbEntity
  8
0
100
AcDbHatch
 10
0.0
 20
0.0
 30
0.0
210
0.0
220
0.0
230
1.0
  2
ANSI31
 70
     0
 71
     1
 91
        1
 92
        7
 72
     0
 73
     1
 93
       12
 10
195.9999999999999
 20
205.5
 10
195.0
 20
207.0
 10
191.0
 20
206.9999999999999
 10
190.0
 20
206.0
 10
190.0
 20
200.0
 10
193.25
 20
200.0
 10
193.5
 20
193.9999999999999
 10
197.25
 20
193.9999999999999
 10
197.25
 20
196.5
 10
195.9999999999999
 20
196.5
 10
195.9999999999999
 20
199.0
 10
196.9999999999999
 20
199.0
 97
       12
330
182
330
3E
330
17B
330
3F
330
3C
330
45
330
40
330
2D3
330
2CD
330
2D1
330
2CE
330
2D2
 75
     0
 76
     1
 52
0.0
 41
0.5
 77
     0
 78
     1
 53
45.0
 43
0.0
 44
0.0
 45
-1.122532015133643
 46
1.122532015133644
 79
     0
 47
0.072386
 98
        1
 10
193.75
 20
203.0
  0
LINE
  5
2E4
100
AcDbEntity
  8
0
100
AcDbLine
 10
242.0
 20
184.5
 30
0.0
 11
242.0
 21
194.0
 31
0.0
  0
LINE
  5
2E5
100
AcDbEntity
  8
0
100
AcDbLine
 10
241.5
 20
184.0
 30
0.0
 11
238.5
 21
184.0
 31
0.0
  0
LINE
  5
2E7
100
AcDbEntity
  8
0
100
AcDbLine
 10
241.5
 20
194.0
 30
0.0
 11
241.5
 21
184.0
 31
0.0
  0
LINE
  5
2E8
100
AcDbEntity
  8
0
100
AcDbLine
 10
198.5
 20
196.5
 30
0.0
 11
198.5
 21
199.0
 31
0.0
  0
ARC
  5
2E9
100
AcDbEntity
  8
0
100
AcDbCircle
 10
200.0
 20
160.0
 30
0.0
 40
2.0
100
AcDbArc
 50
90.0
 51
0.0
  0
CIRCLE
  5
2EA
100
AcDbEntity
  8
0
100
AcDbCircle
 10
200.0
 20
160.0
 30
0.0
 40
1.5
  0
CIRCLE
  5
2EC
100
AcDbEntity
  8
0
100
AcDbCircle
 10
200.0
 20
160.0
 30
0.0
 40
3.0
  0
LINE
  5
2F2
102
{ACAD_REACTORS
330
30B
102
}
100
AcDbEntity
  8
0
100
AcDbLine
 10
240.0
 20
195.0
 30
0.0
 11
237.0
 21
195.0
 31
0.0
  0
LINE
  5
2F3
102
{ACAD_REACTORS
330
30B
102
}
100
AcDbEntity
  8
0
100
AcDbLine
 10
237.0
 20
195.0
 30
0.0
 11
237.0
 21
194.0
 31
0.0
  0
LINE
  5
2F4
100
AcDbEntity
  8
0
100
AcDbLine
 10
238.0
 20
184.5
 30
0.0
 11
238.0
 21
194.0
 31
0.0
  0
LINE
  5
2F5
100
AcDbEntity
  8
0
100
AcDbLine
 10
238.5
 20
184.0
 30
0.0
 11
238.5
 21
194.0
 31
0.0
  0
LINE
  5
2F6
100
AcDbEntity
  8
0
100
AcDbLine
 10
238.0
 20
184.5
 30
0.0
 11
242.0
 21
184.5
 31
0.0
  0
LINE
  5
2F7
100
AcDbEntity
  8
0
100
AcDbLine
 10
238.5
 20
184.0
 30
0.0
 11
238.0
 21
184.5
 31
0.0
  0
LINE
  5
2F8
100
AcDbEntity
  8
0
100
AcDbLine
 10
241.5
 20
184.0
 30
0.0
 11
242.0
 21
184.5
 31
0.0
  0
LINE
  5
2F9
102
{ACAD_REACTORS
330
30B
102
}
100
AcDbEntity
  8
0
100
AcDbLine
 10
237.0
 20
199.0
 30
0.0
 11
238.5
 21
199.0
 31
0.0
  0
LINE
  5
2FA
102
{ACAD_REACTORS
330
30B
102
}
100
AcDbEntity
  8
0
100
AcDbLine
 10
240.0
 20
196.5
 30
0.0
 11
238.5
 21
199.0
 31
0.0
  0
LINE
  5
2FB
102
{ACAD_REACTORS
330
30B
102
}
100
AcDbEntity
  8
0
100
AcDbLine
 10
237.0
 20
199.0
 30
0.0
 11
238.0
 21
195.0
 31
0.0
  0
HATCH
  5
30B
100
AcDbEntity
  8
0
100
AcDbHatch
 10
0.0
 20
0.0
 30
0.0
210
0.0
220
0.0
230
1.0
  2
ANSI31
 70
     0
 71
     1
 91
        1
 92
        7
 72
     0
 73
     1
 93
       14
 10
235.9999999999999
 20
205.5
 10
235.0
 20
206.9999999999999
 10
231.0
 20
206.9999999999999
 10
230.0
 20
206.0
 10
230.0
 20
200.0
 10
233.25
 20
200.0
 10
233.4999999999999
 20
193.9999999999999
 10
237.0
 20
193.9999999999999
 10
237.0
 20
195.0
 10
237.9999999999999
 20
195.0
 10
237.0
 20
199.0
 10
238.5
 20
199.0
 10
239.9999999999999
 20
196.5
 10
239.9999999999999
 20
205.5
 97
       14
330
2C2
330
2A5
330
2A1
330
2A2
330
2A3
330
2A4
330
242
330
2A0
330
2F3
330
2F2
330
2FB
330
2F9
330
2FA
330
240
 75
     0
 76
     1
 52
0.0
 41
0.5
 77
     0
 78
     1
 53
45.0
 43
0.0
 44
0.0
 45
-1.122532015133643
 46
1.122532015133644
 79
     0
 47
0.072386
 98
        1
 10
236.0
 20
202.75
  0
ENDSEC
  0
SECTION
  2
OBJECTS
  0
DICTIONARY
  5
C
100
AcDbDictionary
  3
ACAD_GROUP
350
D
  3
ACAD_MLINESTYLE
350
1B
  3
ACDBVARIABLEDICTIONARY
350
2D4
  3
CONTENTDICTIONARY
350
23
  0
DICTIONARY
  5
D
102
{ACAD_REACTORS
330
C
102
}
100
AcDbDictionary
  0
DICTIONARY
  5
1B
102
{ACAD_REACTORS
330
C
102
}
100
AcDbDictionary
  3
STANDARD
350
1C
  0
DICTIONARY
  5
2D4
102
{ACAD_REACTORS
330
C
102
}
100
AcDbDictionary
  3
SORTENTS
350
2D5
  0
DICTIONARY
  5
23
102
{ACAD_REACTORS
330
C
102
}
100
AcDbDictionary
  0
MLINESTYLE
  5
1C
102
{ACAD_REACTORS
330
1B
102
}
100
AcDbMlineStyle
  2
STANDARD
 70
     0
  3

 62
   256
 51
90.0
 52
90.0
 71
     2
 49
0.5
 62
   256
  6
BYLAYER
 49
-0.5
 62
   256
  6
BYLAYER
  0
DICTIONARYVAR
  5
2D5
102
{ACAD_REACTORS
330
2D4
102
}
100
DictionaryVariables
280
     0
  1
96
  0
ENDSEC
  0
EOF
