  0
SECTION
  2
HEADER
  9
$ACADVER
  1
AC1009
  9
$INSBASE
 10
0.0
 20
0.0
 30
0.0
  9
$EXTMIN
 10
-86.562987
 20
51.105309
 30
0.0
  9
$EXTMAX
 10
-19.691797
 20
91.231042
 30
0.0
  9
$LIMMIN
 10
0.0
 20
0.0
  9
$LIMMAX
 10
12.0
 20
9.0
  9
$ORTHOMODE
 70
     0
  9
$REGENMODE
 70
     1
  9
$FILLMODE
 70
     1
  9
$QTEXTMODE
 70
     0
  9
$MIRRTEXT
 70
     1
  9
$DRAGMODE
 70
     2
  9
$LTSCALE
 40
2.0
  9
$OSMODE
 70
     0
  9
$ATTMODE
 70
     1
  9
$TEXTSIZE
 40
0.2
  9
$TRACEWID
 40
0.05
  9
$TEXTSTYLE
  7
STANDARD
  9
$CLAYER
  8
0
  9
$CELTYPE
  6
BYLAYER
  9
$CECOLOR
 62
   256
  9
$DIMSCALE
 40
1.0
  9
$DIMASZ
 40
2.5
  9
$DIMEXO
 40
0.0
  9
$DIMDLI
 40
5.0
  9
$DIMRND
 40
0.0
  9
$DIMDLE
 40
0.0
  9
$DIMEXE
 40
1.0
  9
$DIMTP
 40
0.0
  9
$DIMTM
 40
0.0
  9
$DIMTXT
 40
2.5
  9
$DIMCEN
 40
0.09
  9
$DIMTSZ
 40
0.0
  9
$DIMTOL
 70
     0
  9
$DIMLIM
 70
     0
  9
$DIMTIH
 70
     0
  9
$DIMTOH
 70
     0
  9
$DIMSE1
 70
     0
  9
$DIMSE2
 70
     0
  9
$DIMTAD
 70
     1
  9
$DIMZIN
 70
     0
  9
$DIMBLK
  1

  9
$DIMASO
 70
     0
  9
$DIMSHO
 70
     0
  9
$DIMPOST
  1

  9
$DIMAPOST
  1

  9
$DIMALT
 70
     0
  9
$DIMALTD
 70
     2
  9
$DIMALTF
 40
25.4
  9
$DIMLFAC
 40
1.0
  9
$DIMTOFL
 70
     1
  9
$DIMTVP
 40
0.0
  9
$DIMTIX
 70
     0
  9
$DIMSOXD
 70
     0
  9
$DIMSAH
 70
     0
  9
$DIMBLK1
  1

  9
$DIMBLK2
  1

  9
$DIMSTYLE
  2
*UNNAMED
  9
$DIMCLRD
 70
     0
  9
$DIMCLRE
 70
     0
  9
$DIMCLRT
 70
     0
  9
$DIMTFAC
 40
1.0
  9
$DIMGAP
 40
0.09
  9
$LUNITS
 70
     2
  9
$LUPREC
 70
     4
  9
$SKETCHINC
 40
0.1
  9
$FILLETRAD
 40
0.8
  9
$AUNITS
 70
     0
  9
$AUPREC
 70
     0
  9
$MENU
  1
wiberger
  9
$ELEVATION
 40
0.0
  9
$PELEVATION
 40
0.0
  9
$THICKNESS
 40
0.0
  9
$LIMCHECK
 70
     0
  9
$BLIPMODE
 70
     1
  9
$CHAMFERA
 40
0.0
  9
$CHAMFERB
 40
0.0
  9
$SKPOLY
 70
     0
  9
$TDCREATE
 40
2450190.288452893
  9
$TDUPDATE
 40
2450198.611281944
  9
$TDINDWG
 40
0.0012892361
  9
$TDUSRTIMER
 40
0.0012892361
  9
$USRTIMER
 70
     1
  9
$ANGBASE
 50
0.0
  9
$ANGDIR
 70
     0
  9
$PDMODE
 70
     0
  9
$PDSIZE
 40
0.0
  9
$PLINEWID
 40
0.0
  9
$COORDS
 70
     0
  9
$SPLFRAME
 70
     0
  9
$SPLINETYPE
 70
     6
  9
$SPLINESEGS
 70
     8
  9
$ATTDIA
 70
     0
  9
$ATTREQ
 70
     1
  9
$HANDLING
 70
     0
  9
$HANDSEED
  5
0
  9
$SURFTAB1
 70
     6
  9
$SURFTAB2
 70
     6
  9
$SURFTYPE
 70
     6
  9
$SURFU
 70
     6
  9
$SURFV
 70
     6
  9
$UCSNAME
  2

  9
$UCSORG
 10
0.0
 20
0.0
 30
0.0
  9
$UCSXDIR
 10
1.0
 20
0.0
 30
0.0
  9
$UCSYDIR
 10
0.0
 20
1.0
 30
0.0
  9
$PUCSNAME
  2

  9
$PUCSORG
 10
0.0
 20
0.0
 30
0.0
  9
$PUCSXDIR
 10
1.0
 20
0.0
 30
0.0
  9
$PUCSYDIR
 10
0.0
 20
1.0
 30
0.0
  9
$USERI1
 70
     0
  9
$USERI2
 70
     0
  9
$USERI3
 70
     0
  9
$USERI4
 70
     0
  9
$USERI5
 70
     0
  9
$USERR1
 40
0.0
  9
$USERR2
 40
0.0
  9
$USERR3
 40
0.0
  9
$USERR4
 40
0.0
  9
$USERR5
 40
0.0
  9
$WORLDVIEW
 70
     1
  9
$SHADEDGE
 70
     3
  9
$SHADEDIF
 70
    70
  9
$TILEMODE
 70
     1
  9
$MAXACTVP
 70
    16
  9
$PINSBASE
 10
0.0
 20
0.0
 30
0.0
  9
$PLIMCHECK
 70
     0
  9
$PEXTMIN
 10
1.000000E+20
 20
1.000000E+20
 30
1.000000E+20
  9
$PEXTMAX
 10
-1.000000E+20
 20
-1.000000E+20
 30
-1.000000E+20
  9
$PLIMMIN
 10
0.0
 20
0.0
  9
$PLIMMAX
 10
12.0
 20
9.0
  9
$UNITMODE
 70
     0
  9
$VISRETAIN
 70
     0
  9
$PLINEGEN
 70
     0
  9
$PSLTSCALE
 70
     0
  9
$TREEDEPTH
 70
  3020
  9
$DWGCODEPAGE
  3
undefined
  0
ENDSEC
  0
SECTION
  2
TABLES
  0
TABLE
  2
VPORT
 70
     2
  0
VPORT
  2
*ACTIVE
 70
     0
 10
0.0
 20
0.0
 11
1.0
 21
1.0
 12
-44.015593
 22
74.980913
 13
0.0
 23
0.0
 14
1.0
 24
1.0
 15
0.0
 25
0.0
 16
0.0
 26
0.0
 36
1.0
 17
0.0
 27
0.0
 37
0.0
 40
53.0
 41
1.767507
 42
50.0
 43
0.0
 44
0.0
 50
0.0
 51
0.0
 71
     0
 72
   100
 73
     1
 74
     0
 75
     0
 76
     0
 77
     0
 78
     0
  0
ENDTAB
  0
TABLE
  2
LTYPE
 70
     2
  0
LTYPE
  2
CONTINUOUS
 70
    64
  3
Solid line
 72
    65
 73
     0
 40
0.0
  0
LTYPE
  2
CENTER
 70
    64
  3
____ _ ____ _ ____ _ ____ _ ____ _ ____ _ ____
 72
    65
 73
     4
 40
2.0
 49
1.25
 49
-0.25
 49
0.25
 49
-0.25
  0
ENDTAB
  0
TABLE
  2
LAYER
 70
     1
  0
LAYER
  2
0
 70
    64
 62
     7
  6
CONTINUOUS
  0
ENDTAB
  0
TABLE
  2
STYLE
 70
     1
  0
STYLE
  2
STANDARD
 70
     0
 40
0.0
 41
1.0
 50
0.0
 71
     0
 42
0.2
  3
txt
  4

  0
ENDTAB
  0
TABLE
  2
VIEW
 70
     0
  0
ENDTAB
  0
TABLE
  2
UCS
 70
     0
  0
ENDTAB
  0
TABLE
  2
APPID
 70
     1
  0
APPID
  2
ACAD
 70
    64
  0
ENDTAB
  0
TABLE
  2
DIMSTYLE
 70
     0
  0
ENDTAB
  0
ENDSEC
  0
SECTION
  2
BLOCKS
  0
BLOCK
  8
0
  2
*X4
 70
    65
 10
0.0
 20
0.0
 30
0.0
  3
*X
  0
LINE
  8
0
 62
     0
 10
-82.610669
 20
81.791658
 30
0.0
 11
-81.044044
 21
83.358283
 31
0.0
  0
LINE
  8
0
 62
     0
 10
-83.361303
 20
81.924907
 30
0.0
 11
-81.610669
 21
83.675541
 31
0.0
  0
LINE
  8
0
 62
     0
 10
-84.245186
 20
81.924907
 30
0.0
 11
-81.610669
 21
84.559425
 31
0.0
  0
LINE
  8
0
 62
     0
 10
-84.710669
 20
82.343308
 30
0.0
 11
-81.62907
 21
85.424907
 31
0.0
  0
LINE
  8
0
 62
     0
 10
-84.710669
 20
83.227192
 30
0.0
 11
-82.512953
 21
85.424907
 31
0.0
  0
LINE
  8
0
 62
     0
 10
-84.710669
 20
84.111075
 30
0.0
 11
-83.396837
 21
85.424907
 31
0.0
  0
LINE
  8
0
 62
     0
 10
-84.710669
 20
84.994959
 30
0.0
 11
-84.28072
 21
85.424907
 31
0.0
  0
LINE
  8
0
 62
     0
 10
-82.610669
 20
80.907774
 30
0.0
 11
-80.760669
 21
82.757774
 31
0.0
  0
LINE
  8
0
 62
     0
 10
-82.610669
 20
80.023891
 30
0.0
 11
-80.760669
 21
81.873891
 31
0.0
  0
LINE
  8
0
 62
     0
 10
-82.610669
 20
79.140007
 30
0.0
 11
-80.760669
 21
80.990007
 31
0.0
  0
LINE
  8
0
 62
     0
 10
-82.541885
 20
78.324907
 30
0.0
 11
-80.760669
 21
80.106124
 31
0.0
  0
LINE
  8
0
 62
     0
 10
-81.658002
 20
78.324907
 30
0.0
 11
-80.760669
 21
79.22224
 31
0.0
  0
LINE
  8
0
 62
     0
 10
-80.760669
 20
80.760669
 30
0.0
 11
-84.710669
 21
84.710669
 31
0.0
  0
LINE
  8
0
 62
     0
 10
-80.760669
 20
79.876785
 30
0.0
 11
-82.610669
 21
81.726785
 31
0.0
  0
LINE
  8
0
 62
     0
 10
-82.808791
 20
81.924907
 30
0.0
 11
-84.710669
 21
83.826785
 31
0.0
  0
LINE
  8
0
 62
     0
 10
-80.760669
 20
78.992902
 30
0.0
 11
-82.610669
 21
80.842902
 31
0.0
  0
LINE
  8
0
 62
     0
 10
-83.692674
 20
81.924907
 30
0.0
 11
-84.710669
 21
82.942902
 31
0.0
  0
LINE
  8
0
 62
     0
 10
-81.043613
 20
78.391963
 30
0.0
 11
-82.610669
 21
79.959018
 31
0.0
  0
LINE
  8
0
 62
     0
 10
-84.576558
 20
81.924907
 30
0.0
 11
-84.710669
 21
82.059018
 31
0.0
  0
LINE
  8
0
 62
     0
 10
-81.860441
 20
78.324907
 30
0.0
 11
-82.610669
 21
79.075135
 31
0.0
  0
LINE
  8
0
 62
     0
 10
-80.760669
 20
81.644552
 30
0.0
 11
-84.541024
 21
85.424907
 31
0.0
  0
LINE
  8
0
 62
     0
 10
-80.760669
 20
82.528436
 30
0.0
 11
-83.65714
 21
85.424907
 31
0.0
  0
LINE
  8
0
 62
     0
 10
-81.610669
 20
84.262319
 30
0.0
 11
-82.773257
 21
85.424907
 31
0.0
  0
LINE
  8
0
 62
     0
 10
-81.610669
 20
85.146203
 30
0.0
 11
-81.889374
 21
85.424907
 31
0.0
  0
ENDBLK
  8
0
  0
BLOCK
  8
0
  2
*X5
 70
    65
 10
0.0
 20
0.0
 30
0.0
  3
*X
  0
LINE
  8
0
 62
     0
 10
-63.915866
 20
81.924907
 30
0.0
 11
-61.279142
 21
84.561631
 31
0.0
  0
LINE
  8
0
 62
     0
 10
-64.79975
 20
81.924907
 30
0.0
 11
-61.589446
 21
85.135211
 31
0.0
  0
LINE
  8
0
 62
     0
 10
-65.683633
 20
81.924907
 30
0.0
 11
-62.383633
 21
85.224907
 31
0.0
  0
LINE
  8
0
 62
     0
 10
-66.479142
 20
82.013282
 30
0.0
 11
-62.779142
 21
85.713282
 31
0.0
  0
LINE
  8
0
 62
     0
 10
-66.479142
 20
82.897165
 30
0.0
 11
-63.0514
 21
86.324907
 31
0.0
  0
LINE
  8
0
 62
     0
 10
-66.479142
 20
83.781049
 30
0.0
 11
-63.935284
 21
86.324907
 31
0.0
  0
LINE
  8
0
 62
     0
 10
-66.479142
 20
84.664932
 30
0.0
 11
-64.819167
 21
86.324907
 31
0.0
  0
LINE
  8
0
 62
     0
 10
-66.479142
 20
85.548816
 30
0.0
 11
-65.703051
 21
86.324907
 31
0.0
  0
LINE
  8
0
 62
     0
 10
-63.879142
 20
81.077748
 30
0.0
 11
-61.279142
 21
83.677748
 31
0.0
  0
LINE
  8
0
 62
     0
 10
-63.879142
 20
80.193864
 30
0.0
 11
-61.279142
 21
82.793864
 31
0.0
  0
LINE
  8
0
 62
     0
 10
-63.879142
 20
79.309981
 30
0.0
 11
-61.279142
 21
81.909981
 31
0.0
  0
LINE
  8
0
 62
     0
 10
-63.879142
 20
78.426097
 30
0.0
 11
-61.279142
 21
81.026097
 31
0.0
  0
LINE
  8
0
 62
     0
 10
-63.096449
 20
78.324907
 30
0.0
 11
-61.279142
 21
80.142214
 31
0.0
  0
LINE
  8
0
 62
     0
 10
-62.212565
 20
78.324907
 30
0.0
 11
-61.279142
 21
79.25833
 31
0.0
  0
LINE
  8
0
 62
     0
 10
-61.279142
 20
78.956812
 30
0.0
 11
-63.879142
 21
81.556812
 31
0.0
  0
LINE
  8
0
 62
     0
 10
-64.247238
 20
81.924907
 30
0.0
 11
-66.479142
 21
84.156812
 31
0.0
  0
LINE
  8
0
 62
     0
 10
-61.605132
 20
78.398918
 30
0.0
 11
-63.879142
 21
80.672928
 31
0.0
  0
LINE
  8
0
 62
     0
 10
-65.131121
 20
81.924907
 30
0.0
 11
-66.479142
 21
83.272928
 31
0.0
  0
LINE
  8
0
 62
     0
 10
-62.415005
 20
78.324907
 30
0.0
 11
-63.879142
 21
79.789045
 31
0.0
  0
LINE
  8
0
 62
     0
 10
-66.015005
 20
81.924907
 30
0.0
 11
-66.479142
 21
82.389045
 31
0.0
  0
LINE
  8
0
 62
     0
 10
-63.298888
 20
78.324907
 30
0.0
 11
-63.879142
 21
78.905161
 31
0.0
  0
LINE
  8
0
 62
     0
 10
-61.279142
 20
79.840695
 30
0.0
 11
-66.479142
 21
85.040695
 31
0.0
  0
LINE
  8
0
 62
     0
 10
-61.279142
 20
80.724579
 30
0.0
 11
-66.479142
 21
85.924579
 31
0.0
  0
LINE
  8
0
 62
     0
 10
-61.279142
 20
81.608462
 30
0.0
 11
-65.995587
 21
86.324907
 31
0.0
  0
LINE
  8
0
 62
     0
 10
-61.279142
 20
82.492346
 30
0.0
 11
-65.111704
 21
86.324907
 31
0.0
  0
LINE
  8
0
 62
     0
 10
-61.279142
 20
83.376229
 30
0.0
 11
-64.227821
 21
86.324907
 31
0.0
  0
LINE
  8
0
 62
     0
 10
-61.279142
 20
84.260113
 30
0.0
 11
-62.243937
 21
85.224907
 31
0.0
  0
LINE
  8
0
 62
     0
 10
-62.779142
 20
85.760113
 30
0.0
 11
-63.343937
 21
86.324907
 31
0.0
  0
ENDBLK
  8
0
  0
BLOCK
  8
0
  2
*X7
 70
    65
 10
0.0
 20
0.0
 30
0.0
  3
*X
  0
LINE
  8
0
 62
     0
 10
-40.506389
 20
82.530191
 30
0.0
 11
-36.606389
 21
86.430191
 31
0.0
  0
LINE
  8
0
 62
     0
 10
-41.225886
 20
83.224907
 30
0.0
 11
-36.916138
 21
87.534656
 31
0.0
  0
LINE
  8
0
 62
     0
 10
-42.6401
 20
83.224907
 30
0.0
 11
-38.106389
 21
87.758618
 31
0.0
  0
LINE
  8
0
 62
     0
 10
-43.306389
 20
83.972831
 30
0.0
 11
-38.106389
 21
89.172831
 31
0.0
  0
LINE
  8
0
 62
     0
 10
-43.306389
 20
85.387045
 30
0.0
 11
-39.168527
 21
89.524907
 31
0.0
  0
LINE
  8
0
 62
     0
 10
-43.306389
 20
86.801259
 30
0.0
 11
-40.58274
 21
89.524907
 31
0.0
  0
LINE
  8
0
 62
     0
 10
-43.306389
 20
88.215472
 30
0.0
 11
-41.996954
 21
89.524907
 31
0.0
  0
LINE
  8
0
 62
     0
 10
-40.506389
 20
81.115977
 30
0.0
 11
-36.606389
 21
85.015977
 31
0.0
  0
LINE
  8
0
 62
     0
 10
-40.506389
 20
79.701764
 30
0.0
 11
-36.606389
 21
83.601764
 31
0.0
  0
LINE
  8
0
 62
     0
 10
-40.469032
 20
78.324907
 30
0.0
 11
-36.606389
 21
82.18755
 31
0.0
  0
LINE
  8
0
 62
     0
 10
-39.054818
 20
78.324907
 30
0.0
 11
-36.606389
 21
80.773336
 31
0.0
  0
LINE
  8
0
 62
     0
 10
-37.640605
 20
78.324907
 30
0.0
 11
-36.606389
 21
79.359123
 31
0.0
  0
LINE
  8
0
 62
     0
 10
-36.606389
 20
80.44701
 30
0.0
 11
-43.306389
 21
87.14701
 31
0.0
  0
LINE
  8
0
 62
     0
 10
-36.606389
 20
79.032796
 30
0.0
 11
-40.506389
 21
82.932796
 31
0.0
  0
LINE
  8
0
 62
     0
 10
-40.798501
 20
83.224907
 30
0.0
 11
-43.306389
 21
85.732796
 31
0.0
  0
LINE
  8
0
 62
     0
 10
-37.312714
 20
78.324907
 30
0.0
 11
-40.506389
 21
81.518582
 31
0.0
  0
LINE
  8
0
 62
     0
 10
-42.212714
 20
83.224907
 30
0.0
 11
-43.306389
 21
84.318582
 31
0.0
  0
LINE
  8
0
 62
     0
 10
-38.726928
 20
78.324907
 30
0.0
 11
-40.506389
 21
80.104369
 31
0.0
  0
LINE
  8
0
 62
     0
 10
-40.141141
 20
78.324907
 30
0.0
 11
-40.506389
 21
78.690155
 31
0.0
  0
LINE
  8
0
 62
     0
 10
-36.606389
 20
81.861223
 30
0.0
 11
-43.306389
 21
88.561223
 31
0.0
  0
LINE
  8
0
 62
     0
 10
-36.606389
 20
83.275437
 30
0.0
 11
-42.85586
 21
89.524907
 31
0.0
  0
LINE
  8
0
 62
     0
 10
-36.606389
 20
84.68965
 30
0.0
 11
-41.441646
 21
89.524907
 31
0.0
  0
LINE
  8
0
 62
     0
 10
-36.606389
 20
86.103864
 30
0.0
 11
-40.027433
 21
89.524907
 31
0.0
  0
LINE
  8
0
 62
     0
 10
-38.106389
 20
89.018077
 30
0.0
 11
-38.613219
 21
89.524907
 31
0.0
  0
ENDBLK
  8
0
  0
ENDSEC
  0
SECTION
  2
ENTITIES
  0
LINE
  8
0
  6
CENTER
 10
-79.110669
 20
86.525956
 30
0.0
 11
-79.110669
 21
77.475417
 31
0.0
  0
LINE
  8
0
 10
-85.110669
 20
84.924907
 30
0.0
 11
-85.110669
 21
81.924907
 31
0.0
  0
LINE
  8
0
 10
-73.110669
 20
84.924907
 30
0.0
 11
-73.110669
 21
81.924907
 31
0.0
  0
LINE
  8
0
 10
-84.610669
 20
85.424907
 30
0.0
 11
-73.610669
 21
85.424907
 31
0.0
  0
LINE
  8
0
 10
-82.610669
 20
78.324907
 30
0.0
 11
-75.610669
 21
78.324907
 31
0.0
  0
LINE
  8
0
 10
-85.110669
 20
81.924907
 30
0.0
 11
-82.610669
 21
81.924907
 31
0.0
  0
LINE
  8
0
 10
-82.610669
 20
81.924907
 30
0.0
 11
-82.610669
 21
78.324907
 31
0.0
  0
LINE
  8
0
 10
-75.610669
 20
81.924907
 30
0.0
 11
-75.610669
 21
78.324907
 31
0.0
  0
LINE
  8
0
 10
-79.110669
 20
81.924907
 30
0.0
 11
-73.110669
 21
81.924907
 31
0.0
  0
ARC
  8
0
 10
-84.610669
 20
84.924907
 30
0.0
 40
0.5
 50
90.0
 51
180.0
  0
ARC
  8
0
 10
-73.610669
 20
84.924907
 30
0.0
 40
0.5
 50
0.0
 51
90.0
  0
LINE
  8
0
 10
-79.110669
 20
76.026639
 30
0.0
 11
-78.69218
 21
75.61098
 31
0.0
  0
LINE
  8
0
 10
-78.69218
 20
75.61098
 30
0.0
 11
-78.216415
 21
75.959624
 31
0.0
  0
LINE
  8
0
 10
-79.529157
 20
75.61098
 30
0.0
 11
-79.110669
 21
76.026639
 31
0.0
  0
LINE
  8
0
 10
-80.004922
 20
75.959624
 30
0.0
 11
-79.529157
 21
75.61098
 31
0.0
  0
LINE
  8
0
 10
-80.356786
 20
75.486235
 30
0.0
 11
-80.004922
 21
75.959624
 31
0.0
  0
LINE
  8
0
 10
-80.8792
 20
75.760076
 30
0.0
 11
-80.356786
 21
75.486235
 31
0.0
  0
LINE
  8
0
 10
-81.156579
 20
75.239532
 30
0.0
 11
-80.8792
 21
75.760076
 31
0.0
  0
LINE
  8
0
 10
-81.713971
 20
75.432452
 30
0.0
 11
-81.156579
 21
75.239532
 31
0.0
  0
LINE
  8
0
 10
-81.910669
 20
74.876381
 30
0.0
 11
-81.713971
 21
75.432452
 31
0.0
  0
LINE
  8
0
 10
-82.490589
 20
74.984072
 30
0.0
 11
-81.910669
 21
74.876381
 31
0.0
  0
LINE
  8
0
 10
-82.602212
 20
74.404895
 30
0.0
 11
-82.490589
 21
74.984072
 31
0.0
  0
LINE
  8
0
 10
-83.191705
 20
74.42495
 30
0.0
 11
-82.602212
 21
74.404895
 31
0.0
  0
LINE
  8
0
 10
-83.215759
 20
73.835606
 30
0.0
 11
-83.191705
 21
74.42495
 31
0.0
  0
LINE
  8
0
 10
-83.801658
 20
73.767578
 30
0.0
 11
-83.215759
 21
73.835606
 31
0.0
  0
LINE
  8
0
 10
-83.737606
 20
73.181231
 30
0.0
 11
-83.801658
 21
73.767578
 31
0.0
  0
LINE
  8
0
 10
-84.306821
 20
73.026639
 30
0.0
 11
-83.737606
 21
73.181231
 31
0.0
  0
LINE
  8
0
 10
-84.156094
 20
72.456388
 30
0.0
 11
-84.306821
 21
73.026639
 31
0.0
  0
LINE
  8
0
 10
-84.695911
 20
72.218685
 30
0.0
 11
-84.156094
 21
72.456388
 31
0.0
  0
LINE
  8
0
 10
-84.461876
 20
71.677268
 30
0.0
 11
-84.695911
 21
72.218685
 31
0.0
  0
LINE
  8
0
 10
-84.960236
 20
71.361765
 30
0.0
 11
-84.461876
 21
71.677268
 31
0.0
  0
LINE
  8
0
 10
-84.648121
 20
70.861276
 30
0.0
 11
-84.960236
 21
71.361765
 31
0.0
  0
LINE
  8
0
 10
-85.093892
 20
70.47502
 30
0.0
 11
-84.648121
 21
70.861276
 31
0.0
  0
LINE
  8
0
 10
-84.710669
 20
70.026639
 30
0.0
 11
-85.093892
 21
70.47502
 31
0.0
  0
LINE
  8
0
 10
-85.093892
 20
69.578258
 30
0.0
 11
-84.710669
 21
70.026639
 31
0.0
  0
LINE
  8
0
 10
-84.648121
 20
69.192002
 30
0.0
 11
-85.093892
 21
69.578258
 31
0.0
  0
LINE
  8
0
 10
-84.960236
 20
68.691513
 30
0.0
 11
-84.648121
 21
69.192002
 31
0.0
  0
LINE
  8
0
 10
-84.461876
 20
68.37601
 30
0.0
 11
-84.960236
 21
68.691513
 31
0.0
  0
LINE
  8
0
 10
-84.695911
 20
67.834593
 30
0.0
 11
-84.461876
 21
68.37601
 31
0.0
  0
LINE
  8
0
 10
-84.156094
 20
67.59689
 30
0.0
 11
-84.695911
 21
67.834593
 31
0.0
  0
LINE
  8
0
 10
-84.306821
 20
67.026639
 30
0.0
 11
-84.156094
 21
67.59689
 31
0.0
  0
LINE
  8
0
 10
-83.737606
 20
66.872047
 30
0.0
 11
-84.306821
 21
67.026639
 31
0.0
  0
LINE
  8
0
 10
-83.801658
 20
66.2857
 30
0.0
 11
-83.737606
 21
66.872047
 31
0.0
  0
LINE
  8
0
 10
-83.215759
 20
66.217672
 30
0.0
 11
-83.801658
 21
66.2857
 31
0.0
  0
LINE
  8
0
 10
-83.191705
 20
65.628328
 30
0.0
 11
-83.215759
 21
66.217672
 31
0.0
  0
LINE
  8
0
 10
-82.602212
 20
65.648383
 30
0.0
 11
-83.191705
 21
65.628328
 31
0.0
  0
LINE
  8
0
 10
-82.490589
 20
65.069206
 30
0.0
 11
-82.602212
 21
65.648383
 31
0.0
  0
LINE
  8
0
 10
-81.910669
 20
65.176897
 30
0.0
 11
-82.490589
 21
65.069206
 31
0.0
  0
LINE
  8
0
 10
-81.713971
 20
64.620826
 30
0.0
 11
-81.910669
 21
65.176897
 31
0.0
  0
LINE
  8
0
 10
-81.156579
 20
64.813746
 30
0.0
 11
-81.713971
 21
64.620826
 31
0.0
  0
LINE
  8
0
 10
-80.8792
 20
64.293202
 30
0.0
 11
-81.156579
 21
64.813746
 31
0.0
  0
LINE
  8
0
 10
-80.356786
 20
64.567043
 30
0.0
 11
-80.8792
 21
64.293202
 31
0.0
  0
LINE
  8
0
 10
-80.004922
 20
64.093654
 30
0.0
 11
-80.356786
 21
64.567043
 31
0.0
  0
LINE
  8
0
 10
-79.529157
 20
64.442298
 30
0.0
 11
-80.004922
 21
64.093654
 31
0.0
  0
LINE
  8
0
 10
-79.110669
 20
64.026639
 30
0.0
 11
-79.529157
 21
64.442298
 31
0.0
  0
LINE
  8
0
 10
-78.69218
 20
64.442298
 30
0.0
 11
-79.110669
 21
64.026639
 31
0.0
  0
LINE
  8
0
 10
-78.216415
 20
64.093654
 30
0.0
 11
-78.69218
 21
64.442298
 31
0.0
  0
LINE
  8
0
 10
-77.864552
 20
64.567043
 30
0.0
 11
-78.216415
 21
64.093654
 31
0.0
  0
LINE
  8
0
 10
-77.342138
 20
64.293202
 30
0.0
 11
-77.864552
 21
64.567043
 31
0.0
  0
LINE
  8
0
 10
-77.064759
 20
64.813746
 30
0.0
 11
-77.342138
 21
64.293202
 31
0.0
  0
LINE
  8
0
 10
-76.507366
 20
64.620826
 30
0.0
 11
-77.064759
 21
64.813746
 31
0.0
  0
LINE
  8
0
 10
-76.310669
 20
65.176897
 30
0.0
 11
-76.507366
 21
64.620826
 31
0.0
  0
LINE
  8
0
 10
-75.730748
 20
65.069206
 30
0.0
 11
-76.310669
 21
65.176897
 31
0.0
  0
LINE
  8
0
 10
-75.619126
 20
65.648383
 30
0.0
 11
-75.730748
 21
65.069206
 31
0.0
  0
LINE
  8
0
 10
-75.029632
 20
65.628328
 30
0.0
 11
-75.619126
 21
65.648383
 31
0.0
  0
LINE
  8
0
 10
-75.005578
 20
66.217672
 30
0.0
 11
-75.029632
 21
65.628328
 31
0.0
  0
LINE
  8
0
 10
-74.41968
 20
66.2857
 30
0.0
 11
-75.005578
 21
66.217672
 31
0.0
  0
LINE
  8
0
 10
-74.483732
 20
66.872047
 30
0.0
 11
-74.41968
 21
66.2857
 31
0.0
  0
LINE
  8
0
 10
-73.914516
 20
67.026639
 30
0.0
 11
-74.483732
 21
66.872047
 31
0.0
  0
LINE
  8
0
 10
-74.065243
 20
67.59689
 30
0.0
 11
-73.914516
 21
67.026639
 31
0.0
  0
LINE
  8
0
 10
-73.525426
 20
67.834593
 30
0.0
 11
-74.065243
 21
67.59689
 31
0.0
  0
LINE
  8
0
 10
-73.759461
 20
68.37601
 30
0.0
 11
-73.525426
 21
67.834593
 31
0.0
  0
LINE
  8
0
 10
-73.261101
 20
68.691513
 30
0.0
 11
-73.759461
 21
68.37601
 31
0.0
  0
LINE
  8
0
 10
-73.573216
 20
69.192002
 30
0.0
 11
-73.261101
 21
68.691513
 31
0.0
  0
LINE
  8
0
 10
-73.127446
 20
69.578258
 30
0.0
 11
-73.573216
 21
69.192002
 31
0.0
  0
LINE
  8
0
 10
-73.510669
 20
70.026639
 30
0.0
 11
-73.127446
 21
69.578258
 31
0.0
  0
LINE
  8
0
 10
-73.127446
 20
70.47502
 30
0.0
 11
-73.510669
 21
70.026639
 31
0.0
  0
LINE
  8
0
 10
-73.573216
 20
70.861276
 30
0.0
 11
-73.127446
 21
70.47502
 31
0.0
  0
LINE
  8
0
 10
-73.261101
 20
71.361765
 30
0.0
 11
-73.573216
 21
70.861276
 31
0.0
  0
LINE
  8
0
 10
-73.759461
 20
71.677268
 30
0.0
 11
-73.261101
 21
71.361765
 31
0.0
  0
LINE
  8
0
 10
-73.525426
 20
72.218685
 30
0.0
 11
-73.759461
 21
71.677268
 31
0.0
  0
LINE
  8
0
 10
-74.065243
 20
72.456388
 30
0.0
 11
-73.525426
 21
72.218685
 31
0.0
  0
LINE
  8
0
 10
-73.914516
 20
73.026639
 30
0.0
 11
-74.065243
 21
72.456388
 31
0.0
  0
LINE
  8
0
 10
-74.483732
 20
73.181231
 30
0.0
 11
-73.914516
 21
73.026639
 31
0.0
  0
LINE
  8
0
 10
-74.41968
 20
73.767578
 30
0.0
 11
-74.483732
 21
73.181231
 31
0.0
  0
LINE
  8
0
 10
-75.005578
 20
73.835606
 30
0.0
 11
-74.41968
 21
73.767578
 31
0.0
  0
LINE
  8
0
 10
-75.029632
 20
74.42495
 30
0.0
 11
-75.005578
 21
73.835606
 31
0.0
  0
LINE
  8
0
 10
-75.619126
 20
74.404895
 30
0.0
 11
-75.029632
 21
74.42495
 31
0.0
  0
LINE
  8
0
 10
-75.730748
 20
74.984072
 30
0.0
 11
-75.619126
 21
74.404895
 31
0.0
  0
LINE
  8
0
 10
-76.310669
 20
74.876381
 30
0.0
 11
-75.730748
 21
74.984072
 31
0.0
  0
LINE
  8
0
 10
-76.507366
 20
75.432452
 30
0.0
 11
-76.310669
 21
74.876381
 31
0.0
  0
LINE
  8
0
 10
-77.064759
 20
75.239532
 30
0.0
 11
-76.507366
 21
75.432452
 31
0.0
  0
LINE
  8
0
 10
-77.342138
 20
75.760076
 30
0.0
 11
-77.064759
 21
75.239532
 31
0.0
  0
LINE
  8
0
 10
-77.864552
 20
75.486235
 30
0.0
 11
-77.342138
 21
75.760076
 31
0.0
  0
LINE
  8
0
 10
-78.216415
 20
75.959624
 30
0.0
 11
-77.864552
 21
75.486235
 31
0.0
  0
CIRCLE
  8
0
 10
-79.110669
 20
70.026639
 30
0.0
 40
5.5
  0
LINE
  8
0
 10
-84.710669
 20
81.924907
 30
0.0
 11
-84.710669
 21
85.414805
 31
0.0
  0
LINE
  8
0
 10
-78.216415
 20
81.924907
 30
0.0
 11
-78.216415
 21
85.424907
 31
0.0
  0
LINE
  8
0
 10
-77.342138
 20
81.924907
 30
0.0
 11
-77.342138
 21
85.424907
 31
0.0
  0
LINE
  8
0
 10
-76.507366
 20
81.924907
 30
0.0
 11
-76.507366
 21
85.424907
 31
0.0
  0
LINE
  8
0
 10
-75.730748
 20
81.924907
 30
0.0
 11
-75.730748
 21
85.424907
 31
0.0
  0
LINE
  8
0
 10
-75.029632
 20
81.924907
 30
0.0
 11
-75.029632
 21
85.424907
 31
0.0
  0
LINE
  8
0
 10
-74.41968
 20
81.924907
 30
0.0
 11
-74.41968
 21
85.424907
 31
0.0
  0
LINE
  8
0
 10
-73.914516
 20
81.924907
 30
0.0
 11
-73.914516
 21
85.424907
 31
0.0
  0
LINE
  8
0
 10
-73.525426
 20
81.924907
 30
0.0
 11
-73.525426
 21
85.417588
 31
0.0
  0
LINE
  8
0
 10
-73.261101
 20
81.924907
 30
0.0
 11
-73.261101
 21
85.282402
 31
0.0
  0
LINE
  8
0
 10
-73.127446
 20
81.924907
 30
0.0
 11
-73.127446
 21
85.053343
 31
0.0
  0
LINE
  8
0
 10
-81.610669
 20
83.424907
 30
0.0
 11
-79.110669
 21
83.424907
 31
0.0
  0
LINE
  8
0
 10
-81.610669
 20
85.424907
 30
0.0
 11
-81.610669
 21
83.424907
 31
0.0
  0
LINE
  8
0
 10
-81.110669
 20
83.424907
 30
0.0
 11
-81.110669
 21
78.324907
 31
0.0
  0
LINE
  8
0
 10
-80.760669
 20
83.074907
 30
0.0
 11
-80.760669
 21
78.674907
 31
0.0
  0
LINE
  8
0
 10
-81.110669
 20
83.424907
 30
0.0
 11
-80.760669
 21
83.074907
 31
0.0
  0
LINE
  8
0
 10
-81.110669
 20
78.324907
 30
0.0
 11
-80.760669
 21
78.674907
 31
0.0
  0
LINE
  8
0
 10
-80.760669
 20
83.074907
 30
0.0
 11
-79.110669
 21
83.074907
 31
0.0
  0
LINE
  8
0
 10
-80.760669
 20
78.674907
 30
0.0
 11
-79.110669
 21
78.674907
 31
0.0
  0
CIRCLE
  8
0
 10
-79.110669
 20
70.026639
 30
0.0
 40
1.65
  0
CIRCLE
  8
0
 10
-79.110669
 20
70.026639
 30
0.0
 40
2.0
  0
CIRCLE
  8
0
 10
-79.110669
 20
70.026639
 30
0.0
 40
2.5
  0
LINE
  8
0
 10
-66.879142
 20
85.824907
 30
0.0
 11
-66.879142
 21
81.924907
 31
0.0
  0
LINE
  8
0
 10
-51.479142
 20
85.824907
 30
0.0
 11
-51.479142
 21
81.924907
 31
0.0
  0
LINE
  8
0
 10
-66.379142
 20
86.324907
 30
0.0
 11
-51.979142
 21
86.324907
 31
0.0
  0
ARC
  8
0
 10
-66.379142
 20
85.824907
 30
0.0
 40
0.5
 50
90.0
 51
180.0
  0
ARC
  8
0
 10
-51.979142
 20
85.824907
 30
0.0
 40
0.5
 50
0.0
 51
90.0
  0
LINE
  8
0
 10
-63.879142
 20
78.324907
 30
0.0
 11
-54.479142
 21
78.324907
 31
0.0
  0
LINE
  8
0
 10
-66.879142
 20
81.924907
 30
0.0
 11
-63.879142
 21
81.924907
 31
0.0
  0
LINE
  8
0
 10
-63.879142
 20
81.924907
 30
0.0
 11
-63.879142
 21
78.324907
 31
0.0
  0
LINE
  8
0
 10
-54.479142
 20
81.924907
 30
0.0
 11
-54.479142
 21
78.324907
 31
0.0
  0
LINE
  8
0
 10
-59.179142
 20
81.924907
 30
0.0
 11
-51.479142
 21
81.924907
 31
0.0
  0
LINE
  8
0
 10
-59.179142
 20
74.643312
 30
0.0
 11
-58.783928
 21
74.232606
 31
0.0
  0
LINE
  8
0
 10
-58.783928
 20
74.232606
 30
0.0
 11
-58.346626
 21
74.598174
 31
0.0
  0
CIRCLE
  8
0
 10
-59.179142
 20
66.943312
 30
0.0
 40
7.2
  0
LINE
  8
0
 10
-59.574356
 20
74.232606
 30
0.0
 11
-59.179142
 21
74.643312
 31
0.0
  0
LINE
  8
0
 10
-60.011659
 20
74.598174
 30
0.0
 11
-59.574356
 21
74.232606
 31
0.0
  0
LINE
  8
0
 10
-60.360151
 20
74.147145
 30
0.0
 11
-60.011659
 21
74.598174
 31
0.0
  0
LINE
  8
0
 10
-60.834415
 20
74.46329
 30
0.0
 11
-60.360151
 21
74.147145
 31
0.0
  0
LINE
  8
0
 10
-61.132099
 20
73.977227
 30
0.0
 11
-60.834415
 21
74.46329
 31
0.0
  0
LINE
  8
0
 10
-61.637764
 20
74.240241
 30
0.0
 11
-61.132099
 21
73.977227
 31
0.0
  0
LINE
  8
0
 10
-61.881151
 20
73.724842
 30
0.0
 11
-61.637764
 21
74.240241
 31
0.0
  0
LINE
  8
0
 10
-62.412288
 20
73.931643
 30
0.0
 11
-61.881151
 21
73.724842
 31
0.0
  0
LINE
  8
0
 10
-62.598524
 20
73.39295
 30
0.0
 11
-62.412288
 21
73.931643
 31
0.0
  0
LINE
  8
0
 10
-63.148907
 20
73.541112
 30
0.0
 11
-62.598524
 21
73.39295
 31
0.0
  0
LINE
  8
0
 10
-63.275808
 20
72.985442
 30
0.0
 11
-63.148907
 21
73.541112
 31
0.0
  0
LINE
  8
0
 10
-63.838984
 20
73.073228
 30
0.0
 11
-63.275808
 21
72.985442
 31
0.0
  0
LINE
  8
0
 10
-63.905062
 20
72.507095
 30
0.0
 11
-63.838984
 21
73.073228
 31
0.0
  0
LINE
  8
0
 10
-64.474428
 20
72.533477
 30
0.0
 11
-63.905062
 21
72.507095
 31
0.0
  0
LINE
  8
0
 10
-64.478909
 20
71.963518
 30
0.0
 11
-64.474428
 21
72.533477
 31
0.0
  0
LINE
  8
0
 10
-65.04779
 20
71.928186
 30
0.0
 11
-64.478909
 21
71.963518
 31
0.0
  0
LINE
  8
0
 10
-64.990622
 20
71.361084
 30
0.0
 11
-65.04779
 21
71.928186
 31
0.0
  0
LINE
  8
0
 10
-65.552348
 20
71.264452
 30
0.0
 11
-64.990622
 21
71.361084
 31
0.0
  0
LINE
  8
0
 10
-65.4342
 20
70.706855
 30
0.0
 11
-65.552348
 21
71.264452
 31
0.0
  0
LINE
  8
0
 10
-65.982185
 20
70.550057
 30
0.0
 11
-65.4342
 21
70.706855
 31
0.0
  0
LINE
  8
0
 10
-65.804443
 20
70.008502
 30
0.0
 11
-65.982185
 21
70.550057
 31
0.0
  0
LINE
  8
0
 10
-66.332263
 20
69.793376
 30
0.0
 11
-65.804443
 21
70.008502
 31
0.0
  0
LINE
  8
0
 10
-66.097011
 20
69.274213
 30
0.0
 11
-66.332263
 21
69.793376
 31
0.0
  0
LINE
  8
0
 10
-66.598477
 20
69.00328
 30
0.0
 11
-66.097011
 21
69.274213
 31
0.0
  0
LINE
  8
0
 10
-66.308472
 20
68.512596
 30
0.0
 11
-66.598477
 21
69.00328
 31
0.0
  0
LINE
  8
0
 10
-66.777707
 20
68.189033
 30
0.0
 11
-66.308472
 21
68.512596
 31
0.0
  0
LINE
  8
0
 10
-66.436349
 20
67.732581
 30
0.0
 11
-66.777707
 21
68.189033
 31
0.0
  0
LINE
  8
0
 10
-66.86785
 20
67.360181
 30
0.0
 11
-66.436349
 21
67.732581
 31
0.0
  0
LINE
  8
0
 10
-66.479142
 20
66.943312
 30
0.0
 11
-66.86785
 21
67.360181
 31
0.0
  0
LINE
  8
0
 10
-66.86785
 20
66.526442
 30
0.0
 11
-66.479142
 21
66.943312
 31
0.0
  0
LINE
  8
0
 10
-66.436349
 20
66.154043
 30
0.0
 11
-66.86785
 21
66.526442
 31
0.0
  0
LINE
  8
0
 10
-66.777707
 20
65.69759
 30
0.0
 11
-66.436349
 21
66.154043
 31
0.0
  0
LINE
  8
0
 10
-66.308472
 20
65.374028
 30
0.0
 11
-66.777707
 21
65.69759
 31
0.0
  0
LINE
  8
0
 10
-66.598477
 20
64.883344
 30
0.0
 11
-66.308472
 21
65.374028
 31
0.0
  0
LINE
  8
0
 10
-66.097011
 20
64.612411
 30
0.0
 11
-66.598477
 21
64.883344
 31
0.0
  0
LINE
  8
0
 10
-66.332263
 20
64.093248
 30
0.0
 11
-66.097011
 21
64.612411
 31
0.0
  0
LINE
  8
0
 10
-65.804443
 20
63.878121
 30
0.0
 11
-66.332263
 21
64.093248
 31
0.0
  0
LINE
  8
0
 10
-65.982185
 20
63.336567
 30
0.0
 11
-65.804443
 21
63.878121
 31
0.0
  0
LINE
  8
0
 10
-65.4342
 20
63.179769
 30
0.0
 11
-65.982185
 21
63.336567
 31
0.0
  0
LINE
  8
0
 10
-65.552348
 20
62.622171
 30
0.0
 11
-65.4342
 21
63.179769
 31
0.0
  0
LINE
  8
0
 10
-64.990622
 20
62.52554
 30
0.0
 11
-65.552348
 21
62.622171
 31
0.0
  0
LINE
  8
0
 10
-65.04779
 20
61.958437
 30
0.0
 11
-64.990622
 21
62.52554
 31
0.0
  0
LINE
  8
0
 10
-64.478909
 20
61.923106
 30
0.0
 11
-65.04779
 21
61.958437
 31
0.0
  0
LINE
  8
0
 10
-64.474428
 20
61.353147
 30
0.0
 11
-64.478909
 21
61.923106
 31
0.0
  0
LINE
  8
0
 10
-63.905062
 20
61.379529
 30
0.0
 11
-64.474428
 21
61.353147
 31
0.0
  0
LINE
  8
0
 10
-63.838984
 20
60.813395
 30
0.0
 11
-63.905062
 21
61.379529
 31
0.0
  0
LINE
  8
0
 10
-63.275808
 20
60.901182
 30
0.0
 11
-63.838984
 21
60.813395
 31
0.0
  0
LINE
  8
0
 10
-63.148907
 20
60.345512
 30
0.0
 11
-63.275808
 21
60.901182
 31
0.0
  0
LINE
  8
0
 10
-62.598524
 20
60.493674
 30
0.0
 11
-63.148907
 21
60.345512
 31
0.0
  0
LINE
  8
0
 10
-62.412288
 20
59.954981
 30
0.0
 11
-62.598524
 21
60.493674
 31
0.0
  0
LINE
  8
0
 10
-61.881151
 20
60.161782
 30
0.0
 11
-62.412288
 21
59.954981
 31
0.0
  0
LINE
  8
0
 10
-61.637764
 20
59.646382
 30
0.0
 11
-61.881151
 21
60.161782
 31
0.0
  0
LINE
  8
0
 10
-61.132099
 20
59.909397
 30
0.0
 11
-61.637764
 21
59.646382
 31
0.0
  0
LINE
  8
0
 10
-60.834415
 20
59.423334
 30
0.0
 11
-61.132099
 21
59.909397
 31
0.0
  0
LINE
  8
0
 10
-60.360151
 20
59.739478
 30
0.0
 11
-60.834415
 21
59.423334
 31
0.0
  0
LINE
  8
0
 10
-60.011659
 20
59.28845
 30
0.0
 11
-60.360151
 21
59.739478
 31
0.0
  0
LINE
  8
0
 10
-59.574356
 20
59.654018
 30
0.0
 11
-60.011659
 21
59.28845
 31
0.0
  0
LINE
  8
0
 10
-59.179142
 20
59.243312
 30
0.0
 11
-59.574356
 21
59.654018
 31
0.0
  0
LINE
  8
0
 10
-58.783928
 20
59.654018
 30
0.0
 11
-59.179142
 21
59.243312
 31
0.0
  0
LINE
  8
0
 10
-58.346626
 20
59.28845
 30
0.0
 11
-58.783928
 21
59.654018
 31
0.0
  0
LINE
  8
0
 10
-57.998134
 20
59.739478
 30
0.0
 11
-58.346626
 21
59.28845
 31
0.0
  0
LINE
  8
0
 10
-57.52387
 20
59.423334
 30
0.0
 11
-57.998134
 21
59.739478
 31
0.0
  0
LINE
  8
0
 10
-57.226186
 20
59.909397
 30
0.0
 11
-57.52387
 21
59.423334
 31
0.0
  0
LINE
  8
0
 10
-56.720521
 20
59.646382
 30
0.0
 11
-57.226186
 21
59.909397
 31
0.0
  0
LINE
  8
0
 10
-56.477134
 20
60.161782
 30
0.0
 11
-56.720521
 21
59.646382
 31
0.0
  0
LINE
  8
0
 10
-55.945996
 20
59.954981
 30
0.0
 11
-56.477134
 21
60.161782
 31
0.0
  0
LINE
  8
0
 10
-55.759761
 20
60.493674
 30
0.0
 11
-55.945996
 21
59.954981
 31
0.0
  0
LINE
  8
0
 10
-55.209378
 20
60.345512
 30
0.0
 11
-55.759761
 21
60.493674
 31
0.0
  0
LINE
  8
0
 10
-55.082477
 20
60.901182
 30
0.0
 11
-55.209378
 21
60.345512
 31
0.0
  0
LINE
  8
0
 10
-54.519301
 20
60.813395
 30
0.0
 11
-55.082477
 21
60.901182
 31
0.0
  0
LINE
  8
0
 10
-54.453223
 20
61.379529
 30
0.0
 11
-54.519301
 21
60.813395
 31
0.0
  0
LINE
  8
0
 10
-53.883857
 20
61.353147
 30
0.0
 11
-54.453223
 21
61.379529
 31
0.0
  0
LINE
  8
0
 10
-53.879375
 20
61.923106
 30
0.0
 11
-53.883857
 21
61.353147
 31
0.0
  0
LINE
  8
0
 10
-53.310495
 20
61.958437
 30
0.0
 11
-53.879375
 21
61.923106
 31
0.0
  0
LINE
  8
0
 10
-53.367663
 20
62.52554
 30
0.0
 11
-53.310495
 21
61.958437
 31
0.0
  0
LINE
  8
0
 10
-52.805937
 20
62.622171
 30
0.0
 11
-53.367663
 21
62.52554
 31
0.0
  0
LINE
  8
0
 10
-52.924085
 20
63.179769
 30
0.0
 11
-52.805937
 21
62.622171
 31
0.0
  0
LINE
  8
0
 10
-52.3761
 20
63.336567
 30
0.0
 11
-52.924085
 21
63.179769
 31
0.0
  0
LINE
  8
0
 10
-52.553842
 20
63.878121
 30
0.0
 11
-52.3761
 21
63.336567
 31
0.0
  0
LINE
  8
0
 10
-52.026022
 20
64.093248
 30
0.0
 11
-52.553842
 21
63.878121
 31
0.0
  0
LINE
  8
0
 10
-52.261274
 20
64.612411
 30
0.0
 11
-52.026022
 21
64.093248
 31
0.0
  0
LINE
  8
0
 10
-51.759807
 20
64.883344
 30
0.0
 11
-52.261274
 21
64.612411
 31
0.0
  0
LINE
  8
0
 10
-52.049812
 20
65.374028
 30
0.0
 11
-51.759807
 21
64.883344
 31
0.0
  0
LINE
  8
0
 10
-51.580578
 20
65.69759
 30
0.0
 11
-52.049812
 21
65.374028
 31
0.0
  0
LINE
  8
0
 10
-51.921935
 20
66.154043
 30
0.0
 11
-51.580578
 21
65.69759
 31
0.0
  0
LINE
  8
0
 10
-51.490435
 20
66.526442
 30
0.0
 11
-51.921935
 21
66.154043
 31
0.0
  0
LINE
  8
0
 10
-51.879142
 20
66.943312
 30
0.0
 11
-51.490435
 21
66.526442
 31
0.0
  0
LINE
  8
0
 10
-51.490435
 20
67.360181
 30
0.0
 11
-51.879142
 21
66.943312
 31
0.0
  0
LINE
  8
0
 10
-51.921935
 20
67.732581
 30
0.0
 11
-51.490435
 21
67.360181
 31
0.0
  0
LINE
  8
0
 10
-51.580578
 20
68.189033
 30
0.0
 11
-51.921935
 21
67.732581
 31
0.0
  0
LINE
  8
0
 10
-52.049812
 20
68.512596
 30
0.0
 11
-51.580578
 21
68.189033
 31
0.0
  0
LINE
  8
0
 10
-51.759807
 20
69.00328
 30
0.0
 11
-52.049812
 21
68.512596
 31
0.0
  0
LINE
  8
0
 10
-52.261274
 20
69.274213
 30
0.0
 11
-51.759807
 21
69.00328
 31
0.0
  0
LINE
  8
0
 10
-52.026022
 20
69.793376
 30
0.0
 11
-52.261274
 21
69.274213
 31
0.0
  0
LINE
  8
0
 10
-52.553842
 20
70.008502
 30
0.0
 11
-52.026022
 21
69.793376
 31
0.0
  0
LINE
  8
0
 10
-52.3761
 20
70.550057
 30
0.0
 11
-52.553842
 21
70.008502
 31
0.0
  0
LINE
  8
0
 10
-52.924085
 20
70.706855
 30
0.0
 11
-52.3761
 21
70.550057
 31
0.0
  0
LINE
  8
0
 10
-52.805937
 20
71.264452
 30
0.0
 11
-52.924085
 21
70.706855
 31
0.0
  0
LINE
  8
0
 10
-53.367663
 20
71.361084
 30
0.0
 11
-52.805937
 21
71.264452
 31
0.0
  0
LINE
  8
0
 10
-53.310495
 20
71.928186
 30
0.0
 11
-53.367663
 21
71.361084
 31
0.0
  0
LINE
  8
0
 10
-53.879375
 20
71.963518
 30
0.0
 11
-53.310495
 21
71.928186
 31
0.0
  0
LINE
  8
0
 10
-53.883857
 20
72.533477
 30
0.0
 11
-53.879375
 21
71.963518
 31
0.0
  0
LINE
  8
0
 10
-54.453223
 20
72.507095
 30
0.0
 11
-53.883857
 21
72.533477
 31
0.0
  0
LINE
  8
0
 10
-54.519301
 20
73.073228
 30
0.0
 11
-54.453223
 21
72.507095
 31
0.0
  0
LINE
  8
0
 10
-55.082477
 20
72.985442
 30
0.0
 11
-54.519301
 21
73.073228
 31
0.0
  0
LINE
  8
0
 10
-55.209378
 20
73.541112
 30
0.0
 11
-55.082477
 21
72.985442
 31
0.0
  0
LINE
  8
0
 10
-55.759761
 20
73.39295
 30
0.0
 11
-55.209378
 21
73.541112
 31
0.0
  0
LINE
  8
0
 10
-55.945996
 20
73.931643
 30
0.0
 11
-55.759761
 21
73.39295
 31
0.0
  0
LINE
  8
0
 10
-56.477134
 20
73.724842
 30
0.0
 11
-55.945996
 21
73.931643
 31
0.0
  0
LINE
  8
0
 10
-56.720521
 20
74.240241
 30
0.0
 11
-56.477134
 21
73.724842
 31
0.0
  0
LINE
  8
0
 10
-57.226186
 20
73.977227
 30
0.0
 11
-56.720521
 21
74.240241
 31
0.0
  0
LINE
  8
0
 10
-57.52387
 20
74.46329
 30
0.0
 11
-57.226186
 21
73.977227
 31
0.0
  0
LINE
  8
0
 10
-57.998134
 20
74.147145
 30
0.0
 11
-57.52387
 21
74.46329
 31
0.0
  0
LINE
  8
0
 10
-58.346626
 20
74.598174
 30
0.0
 11
-57.998134
 21
74.147145
 31
0.0
  0
LINE
  8
0
 10
-66.479142
 20
81.924907
 30
0.0
 11
-66.479142
 21
86.314805
 31
0.0
  0
LINE
  8
0
 10
-58.346626
 20
81.924907
 30
0.0
 11
-58.346626
 21
86.324907
 31
0.0
  0
LINE
  8
0
 10
-57.52387
 20
81.924907
 30
0.0
 11
-57.52387
 21
86.324907
 31
0.0
  0
LINE
  8
0
 10
-56.720521
 20
81.924907
 30
0.0
 11
-56.720521
 21
86.324907
 31
0.0
  0
LINE
  8
0
 10
-55.945996
 20
81.924907
 30
0.0
 11
-55.945996
 21
86.324907
 31
0.0
  0
LINE
  8
0
 10
-55.209378
 20
81.924907
 30
0.0
 11
-55.209378
 21
86.324907
 31
0.0
  0
LINE
  8
0
 10
-54.519301
 20
81.924907
 30
0.0
 11
-54.519301
 21
86.324907
 31
0.0
  0
LINE
  8
0
 10
-53.883857
 20
81.924907
 30
0.0
 11
-53.883857
 21
86.324907
 31
0.0
  0
LINE
  8
0
 10
-53.310495
 20
81.924907
 30
0.0
 11
-53.310495
 21
86.324907
 31
0.0
  0
LINE
  8
0
 10
-52.805937
 20
81.924907
 30
0.0
 11
-52.805937
 21
86.324907
 31
0.0
  0
LINE
  8
0
 10
-52.3761
 20
81.924907
 30
0.0
 11
-52.3761
 21
86.324907
 31
0.0
  0
LINE
  8
0
 10
-52.026022
 20
81.924907
 30
0.0
 11
-52.026022
 21
86.324907
 31
0.0
  0
LINE
  8
0
 10
-51.759807
 20
81.924907
 30
0.0
 11
-51.759807
 21
86.274232
 31
0.0
  0
LINE
  8
0
 10
-51.580578
 20
81.924907
 30
0.0
 11
-51.580578
 21
86.126812
 31
0.0
  0
LINE
  8
0
 10
-51.490435
 20
81.924907
 30
0.0
 11
-51.490435
 21
85.930573
 31
0.0
  0
LINE
  8
0
 10
-62.779142
 20
86.324907
 30
0.0
 11
-62.779142
 21
85.224907
 31
0.0
  0
LINE
  8
0
 10
-62.779142
 20
85.224907
 30
0.0
 11
-59.179142
 21
85.224907
 31
0.0
  0
LINE
  8
0
 10
-61.679142
 20
85.224907
 30
0.0
 11
-61.679142
 21
78.324907
 31
0.0
  0
LINE
  8
0
 10
-61.279142
 20
84.824907
 30
0.0
 11
-61.279142
 21
78.724907
 31
0.0
  0
LINE
  8
0
 10
-61.679142
 20
78.324907
 30
0.0
 11
-61.279142
 21
78.724907
 31
0.0
  0
LINE
  8
0
 10
-61.679142
 20
85.224907
 30
0.0
 11
-61.279142
 21
84.824907
 31
0.0
  0
LINE
  8
0
 10
-61.279142
 20
78.724907
 30
0.0
 11
-59.179142
 21
78.724907
 31
0.0
  0
LINE
  8
0
 10
-61.279142
 20
84.824907
 30
0.0
 11
-59.179142
 21
84.824907
 31
0.0
  0
CIRCLE
  8
0
 10
-59.179142
 20
66.943312
 30
0.0
 40
3.6
  0
CIRCLE
  8
0
 10
-59.179142
 20
66.943312
 30
0.0
 40
2.5
  0
CIRCLE
  8
0
 10
-59.179142
 20
66.943312
 30
0.0
 40
2.1
  0
LINE
  8
0
  6
CENTER
 10
-59.179142
 20
87.342596
 30
0.0
 11
-59.179142
 21
76.734893
 31
0.0
  0
LINE
  8
0
 10
-43.906389
 20
88.724907
 30
0.0
 11
-43.906389
 21
83.224907
 31
0.0
  0
LINE
  8
0
 10
-24.306389
 20
88.724907
 30
0.0
 11
-24.306389
 21
83.224907
 31
0.0
  0
LINE
  8
0
 10
-43.106389
 20
89.524907
 30
0.0
 11
-25.106389
 21
89.524907
 31
0.0
  0
LINE
  8
0
 10
-40.506389
 20
78.324907
 30
0.0
 11
-27.706389
 21
78.324907
 31
0.0
  0
LINE
  8
0
 10
-43.906389
 20
83.224907
 30
0.0
 11
-40.506389
 21
83.224907
 31
0.0
  0
LINE
  8
0
 10
-40.506389
 20
83.224907
 30
0.0
 11
-40.506389
 21
78.324907
 31
0.0
  0
LINE
  8
0
 10
-27.706389
 20
83.224907
 30
0.0
 11
-27.706389
 21
78.324907
 31
0.0
  0
LINE
  8
0
 10
-34.106389
 20
83.224907
 30
0.0
 11
-24.306389
 21
83.224907
 31
0.0
  0
LINE
  8
0
 10
-34.106389
 20
72.864658
 30
0.0
 11
-33.571457
 21
72.249093
 31
0.0
  0
LINE
  8
0
 10
-33.571457
 20
72.249093
 30
0.0
 11
-32.968679
 21
72.798393
 31
0.0
  0
ARC
  8
0
 10
-43.106389
 20
88.724907
 30
0.0
 40
0.8
 50
90.0
 51
180.0
  0
ARC
  8
0
 10
-25.106389
 20
88.724907
 30
0.0
 40
0.8
 50
0.0
 51
90.0
  0
CIRCLE
  8
0
 10
-34.106389
 20
63.064658
 30
0.0
 40
9.0
  0
LINE
  8
0
 10
-34.641322
 20
72.249093
 30
0.0
 11
-34.106389
 21
72.864658
 31
0.0
  0
LINE
  8
0
 10
-35.2441
 20
72.798393
 30
0.0
 11
-34.641322
 21
72.249093
 31
0.0
  0
LINE
  8
0
 10
-35.703952
 20
72.124889
 30
0.0
 11
-35.2441
 21
72.798393
 31
0.0
  0
LINE
  8
0
 10
-36.366425
 20
72.600497
 30
0.0
 11
-35.703952
 21
72.124889
 31
0.0
  0
LINE
  8
0
 10
-36.744979
 20
71.878161
 30
0.0
 11
-36.366425
 21
72.600497
 31
0.0
  0
LINE
  8
0
 10
-37.458187
 20
72.273645
 30
0.0
 11
-36.744979
 21
71.878161
 31
0.0
  0
LINE
  8
0
 10
-37.750323
 20
71.512246
 30
0.0
 11
-37.458187
 21
72.273645
 31
0.0
  0
LINE
  8
0
 10
-38.504621
 20
71.822257
 30
0.0
 11
-37.750323
 21
71.512246
 31
0.0
  0
LINE
  8
0
 10
-38.706389
 20
71.032091
 30
0.0
 11
-38.504621
 21
71.822257
 31
0.0
  0
LINE
  8
0
 10
-39.491577
 20
71.252438
 30
0.0
 11
-38.706389
 21
71.032091
 31
0.0
  0
LINE
  8
0
 10
-39.600248
 20
70.444191
 30
0.0
 11
-39.491577
 21
71.252438
 31
0.0
  0
LINE
  8
0
 10
-40.405708
 20
70.571893
 30
0.0
 11
-39.600248
 21
70.444191
 31
0.0
  0
LINE
  8
0
 10
-40.419812
 20
69.756495
 30
0.0
 11
-40.405708
 21
70.571893
 31
0.0
  0
LINE
  8
0
 10
-41.234651
 20
69.789826
 30
0.0
 11
-40.419812
 21
69.756495
 31
0.0
  0
LINE
  8
0
 10
-41.153998
 20
68.978304
 30
0.0
 11
-41.234651
 21
69.789826
 31
0.0
  0
LINE
  8
0
 10
-41.967196
 20
68.916812
 30
0.0
 11
-41.153998
 21
68.978304
 31
0.0
  0
LINE
  8
0
 10
-41.792877
 20
68.12014
 30
0.0
 11
-41.967196
 21
68.916812
 31
0.0
  0
LINE
  8
0
 10
-42.593438
 20
67.964658
 30
0.0
 11
-41.792877
 21
68.12014
 31
0.0
  0
LINE
  8
0
 10
-42.327809
 20
67.19361
 30
0.0
 11
-42.593438
 21
67.964658
 31
0.0
  0
LINE
  8
0
 10
-43.104907
 20
66.946239
 30
0.0
 11
-42.327809
 21
67.19361
 31
0.0
  0
LINE
  8
0
 10
-42.751561
 20
66.211243
 30
0.0
 11
-43.104907
 21
66.946239
 31
0.0
  0
LINE
  8
0
 10
-43.494686
 20
65.875329
 30
0.0
 11
-42.751561
 21
66.211243
 31
0.0
  0
LINE
  8
0
 10
-43.058402
 20
65.186324
 30
0.0
 11
-43.494686
 21
65.875329
 31
0.0
  0
LINE
  8
0
 10
-43.757505
 20
64.76641
 30
0.0
 11
-43.058402
 21
65.186324
 31
0.0
  0
LINE
  8
0
 10
-43.244182
 20
64.132712
 30
0.0
 11
-43.757505
 21
64.76641
 31
0.0
  0
LINE
  8
0
 10
-43.889809
 20
63.634477
 30
0.0
 11
-43.244182
 21
64.132712
 31
0.0
  0
LINE
  8
0
 10
-43.306389
 20
63.064658
 30
0.0
 11
-43.889809
 21
63.634477
 31
0.0
  0
LINE
  8
0
 10
-43.889809
 20
62.494838
 30
0.0
 11
-43.306389
 21
63.064658
 31
0.0
  0
LINE
  8
0
 10
-43.244182
 20
61.996603
 30
0.0
 11
-43.889809
 21
62.494838
 31
0.0
  0
LINE
  8
0
 10
-43.757505
 20
61.362905
 30
0.0
 11
-43.244182
 21
61.996603
 31
0.0
  0
LINE
  8
0
 10
-43.058402
 20
60.942992
 30
0.0
 11
-43.757505
 21
61.362905
 31
0.0
  0
LINE
  8
0
 10
-43.494686
 20
60.253986
 30
0.0
 11
-43.058402
 21
60.942992
 31
0.0
  0
LINE
  8
0
 10
-42.751561
 20
59.918072
 30
0.0
 11
-43.494686
 21
60.253986
 31
0.0
  0
LINE
  8
0
 10
-43.104907
 20
59.183076
 30
0.0
 11
-42.751561
 21
59.918072
 31
0.0
  0
LINE
  8
0
 10
-42.327809
 20
58.935705
 30
0.0
 11
-43.104907
 21
59.183076
 31
0.0
  0
LINE
  8
0
 10
-42.593438
 20
58.164658
 30
0.0
 11
-42.327809
 21
58.935705
 31
0.0
  0
LINE
  8
0
 10
-41.792877
 20
58.009175
 30
0.0
 11
-42.593438
 21
58.164658
 31
0.0
  0
LINE
  8
0
 10
-41.967196
 20
57.212503
 30
0.0
 11
-41.792877
 21
58.009175
 31
0.0
  0
LINE
  8
0
 10
-41.153998
 20
57.151012
 30
0.0
 11
-41.967196
 21
57.212503
 31
0.0
  0
LINE
  8
0
 10
-41.234651
 20
56.339489
 30
0.0
 11
-41.153998
 21
57.151012
 31
0.0
  0
LINE
  8
0
 10
-40.419812
 20
56.37282
 30
0.0
 11
-41.234651
 21
56.339489
 31
0.0
  0
LINE
  8
0
 10
-40.405708
 20
55.557422
 30
0.0
 11
-40.419812
 21
56.37282
 31
0.0
  0
LINE
  8
0
 10
-39.600248
 20
55.685124
 30
0.0
 11
-40.405708
 21
55.557422
 31
0.0
  0
LINE
  8
0
 10
-39.491577
 20
54.876877
 30
0.0
 11
-39.600248
 21
55.685124
 31
0.0
  0
LINE
  8
0
 10
-38.706389
 20
55.097224
 30
0.0
 11
-39.491577
 21
54.876877
 31
0.0
  0
LINE
  8
0
 10
-38.504621
 20
54.307058
 30
0.0
 11
-38.706389
 21
55.097224
 31
0.0
  0
LINE
  8
0
 10
-37.750323
 20
54.617069
 30
0.0
 11
-38.504621
 21
54.307058
 31
0.0
  0
LINE
  8
0
 10
-37.458187
 20
53.85567
 30
0.0
 11
-37.750323
 21
54.617069
 31
0.0
  0
LINE
  8
0
 10
-36.744979
 20
54.251154
 30
0.0
 11
-37.458187
 21
53.85567
 31
0.0
  0
LINE
  8
0
 10
-36.366425
 20
53.528818
 30
0.0
 11
-36.744979
 21
54.251154
 31
0.0
  0
LINE
  8
0
 10
-35.703952
 20
54.004426
 30
0.0
 11
-36.366425
 21
53.528818
 31
0.0
  0
LINE
  8
0
 10
-35.2441
 20
53.330922
 30
0.0
 11
-35.703952
 21
54.004426
 31
0.0
  0
LINE
  8
0
 10
-34.641322
 20
53.880222
 30
0.0
 11
-35.2441
 21
53.330922
 31
0.0
  0
LINE
  8
0
 10
-34.106389
 20
53.264658
 30
0.0
 11
-34.641322
 21
53.880222
 31
0.0
  0
LINE
  8
0
 10
-33.571457
 20
53.880222
 30
0.0
 11
-34.106389
 21
53.264658
 31
0.0
  0
LINE
  8
0
 10
-32.968679
 20
53.330922
 30
0.0
 11
-33.571457
 21
53.880222
 31
0.0
  0
LINE
  8
0
 10
-32.508826
 20
54.004426
 30
0.0
 11
-32.968679
 21
53.330922
 31
0.0
  0
LINE
  8
0
 10
-31.846354
 20
53.528818
 30
0.0
 11
-32.508826
 21
54.004426
 31
0.0
  0
LINE
  8
0
 10
-31.467799
 20
54.251154
 30
0.0
 11
-31.846354
 21
53.528818
 31
0.0
  0
LINE
  8
0
 10
-30.754592
 20
53.85567
 30
0.0
 11
-31.467799
 21
54.251154
 31
0.0
  0
LINE
  8
0
 10
-30.462455
 20
54.617069
 30
0.0
 11
-30.754592
 21
53.85567
 31
0.0
  0
LINE
  8
0
 10
-29.708157
 20
54.307058
 30
0.0
 11
-30.462455
 21
54.617069
 31
0.0
  0
LINE
  8
0
 10
-29.506389
 20
55.097224
 30
0.0
 11
-29.708157
 21
54.307058
 31
0.0
  0
LINE
  8
0
 10
-28.721201
 20
54.876877
 30
0.0
 11
-29.506389
 21
55.097224
 31
0.0
  0
LINE
  8
0
 10
-28.61253
 20
55.685124
 30
0.0
 11
-28.721201
 21
54.876877
 31
0.0
  0
LINE
  8
0
 10
-27.807071
 20
55.557422
 30
0.0
 11
-28.61253
 21
55.685124
 31
0.0
  0
LINE
  8
0
 10
-27.792966
 20
56.37282
 30
0.0
 11
-27.807071
 21
55.557422
 31
0.0
  0
LINE
  8
0
 10
-26.978127
 20
56.339489
 30
0.0
 11
-27.792966
 21
56.37282
 31
0.0
  0
LINE
  8
0
 10
-27.05878
 20
57.151012
 30
0.0
 11
-26.978127
 21
56.339489
 31
0.0
  0
LINE
  8
0
 10
-26.245582
 20
57.212503
 30
0.0
 11
-27.05878
 21
57.151012
 31
0.0
  0
LINE
  8
0
 10
-26.419901
 20
58.009175
 30
0.0
 11
-26.245582
 21
57.212503
 31
0.0
  0
LINE
  8
0
 10
-25.61934
 20
58.164658
 30
0.0
 11
-26.419901
 21
58.009175
 31
0.0
  0
LINE
  8
0
 10
-25.884969
 20
58.935705
 30
0.0
 11
-25.61934
 21
58.164658
 31
0.0
  0
LINE
  8
0
 10
-25.107871
 20
59.183076
 30
0.0
 11
-25.884969
 21
58.935705
 31
0.0
  0
LINE
  8
0
 10
-25.461217
 20
59.918072
 30
0.0
 11
-25.107871
 21
59.183076
 31
0.0
  0
LINE
  8
0
 10
-24.718092
 20
60.253986
 30
0.0
 11
-25.461217
 21
59.918072
 31
0.0
  0
LINE
  8
0
 10
-25.154376
 20
60.942992
 30
0.0
 11
-24.718092
 21
60.253986
 31
0.0
  0
LINE
  8
0
 10
-24.455273
 20
61.362905
 30
0.0
 11
-25.154376
 21
60.942992
 31
0.0
  0
LINE
  8
0
 10
-24.968596
 20
61.996603
 30
0.0
 11
-24.455273
 21
61.362905
 31
0.0
  0
LINE
  8
0
 10
-24.322969
 20
62.494838
 30
0.0
 11
-24.968596
 21
61.996603
 31
0.0
  0
LINE
  8
0
 10
-24.906389
 20
63.064658
 30
0.0
 11
-24.322969
 21
62.494838
 31
0.0
  0
LINE
  8
0
 10
-24.322969
 20
63.634477
 30
0.0
 11
-24.906389
 21
63.064658
 31
0.0
  0
LINE
  8
0
 10
-24.968596
 20
64.132712
 30
0.0
 11
-24.322969
 21
63.634477
 31
0.0
  0
LINE
  8
0
 10
-24.455273
 20
64.76641
 30
0.0
 11
-24.968596
 21
64.132712
 31
0.0
  0
LINE
  8
0
 10
-25.154376
 20
65.186324
 30
0.0
 11
-24.455273
 21
64.76641
 31
0.0
  0
LINE
  8
0
 10
-24.718092
 20
65.875329
 30
0.0
 11
-25.154376
 21
65.186324
 31
0.0
  0
LINE
  8
0
 10
-25.461217
 20
66.211243
 30
0.0
 11
-24.718092
 21
65.875329
 31
0.0
  0
LINE
  8
0
 10
-25.107871
 20
66.946239
 30
0.0
 11
-25.461217
 21
66.211243
 31
0.0
  0
LINE
  8
0
 10
-25.884969
 20
67.19361
 30
0.0
 11
-25.107871
 21
66.946239
 31
0.0
  0
LINE
  8
0
 10
-25.61934
 20
67.964658
 30
0.0
 11
-25.884969
 21
67.19361
 31
0.0
  0
LINE
  8
0
 10
-26.419901
 20
68.12014
 30
0.0
 11
-25.61934
 21
67.964658
 31
0.0
  0
LINE
  8
0
 10
-26.245582
 20
68.916812
 30
0.0
 11
-26.419901
 21
68.12014
 31
0.0
  0
LINE
  8
0
 10
-27.05878
 20
68.978304
 30
0.0
 11
-26.245582
 21
68.916812
 31
0.0
  0
LINE
  8
0
 10
-26.978127
 20
69.789826
 30
0.0
 11
-27.05878
 21
68.978304
 31
0.0
  0
LINE
  8
0
 10
-27.792966
 20
69.756495
 30
0.0
 11
-26.978127
 21
69.789826
 31
0.0
  0
LINE
  8
0
 10
-27.807071
 20
70.571893
 30
0.0
 11
-27.792966
 21
69.756495
 31
0.0
  0
LINE
  8
0
 10
-28.61253
 20
70.444191
 30
0.0
 11
-27.807071
 21
70.571893
 31
0.0
  0
LINE
  8
0
 10
-28.721201
 20
71.252438
 30
0.0
 11
-28.61253
 21
70.444191
 31
0.0
  0
LINE
  8
0
 10
-29.506389
 20
71.032091
 30
0.0
 11
-28.721201
 21
71.252438
 31
0.0
  0
LINE
  8
0
 10
-29.708157
 20
71.822257
 30
0.0
 11
-29.506389
 21
71.032091
 31
0.0
  0
LINE
  8
0
 10
-30.462455
 20
71.512246
 30
0.0
 11
-29.708157
 21
71.822257
 31
0.0
  0
LINE
  8
0
 10
-30.754592
 20
72.273645
 30
0.0
 11
-30.462455
 21
71.512246
 31
0.0
  0
LINE
  8
0
 10
-31.467799
 20
71.878161
 30
0.0
 11
-30.754592
 21
72.273645
 31
0.0
  0
LINE
  8
0
 10
-31.846354
 20
72.600497
 30
0.0
 11
-31.467799
 21
71.878161
 31
0.0
  0
LINE
  8
0
 10
-32.508826
 20
72.124889
 30
0.0
 11
-31.846354
 21
72.600497
 31
0.0
  0
LINE
  8
0
 10
-32.968679
 20
72.798393
 30
0.0
 11
-32.508826
 21
72.124889
 31
0.0
  0
LINE
  8
0
 10
-32.968679
 20
83.224907
 30
0.0
 11
-32.968679
 21
89.524907
 31
0.0
  0
LINE
  8
0
 10
-31.846354
 20
83.224907
 30
0.0
 11
-31.846354
 21
89.524907
 31
0.0
  0
LINE
  8
0
 10
-30.754592
 20
83.224907
 30
0.0
 11
-30.754592
 21
89.524907
 31
0.0
  0
LINE
  8
0
 10
-29.708157
 20
83.224907
 30
0.0
 11
-29.708157
 21
89.524907
 31
0.0
  0
LINE
  8
0
 10
-28.721201
 20
83.224907
 30
0.0
 11
-28.721201
 21
89.524907
 31
0.0
  0
LINE
  8
0
 10
-27.807071
 20
83.224907
 30
0.0
 11
-27.807071
 21
89.524907
 31
0.0
  0
LINE
  8
0
 10
-26.978127
 20
83.224907
 30
0.0
 11
-26.978127
 21
89.524907
 31
0.0
  0
LINE
  8
0
 10
-26.245582
 20
83.224907
 30
0.0
 11
-26.245582
 21
89.524907
 31
0.0
  0
LINE
  8
0
 10
-25.61934
 20
83.224907
 30
0.0
 11
-25.61934
 21
89.524907
 31
0.0
  0
LINE
  8
0
 10
-25.107871
 20
83.224907
 30
0.0
 11
-25.107871
 21
89.524907
 31
0.0
  0
LINE
  8
0
 10
-24.718092
 20
83.224907
 30
0.0
 11
-24.718092
 21
89.424354
 31
0.0
  0
LINE
  8
0
 10
-24.455273
 20
83.224907
 30
0.0
 11
-24.455273
 21
89.189717
 31
0.0
  0
LINE
  8
0
 10
-24.322969
 20
83.224907
 30
0.0
 11
-24.322969
 21
88.886936
 31
0.0
  0
LINE
  8
0
  6
CENTER
 10
-34.106389
 20
91.231042
 30
0.0
 11
-34.106389
 21
75.653295
 31
0.0
  0
LINE
  8
0
 10
-38.106389
 20
89.524907
 30
0.0
 11
-38.106389
 21
87.724907
 31
0.0
  0
LINE
  8
0
 10
-38.106389
 20
87.724907
 30
0.0
 11
-34.106389
 21
87.724907
 31
0.0
  0
LINE
  8
0
 10
-37.106389
 20
87.724907
 30
0.0
 11
-37.106389
 21
78.324907
 31
0.0
  0
LINE
  8
0
 10
-36.606389
 20
87.224907
 30
0.0
 11
-36.606389
 21
78.824907
 31
0.0
  0
LINE
  8
0
 10
-37.106389
 20
87.724907
 30
0.0
 11
-36.606389
 21
87.224907
 31
0.0
  0
LINE
  8
0
 10
-37.106389
 20
78.324907
 30
0.0
 11
-36.606389
 21
78.824907
 31
0.0
  0
LINE
  8
0
 10
-36.606389
 20
78.824907
 30
0.0
 11
-34.106389
 21
78.824907
 31
0.0
  0
LINE
  8
0
 10
-36.606389
 20
87.224907
 30
0.0
 11
-34.106389
 21
87.224907
 31
0.0
  0
CIRCLE
  8
0
 10
-34.106389
 20
63.064658
 30
0.0
 40
4.0
  0
CIRCLE
  8
0
 10
-34.106389
 20
63.064658
 30
0.0
 40
3.0
  0
CIRCLE
  8
0
 10
-34.106389
 20
63.064658
 30
0.0
 40
2.5
  0
LINE
  8
0
 10
-43.306389
 20
83.224907
 30
0.0
 11
-43.306389
 21
89.499504
 31
0.0
  0
INSERT
  8
0
  2
*X4
 10
0.0
 20
0.0
 30
0.0
1001
ACAD
1000
HATCH
1002
{
1070
    16
1000
ANSI37
1040
5.0
1040
0.0
1002
}
  0
INSERT
  8
0
  2
*X5
 10
0.0
 20
0.0
 30
0.0
1001
ACAD
1000
HATCH
1002
{
1070
    16
1000
ANSI37
1040
5.0
1040
0.0
1002
}
  0
INSERT
  8
0
  2
*X7
 10
0.0
 20
0.0
 30
0.0
1001
ACAD
1000
HATCH
1002
{
1070
    16
1000
ANSI37
1040
8.0
1040
0.0
1002
}
  0
ENDSEC
  0
EOF
