  0
SECTION
  2
HEADER
  9
$ACADVER
  1
AC1009
  9
$INSBASE
 10
0.0
 20
0.0
 30
0.0
  9
$EXTMIN
 10
-201.843096
 20
-108.025472
 30
0.0
  9
$EXTMAX
 10
126.022405
 20
32.982885
 30
0.0
  9
$LIMMIN
 10
0.0
 20
0.0
  9
$LIMMAX
 10
12.0
 20
9.0
  9
$ORTHOMODE
 70
     1
  9
$REGENMODE
 70
     1
  9
$FILLMODE
 70
     1
  9
$QTEXTMODE
 70
     0
  9
$MIRRTEXT
 70
     1
  9
$DRAGMODE
 70
     2
  9
$LTSCALE
 40
4.0
  9
$OSMODE
 70
     0
  9
$ATTMODE
 70
     1
  9
$TEXTSIZE
 40
0.2
  9
$TRACEWID
 40
0.05
  9
$TEXTSTYLE
  7
STANDARD
  9
$CLAYER
  8
0
  9
$CELTYPE
  6
BYLAYER
  9
$CECOLOR
 62
   256
  9
$DIMSCALE
 40
1.0
  9
$DIMASZ
 40
2.5
  9
$DIMEXO
 40
0.0
  9
$DIMDLI
 40
5.0
  9
$DIMRND
 40
0.0
  9
$DIMDLE
 40
0.0
  9
$DIMEXE
 40
1.0
  9
$DIMTP
 40
0.0
  9
$DIMTM
 40
0.0
  9
$DIMTXT
 40
2.5
  9
$DIMCEN
 40
0.09
  9
$DIMTSZ
 40
0.0
  9
$DIMTOL
 70
     0
  9
$DIMLIM
 70
     0
  9
$DIMTIH
 70
     0
  9
$DIMTOH
 70
     0
  9
$DIMSE1
 70
     0
  9
$DIMSE2
 70
     0
  9
$DIMTAD
 70
     1
  9
$DIMZIN
 70
     0
  9
$DIMBLK
  1

  9
$DIMASO
 70
     0
  9
$DIMSHO
 70
     0
  9
$DIMPOST
  1

  9
$DIMAPOST
  1

  9
$DIMALT
 70
     0
  9
$DIMALTD
 70
     2
  9
$DIMALTF
 40
25.4
  9
$DIMLFAC
 40
1.0
  9
$DIMTOFL
 70
     1
  9
$DIMTVP
 40
0.0
  9
$DIMTIX
 70
     0
  9
$DIMSOXD
 70
     0
  9
$DIMSAH
 70
     0
  9
$DIMBLK1
  1

  9
$DIMBLK2
  1

  9
$DIMSTYLE
  2
*UNNAMED
  9
$DIMCLRD
 70
     0
  9
$DIMCLRE
 70
     0
  9
$DIMCLRT
 70
     0
  9
$DIMTFAC
 40
1.0
  9
$DIMGAP
 40
0.09
  9
$LUNITS
 70
     2
  9
$LUPREC
 70
     4
  9
$SKETCHINC
 40
0.1
  9
$FILLETRAD
 40
1.5
  9
$AUNITS
 70
     0
  9
$AUPREC
 70
     0
  9
$MENU
  1
wiberger
  9
$ELEVATION
 40
0.0
  9
$PELEVATION
 40
0.0
  9
$THICKNESS
 40
0.0
  9
$LIMCHECK
 70
     0
  9
$BLIPMODE
 70
     1
  9
$CHAMFERA
 40
0.6
  9
$CHAMFERB
 40
0.6
  9
$SKPOLY
 70
     0
  9
$TDCREATE
 40
2450189.437133796
  9
$TDUPDATE
 40
2450218.450426504
  9
$TDINDWG
 40
0.0045936343
  9
$TDUSRTIMER
 40
0.0045936343
  9
$USRTIMER
 70
     1
  9
$ANGBASE
 50
0.0
  9
$ANGDIR
 70
     0
  9
$PDMODE
 70
     3
  9
$PDSIZE
 40
1.0
  9
$PLINEWID
 40
0.0
  9
$COORDS
 70
     0
  9
$SPLFRAME
 70
     0
  9
$SPLINETYPE
 70
     6
  9
$SPLINESEGS
 70
     8
  9
$ATTDIA
 70
     0
  9
$ATTREQ
 70
     1
  9
$HANDLING
 70
     0
  9
$HANDSEED
  5
0
  9
$SURFTAB1
 70
     6
  9
$SURFTAB2
 70
     6
  9
$SURFTYPE
 70
     6
  9
$SURFU
 70
     6
  9
$SURFV
 70
     6
  9
$UCSNAME
  2

  9
$UCSORG
 10
0.0
 20
0.0
 30
0.0
  9
$UCSXDIR
 10
1.0
 20
0.0
 30
0.0
  9
$UCSYDIR
 10
0.0
 20
1.0
 30
0.0
  9
$PUCSNAME
  2

  9
$PUCSORG
 10
0.0
 20
0.0
 30
0.0
  9
$PUCSXDIR
 10
1.0
 20
0.0
 30
0.0
  9
$PUCSYDIR
 10
0.0
 20
1.0
 30
0.0
  9
$USERI1
 70
     0
  9
$USERI2
 70
     0
  9
$USERI3
 70
     0
  9
$USERI4
 70
     0
  9
$USERI5
 70
     0
  9
$USERR1
 40
0.0
  9
$USERR2
 40
0.0
  9
$USERR3
 40
0.0
  9
$USERR4
 40
0.0
  9
$USERR5
 40
0.0
  9
$WORLDVIEW
 70
     1
  9
$SHADEDGE
 70
     3
  9
$SHADEDIF
 70
    70
  9
$TILEMODE
 70
     1
  9
$MAXACTVP
 70
    16
  9
$PINSBASE
 10
0.0
 20
0.0
 30
0.0
  9
$PLIMCHECK
 70
     0
  9
$PEXTMIN
 10
1.000000E+20
 20
1.000000E+20
 30
1.000000E+20
  9
$PEXTMAX
 10
-1.000000E+20
 20
-1.000000E+20
 30
-1.000000E+20
  9
$PLIMMIN
 10
0.0
 20
0.0
  9
$PLIMMAX
 10
12.0
 20
9.0
  9
$UNITMODE
 70
     0
  9
$VISRETAIN
 70
     0
  9
$PLINEGEN
 70
     0
  9
$PSLTSCALE
 70
     0
  9
$TREEDEPTH
 70
  3020
  9
$DWGCODEPAGE
  3
undefined
  0
ENDSEC
  0
SECTION
  2
TABLES
  0
TABLE
  2
VPORT
 70
     2
  0
VPORT
  2
*ACTIVE
 70
     0
 10
0.0
 20
0.0
 11
1.0
 21
1.0
 12
11.781711
 22
-31.900871
 13
0.0
 23
0.0
 14
1.0
 24
1.0
 15
0.0
 25
0.0
 16
0.0
 26
0.0
 36
1.0
 17
0.0
 27
0.0
 37
0.0
 40
261.974939
 41
1.767507
 42
50.0
 43
0.0
 44
0.0
 50
0.0
 51
0.0
 71
     0
 72
   100
 73
     1
 74
     0
 75
     0
 76
     0
 77
     0
 78
     0
  0
ENDTAB
  0
TABLE
  2
LTYPE
 70
     3
  0
LTYPE
  2
CONTINUOUS
 70
    64
  3
Solid line
 72
    65
 73
     0
 40
0.0
  0
LTYPE
  2
DASHED
 70
     0
  3
__ __ __ __ __ __ __ __ __ __ __ __ __ __ __
 72
    65
 73
     2
 40
0.75
 49
0.5
 49
-0.25
  0
LTYPE
  2
CENTER
 70
    64
  3
____ _ ____ _ ____ _ ____ _ ____ _ ____ _ ____
 72
    65
 73
     4
 40
2.0
 49
1.25
 49
-0.25
 49
0.25
 49
-0.25
  0
ENDTAB
  0
TABLE
  2
LAYER
 70
     1
  0
LAYER
  2
0
 70
    64
 62
     7
  6
CONTINUOUS
  0
ENDTAB
  0
TABLE
  2
STYLE
 70
     1
  0
STYLE
  2
STANDARD
 70
     0
 40
0.0
 41
1.0
 50
0.0
 71
     0
 42
0.2
  3
txt
  4

  0
ENDTAB
  0
TABLE
  2
VIEW
 70
     0
  0
ENDTAB
  0
TABLE
  2
UCS
 70
     0
  0
ENDTAB
  0
TABLE
  2
APPID
 70
     1
  0
APPID
  2
ACAD
 70
    64
  0
ENDTAB
  0
TABLE
  2
DIMSTYLE
 70
     0
  0
ENDTAB
  0
ENDSEC
  0
SECTION
  2
BLOCKS
  0
BLOCK
  8
0
  2
*X0
 70
    65
 10
0.0
 20
0.0
 30
0.0
  3
*X
  0
LINE
  8
0
 62
     0
 10
-78.039342
 20
-0.449511
 30
0.0
 11
-80.289342
 21
1.800489
 31
0.0
  0
LINE
  8
0
 62
     0
 10
-83.615157
 20
5.126304
 30
0.0
 11
-89.522165
 21
11.033312
 31
0.0
  0
LINE
  8
0
 62
     0
 10
-78.039342
 20
-2.570831
 30
0.0
 11
-80.289342
 21
-0.320831
 31
0.0
  0
LINE
  8
0
 62
     0
 10
-85.736477
 20
5.126304
 30
0.0
 11
-89.789342
 21
9.179169
 31
0.0
  0
LINE
  8
0
 62
     0
 10
-78.039342
 20
-4.692151
 30
0.0
 11
-80.289342
 21
-2.442151
 31
0.0
  0
LINE
  8
0
 62
     0
 10
-87.857797
 20
5.126304
 30
0.0
 11
-89.789342
 21
7.057849
 31
0.0
  0
LINE
  8
0
 62
     0
 10
-78.039342
 20
-6.813472
 30
0.0
 11
-80.289342
 21
-4.563472
 31
0.0
  0
LINE
  8
0
 62
     0
 10
-78.100438
 20
-8.873696
 30
0.0
 11
-80.289342
 21
-6.684792
 31
0.0
  0
LINE
  8
0
 62
     0
 10
-80.221758
 20
-8.873696
 30
0.0
 11
-80.289342
 21
-8.806112
 31
0.0
  0
LINE
  8
0
 62
     0
 10
-78.039342
 20
1.67181
 30
0.0
 11
-80.289342
 21
3.92181
 31
0.0
  0
LINE
  8
0
 62
     0
 10
-81.493836
 20
5.126304
 30
0.0
 11
-88.328218
 21
11.960686
 31
0.0
  0
LINE
  8
0
 62
     0
 10
-78.039342
 20
3.79313
 30
0.0
 11
-86.573289
 21
12.327077
 31
0.0
  0
LINE
  8
0
 62
     0
 10
-78.039342
 20
5.91445
 30
0.0
 11
-84.776317
 21
12.651425
 31
0.0
  0
LINE
  8
0
 62
     0
 10
-78.039342
 20
8.035771
 30
0.0
 11
-82.937868
 21
12.934296
 31
0.0
  0
LINE
  8
0
 62
     0
 10
-78.039342
 20
10.157091
 30
0.0
 11
-81.055482
 21
13.173231
 31
0.0
  0
LINE
  8
0
 62
     0
 10
-76.887235
 20
11.126304
 30
0.0
 11
-79.126345
 21
13.365415
 31
0.0
  0
LINE
  8
0
 62
     0
 10
-74.765914
 20
11.126304
 30
0.0
 11
-77.147215
 21
13.507604
 31
0.0
  0
LINE
  8
0
 62
     0
 10
-73.039342
 20
11.521052
 30
0.0
 11
-75.114327
 21
13.596037
 31
0.0
  0
LINE
  8
0
 62
     0
 10
-80.289342
 20
2.442151
 30
0.0
 11
-78.039342
 21
4.692151
 31
0.0
  0
LINE
  8
0
 62
     0
 10
-80.289342
 20
0.320831
 30
0.0
 11
-78.039342
 21
2.570831
 31
0.0
  0
LINE
  8
0
 62
     0
 10
-80.289342
 20
-1.800489
 30
0.0
 11
-78.039342
 21
0.449511
 31
0.0
  0
LINE
  8
0
 62
     0
 10
-80.289342
 20
-3.92181
 30
0.0
 11
-78.039342
 21
-1.67181
 31
0.0
  0
LINE
  8
0
 62
     0
 10
-80.289342
 20
-6.04313
 30
0.0
 11
-78.039342
 21
-3.79313
 31
0.0
  0
LINE
  8
0
 62
     0
 10
-80.289342
 20
-8.16445
 30
0.0
 11
-78.039342
 21
-5.91445
 31
0.0
  0
LINE
  8
0
 62
     0
 10
-78.877267
 20
-8.873696
 30
0.0
 11
-78.039342
 21
-8.035771
 31
0.0
  0
LINE
  8
0
 62
     0
 10
-80.359231
 20
4.493583
 30
0.0
 11
-78.039342
 21
6.813472
 31
0.0
  0
LINE
  8
0
 62
     0
 10
-73.72651
 20
11.126304
 30
0.0
 11
-73.039342
 21
11.813472
 31
0.0
  0
LINE
  8
0
 62
     0
 10
-81.84783
 20
5.126304
 30
0.0
 11
-78.039342
 21
8.934792
 31
0.0
  0
LINE
  8
0
 62
     0
 10
-75.84783
 20
11.126304
 30
0.0
 11
-73.348502
 21
13.625632
 31
0.0
  0
LINE
  8
0
 62
     0
 10
-83.96915
 20
5.126304
 30
0.0
 11
-78.039342
 21
11.056112
 31
0.0
  0
LINE
  8
0
 62
     0
 10
-77.96915
 20
11.126304
 30
0.0
 11
-75.51214
 21
13.583315
 31
0.0
  0
LINE
  8
0
 62
     0
 10
-86.090471
 20
5.126304
 30
0.0
 11
-77.746362
 21
13.470413
 31
0.0
  0
LINE
  8
0
 62
     0
 10
-88.211791
 20
5.126304
 30
0.0
 11
-80.05896
 21
13.279136
 31
0.0
  0
LINE
  8
0
 62
     0
 10
-89.789342
 20
5.670073
 30
0.0
 11
-82.459569
 21
12.999847
 31
0.0
  0
LINE
  8
0
 62
     0
 10
-89.789342
 20
7.791394
 30
0.0
 11
-84.960341
 21
12.620394
 31
0.0
  0
LINE
  8
0
 62
     0
 10
-89.789342
 20
9.912714
 30
0.0
 11
-87.57698
 21
12.125076
 31
0.0
  0
ENDBLK
  8
0
  0
BLOCK
  8
0
  2
*X1
 70
    65
 10
0.0
 20
0.0
 30
0.0
  3
*X
  0
LINE
  8
0
 62
     0
 10
-39.059748
 20
-3.366659
 30
0.0
 11
-40.631371
 21
-1.795036
 31
0.0
  0
LINE
  8
0
 62
     0
 10
-45.631371
 20
3.204964
 30
0.0
 11
-52.082487
 21
9.65608
 31
0.0
  0
LINE
  8
0
 62
     0
 10
-41.059748
 20
-1.366659
 30
0.0
 11
-43.309748
 21
0.883341
 31
0.0
  0
LINE
  8
0
 62
     0
 10
-39.059748
 20
-5.487979
 30
0.0
 11
-43.309748
 21
-1.237979
 31
0.0
  0
LINE
  8
0
 62
     0
 10
-47.752691
 20
3.204964
 30
0.0
 11
-52.80459
 21
8.256862
 31
0.0
  0
LINE
  8
0
 62
     0
 10
-39.059748
 20
-7.6093
 30
0.0
 11
-43.309748
 21
-3.3593
 31
0.0
  0
LINE
  8
0
 62
     0
 10
-49.874012
 20
3.204964
 30
0.0
 11
-52.809748
 21
6.1407
 31
0.0
  0
LINE
  8
0
 62
     0
 10
-39.059748
 20
-9.73062
 30
0.0
 11
-43.309748
 21
-5.48062
 31
0.0
  0
LINE
  8
0
 62
     0
 10
-51.995332
 20
3.204964
 30
0.0
 11
-52.809748
 21
4.01938
 31
0.0
  0
LINE
  8
0
 62
     0
 10
-40.116652
 20
-10.795036
 30
0.0
 11
-43.309748
 21
-7.60194
 31
0.0
  0
LINE
  8
0
 62
     0
 10
-42.237973
 20
-10.795036
 30
0.0
 11
-43.309748
 21
-9.723261
 31
0.0
  0
LINE
  8
0
 62
     0
 10
-41.059748
 20
0.754661
 30
0.0
 11
-50.524085
 21
10.218998
 31
0.0
  0
LINE
  8
0
 62
     0
 10
-40.38873
 20
2.204964
 30
0.0
 11
-48.74807
 21
10.564304
 31
0.0
  0
LINE
  8
0
 62
     0
 10
-38.26741
 20
2.204964
 30
0.0
 11
-46.93175
 21
10.869304
 31
0.0
  0
LINE
  8
0
 62
     0
 10
-36.14609
 20
2.204964
 30
0.0
 11
-45.072829
 21
11.131703
 31
0.0
  0
LINE
  8
0
 62
     0
 10
-36.059748
 20
4.239943
 30
0.0
 11
-43.168687
 21
11.348882
 31
0.0
  0
LINE
  8
0
 62
     0
 10
-36.059748
 20
6.361263
 30
0.0
 11
-41.216318
 21
11.517833
 31
0.0
  0
LINE
  8
0
 62
     0
 10
-36.059748
 20
8.482584
 30
0.0
 11
-39.212245
 21
11.635081
 31
0.0
  0
LINE
  8
0
 62
     0
 10
-36.059748
 20
10.603904
 30
0.0
 11
-37.152417
 21
11.696572
 31
0.0
  0
LINE
  8
0
 62
     0
 10
-43.309748
 20
1.237979
 30
0.0
 11
-36.059748
 21
8.487979
 31
0.0
  0
LINE
  8
0
 62
     0
 10
-43.309748
 20
-0.883341
 30
0.0
 11
-41.059748
 21
1.366659
 31
0.0
  0
LINE
  8
0
 62
     0
 10
-40.221443
 20
2.204964
 30
0.0
 11
-36.059748
 21
6.366659
 31
0.0
  0
LINE
  8
0
 62
     0
 10
-43.309748
 20
-3.004661
 30
0.0
 11
-41.059748
 21
-0.754661
 31
0.0
  0
LINE
  8
0
 62
     0
 10
-38.100122
 20
2.204964
 30
0.0
 11
-36.059748
 21
4.245339
 31
0.0
  0
LINE
  8
0
 62
     0
 10
-43.309748
 20
-5.125982
 30
0.0
 11
-39.978802
 21
-1.795036
 31
0.0
  0
LINE
  8
0
 62
     0
 10
-43.309748
 20
-7.247302
 30
0.0
 11
-39.059748
 21
-2.997302
 31
0.0
  0
LINE
  8
0
 62
     0
 10
-43.309748
 20
-9.368622
 30
0.0
 11
-39.059748
 21
-5.118622
 31
0.0
  0
LINE
  8
0
 62
     0
 10
-42.614841
 20
-10.795036
 30
0.0
 11
-39.059748
 21
-7.239943
 31
0.0
  0
LINE
  8
0
 62
     0
 10
-40.493521
 20
-10.795036
 30
0.0
 11
-39.059748
 21
-9.361263
 31
0.0
  0
LINE
  8
0
 62
     0
 10
-43.684032
 20
2.985015
 30
0.0
 11
-36.059748
 21
10.6093
 31
0.0
  0
LINE
  8
0
 62
     0
 10
-45.585404
 20
3.204964
 30
0.0
 11
-37.092906
 21
11.697462
 31
0.0
  0
LINE
  8
0
 62
     0
 10
-47.706724
 20
3.204964
 30
0.0
 11
-39.279629
 21
11.63206
 31
0.0
  0
LINE
  8
0
 62
     0
 10
-49.828044
 20
3.204964
 30
0.0
 11
-41.539395
 21
11.493614
 31
0.0
  0
LINE
  8
0
 62
     0
 10
-51.949365
 20
3.204964
 30
0.0
 11
-43.88056
 21
11.273769
 31
0.0
  0
LINE
  8
0
 62
     0
 10
-52.809748
 20
4.465901
 30
0.0
 11
-46.313521
 21
10.962128
 31
0.0
  0
LINE
  8
0
 62
     0
 10
-52.809748
 20
6.587222
 30
0.0
 11
-48.851491
 21
10.545478
 31
0.0
  0
LINE
  8
0
 62
     0
 10
-52.669674
 20
8.848615
 30
0.0
 11
-51.545053
 21
9.973237
 31
0.0
  0
ENDBLK
  8
0
  0
BLOCK
  8
0
  2
*X2
 70
    65
 10
0.0
 20
0.0
 30
0.0
  3
*X
  0
LINE
  8
0
 62
     0
 10
77.537102
 20
-117.62437
 30
0.0
 11
84.251396
 21
-110.910076
 31
0.0
  0
LINE
  8
0
 62
     0
 10
89.937581
 20
-105.223891
 30
0.0
 11
90.751396
 21
-104.410076
 31
0.0
  0
LINE
  8
0
 62
     0
 10
75.109154
 20
-117.223891
 30
0.0
 11
84.251396
 21
-108.081649
 31
0.0
  0
LINE
  8
0
 62
     0
 10
87.109154
 20
-105.223891
 30
0.0
 11
90.751396
 21
-101.581649
 31
0.0
  0
LINE
  8
0
 62
     0
 10
72.280727
 20
-117.223891
 30
0.0
 11
84.251396
 21
-105.253222
 31
0.0
  0
LINE
  8
0
 62
     0
 10
84.280727
 20
-105.223891
 30
0.0
 11
89.262125
 21
-100.242492
 31
0.0
  0
LINE
  8
0
 62
     0
 10
69.4523
 20
-117.223891
 30
0.0
 11
86.284762
 21
-100.391428
 31
0.0
  0
LINE
  8
0
 62
     0
 10
66.623873
 20
-117.223891
 30
0.0
 11
83.135481
 21
-100.712282
 31
0.0
  0
LINE
  8
0
 62
     0
 10
63.795445
 20
-117.223891
 30
0.0
 11
79.776738
 21
-101.242598
 31
0.0
  0
LINE
  8
0
 62
     0
 10
60.984858
 20
-117.20605
 30
0.0
 11
76.15205
 21
-102.038859
 31
0.0
  0
LINE
  8
0
 62
     0
 10
59.394833
 20
-115.967648
 30
0.0
 11
72.168998
 21
-103.193484
 31
0.0
  0
LINE
  8
0
 62
     0
 10
59.251396
 20
-113.282659
 30
0.0
 11
67.655224
 21
-104.878831
 31
0.0
  0
LINE
  8
0
 62
     0
 10
59.448437
 20
-110.257191
 30
0.0
 11
62.202968
 21
-107.50266
 31
0.0
  0
LINE
  8
0
 62
     0
 10
78.356171
 20
-119.633728
 30
0.0
 11
84.251396
 21
-113.738503
 31
0.0
  0
LINE
  8
0
 62
     0
 10
78.474022
 20
-122.344303
 30
0.0
 11
84.251396
 21
-116.56693
 31
0.0
  0
LINE
  8
0
 62
     0
 10
78.591873
 20
-125.054879
 30
0.0
 11
84.251396
 21
-119.395357
 31
0.0
  0
LINE
  8
0
 62
     0
 10
78.709725
 20
-127.765455
 30
0.0
 11
84.251396
 21
-122.223784
 31
0.0
  0
LINE
  8
0
 62
     0
 10
78.827576
 20
-130.476031
 30
0.0
 11
84.251396
 21
-125.052212
 31
0.0
  0
LINE
  8
0
 62
     0
 10
78.945427
 20
-133.186607
 30
0.0
 11
84.251396
 21
-127.880639
 31
0.0
  0
LINE
  8
0
 62
     0
 10
79.063278
 20
-135.897183
 30
0.0
 11
84.251396
 21
-130.709066
 31
0.0
  0
LINE
  8
0
 62
     0
 10
79.181129
 20
-138.607759
 30
0.0
 11
84.251396
 21
-133.537493
 31
0.0
  0
LINE
  8
0
 62
     0
 10
80.393425
 20
-140.223891
 30
0.0
 11
84.251396
 21
-136.36592
 31
0.0
  0
LINE
  8
0
 62
     0
 10
83.221852
 20
-140.223891
 30
0.0
 11
84.251396
 21
-139.194347
 31
0.0
  0
LINE
  8
0
 62
     0
 10
84.251396
 20
-126.677803
 30
0.0
 11
78.408392
 21
-120.834799
 31
0.0
  0
LINE
  8
0
 62
     0
 10
74.797484
 20
-117.223891
 30
0.0
 11
64.09027
 21
-106.516677
 31
0.0
  0
LINE
  8
0
 62
     0
 10
84.251396
 20
-129.50623
 30
0.0
 11
78.536957
 21
-123.791791
 31
0.0
  0
LINE
  8
0
 62
     0
 10
71.969057
 20
-117.223891
 30
0.0
 11
62.232002
 21
-107.486836
 31
0.0
  0
LINE
  8
0
 62
     0
 10
84.251396
 20
-132.334657
 30
0.0
 11
78.665521
 21
-126.748783
 31
0.0
  0
LINE
  8
0
 62
     0
 10
69.140629
 20
-117.223891
 30
0.0
 11
60.505383
 21
-108.588644
 31
0.0
  0
LINE
  8
0
 62
     0
 10
84.251396
 20
-135.163084
 30
0.0
 11
78.794086
 21
-129.705775
 31
0.0
  0
LINE
  8
0
 62
     0
 10
66.312202
 20
-117.223891
 30
0.0
 11
59.423795
 21
-110.335483
 31
0.0
  0
LINE
  8
0
 62
     0
 10
84.251396
 20
-137.991511
 30
0.0
 11
78.922651
 21
-132.662767
 31
0.0
  0
LINE
  8
0
 62
     0
 10
63.483775
 20
-117.223891
 30
0.0
 11
59.251396
 21
-112.991511
 31
0.0
  0
LINE
  8
0
 62
     0
 10
83.655348
 20
-140.223891
 30
0.0
 11
79.051216
 21
-135.619759
 31
0.0
  0
LINE
  8
0
 62
     0
 10
60.51474
 20
-117.083283
 30
0.0
 11
59.392004
 21
-115.960546
 31
0.0
  0
LINE
  8
0
 62
     0
 10
80.826921
 20
-140.223891
 30
0.0
 11
79.179781
 21
-138.576751
 31
0.0
  0
LINE
  8
0
 62
     0
 10
84.251396
 20
-123.849375
 30
0.0
 11
66.004129
 21
-105.602108
 31
0.0
  0
LINE
  8
0
 62
     0
 10
84.251396
 20
-121.020948
 30
0.0
 11
67.975717
 21
-104.745269
 31
0.0
  0
LINE
  8
0
 62
     0
 10
84.251396
 20
-118.192521
 30
0.0
 11
70.007554
 21
-103.948679
 31
0.0
  0
LINE
  8
0
 62
     0
 10
84.251396
 20
-115.364094
 30
0.0
 11
72.102605
 21
-103.215303
 31
0.0
  0
LINE
  8
0
 62
     0
 10
84.251396
 20
-112.535667
 30
0.0
 11
74.26437
 21
-102.548641
 31
0.0
  0
LINE
  8
0
 62
     0
 10
84.251396
 20
-109.70724
 30
0.0
 11
76.496996
 21
-101.95284
 31
0.0
  0
LINE
  8
0
 62
     0
 10
84.251396
 20
-106.878813
 30
0.0
 11
78.805427
 21
-101.432844
 31
0.0
  0
LINE
  8
0
 62
     0
 10
85.424901
 20
-105.223891
 30
0.0
 11
81.19561
 21
-100.9946
 31
0.0
  0
LINE
  8
0
 62
     0
 10
88.253328
 20
-105.223891
 30
0.0
 11
83.674764
 21
-100.645327
 31
0.0
  0
LINE
  8
0
 62
     0
 10
90.751396
 20
-104.893531
 30
0.0
 11
86.25178
 21
-100.393915
 31
0.0
  0
LINE
  8
0
 62
     0
 10
90.751396
 20
-102.065104
 30
0.0
 11
88.937771
 21
-100.25148
 31
0.0
  0
ENDBLK
  8
0
  0
BLOCK
  8
0
  2
*X3
 70
    65
 10
0.0
 20
0.0
 30
0.0
  3
*X
  0
LINE
  8
0
 62
     0
 10
145.538783
 20
-117.50494
 30
0.0
 11
158.931362
 21
-104.112361
 31
0.0
  0
LINE
  8
0
 62
     0
 10
142.991405
 20
-117.223891
 30
0.0
 11
158.931362
 21
-101.283934
 31
0.0
  0
LINE
  8
0
 62
     0
 10
140.162978
 20
-117.223891
 30
0.0
 11
157.13594
 21
-100.250929
 31
0.0
  0
LINE
  8
0
 62
     0
 10
137.334551
 20
-117.223891
 30
0.0
 11
154.141877
 21
-100.416564
 31
0.0
  0
LINE
  8
0
 62
     0
 10
134.506123
 20
-117.223891
 30
0.0
 11
150.972562
 21
-100.757452
 31
0.0
  0
LINE
  8
0
 62
     0
 10
131.677696
 20
-117.223891
 30
0.0
 11
147.588922
 21
-101.312665
 31
0.0
  0
LINE
  8
0
 62
     0
 10
128.916639
 20
-117.156521
 30
0.0
 11
143.931738
 21
-102.141422
 31
0.0
  0
LINE
  8
0
 62
     0
 10
127.500292
 20
-115.74444
 30
0.0
 11
139.903043
 21
-103.34169
 31
0.0
  0
LINE
  8
0
 62
     0
 10
127.431362
 20
-112.984944
 30
0.0
 11
135.316767
 21
-105.099539
 31
0.0
  0
LINE
  8
0
 62
     0
 10
127.828625
 20
-109.759253
 30
0.0
 11
129.715857
 21
-107.872022
 31
0.0
  0
LINE
  8
0
 62
     0
 10
146.523732
 20
-119.348417
 30
0.0
 11
158.931362
 21
-106.940788
 31
0.0
  0
LINE
  8
0
 62
     0
 10
146.641583
 20
-122.058993
 30
0.0
 11
158.931362
 21
-109.769215
 31
0.0
  0
LINE
  8
0
 62
     0
 10
146.759435
 20
-124.769569
 30
0.0
 11
150.931362
 21
-120.597642
 31
0.0
  0
LINE
  8
0
 62
     0
 10
153.305113
 20
-118.223891
 30
0.0
 11
158.931362
 21
-112.597642
 31
0.0
  0
LINE
  8
0
 62
     0
 10
146.877286
 20
-127.480145
 30
0.0
 11
150.931362
 21
-123.42607
 31
0.0
  0
LINE
  8
0
 62
     0
 10
156.13354
 20
-118.223891
 30
0.0
 11
158.931362
 21
-115.42607
 31
0.0
  0
LINE
  8
0
 62
     0
 10
146.995137
 20
-130.190721
 30
0.0
 11
152.961968
 21
-124.223891
 31
0.0
  0
LINE
  8
0
 62
     0
 10
147.112988
 20
-132.901297
 30
0.0
 11
153.931362
 21
-126.082924
 31
0.0
  0
LINE
  8
0
 62
     0
 10
147.230839
 20
-135.611873
 30
0.0
 11
153.931362
 21
-128.911351
 31
0.0
  0
LINE
  8
0
 62
     0
 10
147.34869
 20
-138.322449
 30
0.0
 11
153.931362
 21
-131.739778
 31
0.0
  0
LINE
  8
0
 62
     0
 10
148.275676
 20
-140.223891
 30
0.0
 11
153.931362
 21
-134.568205
 31
0.0
  0
LINE
  8
0
 62
     0
 10
151.104103
 20
-140.223891
 30
0.0
 11
153.931362
 21
-137.396632
 31
0.0
  0
LINE
  8
0
 62
     0
 10
153.931362
 20
-131.303945
 30
0.0
 11
146.730455
 21
-124.103038
 31
0.0
  0
LINE
  8
0
 62
     0
 10
139.851308
 20
-117.223891
 30
0.0
 11
130.219527
 21
-107.59211
 31
0.0
  0
LINE
  8
0
 62
     0
 10
153.931362
 20
-134.132372
 30
0.0
 11
146.85902
 21
-127.06003
 31
0.0
  0
LINE
  8
0
 62
     0
 10
137.02288
 20
-117.223891
 30
0.0
 11
128.536133
 21
-108.737143
 31
0.0
  0
LINE
  8
0
 62
     0
 10
153.931362
 20
-136.960799
 30
0.0
 11
146.987585
 21
-130.017022
 31
0.0
  0
LINE
  8
0
 62
     0
 10
134.194453
 20
-117.223891
 30
0.0
 11
127.540348
 21
-110.569785
 31
0.0
  0
LINE
  8
0
 62
     0
 10
153.931362
 20
-139.789226
 30
0.0
 11
147.116149
 21
-132.974014
 31
0.0
  0
LINE
  8
0
 62
     0
 10
131.366026
 20
-117.223891
 30
0.0
 11
127.431362
 21
-113.289226
 31
0.0
  0
LINE
  8
0
 62
     0
 10
151.537599
 20
-140.223891
 30
0.0
 11
147.244714
 21
-135.931006
 31
0.0
  0
LINE
  8
0
 62
     0
 10
148.709172
 20
-140.223891
 30
0.0
 11
147.373279
 21
-138.887998
 31
0.0
  0
LINE
  8
0
 62
     0
 10
153.931362
 20
-128.475517
 30
0.0
 11
146.60189
 21
-121.146046
 31
0.0
  0
LINE
  8
0
 62
     0
 10
142.679735
 20
-117.223891
 30
0.0
 11
132.072054
 21
-106.61621
 31
0.0
  0
LINE
  8
0
 62
     0
 10
153.931362
 20
-125.64709
 30
0.0
 11
152.508162
 21
-124.223891
 31
0.0
  0
LINE
  8
0
 62
     0
 10
150.931362
 20
-122.64709
 30
0.0
 11
133.979967
 21
-105.695696
 31
0.0
  0
LINE
  8
0
 62
     0
 10
150.931362
 20
-119.818663
 30
0.0
 11
135.945367
 21
-104.832669
 31
0.0
  0
LINE
  8
0
 62
     0
 10
152.165016
 20
-118.223891
 30
0.0
 11
137.970731
 21
-104.029605
 31
0.0
  0
LINE
  8
0
 62
     0
 10
154.993443
 20
-118.223891
 30
0.0
 11
140.058974
 21
-103.289421
 31
0.0
  0
LINE
  8
0
 62
     0
 10
157.82187
 20
-118.223891
 30
0.0
 11
142.213533
 21
-102.615554
 31
0.0
  0
LINE
  8
0
 62
     0
 10
158.931362
 20
-116.504955
 30
0.0
 11
144.438483
 21
-102.012076
 31
0.0
  0
LINE
  8
0
 62
     0
 10
158.931362
 20
-113.676528
 30
0.0
 11
146.738675
 21
-101.483841
 31
0.0
  0
LINE
  8
0
 62
     0
 10
158.931362
 20
-110.8481
 30
0.0
 11
149.119937
 21
-101.036676
 31
0.0
  0
LINE
  8
0
 62
     0
 10
158.931362
 20
-108.019673
 30
0.0
 11
151.589341
 21
-100.677653
 31
0.0
  0
LINE
  8
0
 62
     0
 10
158.931362
 20
-105.191246
 30
0.0
 11
154.155577
 21
-100.415461
 31
0.0
  0
LINE
  8
0
 62
     0
 10
158.931362
 20
-102.362819
 30
0.0
 11
156.829492
 21
-100.260949
 31
0.0
  0
ENDBLK
  8
0
  0
BLOCK
  8
0
  2
*X4
 70
    65
 10
0.0
 20
0.0
 30
0.0
  3
*X
  0
LINE
  8
0
 62
     0
 10
3.402845
 20
23.201835
 30
0.0
 11
7.102845
 21
26.901835
 31
0.0
  0
LINE
  8
0
 62
     0
 10
3.401176
 20
26.028593
 30
0.0
 11
7.102845
 21
29.730262
 31
0.0
  0
LINE
  8
0
 62
     0
 10
12.343426
 20
34.970843
 30
0.0
 11
13.102845
 21
35.730262
 31
0.0
  0
LINE
  8
0
 62
     0
 10
1.514999
 20
26.970843
 30
0.0
 11
7.102845
 21
32.558689
 31
0.0
  0
LINE
  8
0
 62
     0
 10
9.514999
 20
34.970843
 30
0.0
 11
13.102845
 21
38.558689
 31
0.0
  0
LINE
  8
0
 62
     0
 10
-1.313428
 20
26.970843
 30
0.0
 11
10.642664
 21
38.926935
 31
0.0
  0
LINE
  8
0
 62
     0
 10
-4.141855
 20
26.970843
 30
0.0
 11
7.641497
 21
38.754196
 31
0.0
  0
LINE
  8
0
 62
     0
 10
-6.970282
 20
26.970843
 30
0.0
 11
4.489571
 21
38.430696
 31
0.0
  0
LINE
  8
0
 62
     0
 10
-9.792651
 20
26.976902
 30
0.0
 11
1.158808
 21
37.92836
 31
0.0
  0
LINE
  8
0
 62
     0
 10
-11.335941
 20
28.262039
 30
0.0
 11
-2.390548
 21
37.207432
 31
0.0
  0
LINE
  8
0
 62
     0
 10
-11.397155
 20
31.029252
 30
0.0
 11
-6.21818
 21
36.208227
 31
0.0
  0
LINE
  8
0
 62
     0
 10
3.402845
 20
20.373408
 30
0.0
 11
7.102845
 21
24.073408
 31
0.0
  0
LINE
  8
0
 62
     0
 10
3.402845
 20
17.544981
 30
0.0
 11
7.102845
 21
21.244981
 31
0.0
  0
LINE
  8
0
 62
     0
 10
3.402845
 20
14.716553
 30
0.0
 11
7.102845
 21
18.416553
 31
0.0
  0
LINE
  8
0
 62
     0
 10
3.402845
 20
11.888126
 30
0.0
 11
7.102845
 21
15.588126
 31
0.0
  0
LINE
  8
0
 62
     0
 10
3.402845
 20
9.059699
 30
0.0
 11
7.102845
 21
12.759699
 31
0.0
  0
LINE
  8
0
 62
     0
 10
5.142416
 20
7.970843
 30
0.0
 11
7.102845
 21
9.931272
 31
0.0
  0
LINE
  8
0
 62
     0
 10
7.102845
 20
15.524572
 30
0.0
 11
3.402845
 21
19.224572
 31
0.0
  0
LINE
  8
0
 62
     0
 10
-4.343426
 20
26.970843
 30
0.0
 11
-11.120409
 21
33.747826
 31
0.0
  0
LINE
  8
0
 62
     0
 10
7.102845
 20
12.696145
 30
0.0
 11
3.402845
 21
16.396145
 31
0.0
  0
LINE
  8
0
 62
     0
 10
-7.171853
 20
26.970843
 30
0.0
 11
-11.397155
 21
31.196145
 31
0.0
  0
LINE
  8
0
 62
     0
 10
7.102845
 20
9.867718
 30
0.0
 11
3.402845
 21
13.567718
 31
0.0
  0
LINE
  8
0
 62
     0
 10
-10.04644
 20
27.017003
 30
0.0
 11
-11.350995
 21
28.321558
 31
0.0
  0
LINE
  8
0
 62
     0
 10
6.171293
 20
7.970843
 30
0.0
 11
3.402845
 21
10.739291
 31
0.0
  0
LINE
  8
0
 62
     0
 10
7.102845
 20
18.352999
 30
0.0
 11
3.402845
 21
22.052999
 31
0.0
  0
LINE
  8
0
 62
     0
 10
-1.514999
 20
26.970843
 30
0.0
 11
-9.650225
 21
35.106069
 31
0.0
  0
LINE
  8
0
 62
     0
 10
7.102845
 20
21.181426
 30
0.0
 11
3.402845
 21
24.881426
 31
0.0
  0
LINE
  8
0
 62
     0
 10
1.313428
 20
26.970843
 30
0.0
 11
-7.527558
 21
35.811829
 31
0.0
  0
LINE
  8
0
 62
     0
 10
7.102845
 20
24.009853
 30
0.0
 11
-5.344386
 21
36.457085
 31
0.0
  0
LINE
  8
0
 62
     0
 10
7.102845
 20
26.838281
 30
0.0
 11
-3.098982
 21
37.040108
 31
0.0
  0
LINE
  8
0
 62
     0
 10
7.102845
 20
29.666708
 30
0.0
 11
-0.787534
 21
37.557086
 31
0.0
  0
LINE
  8
0
 62
     0
 10
7.102845
 20
32.495135
 30
0.0
 11
1.594432
 21
38.003548
 31
0.0
  0
LINE
  8
0
 62
     0
 10
7.455564
 20
34.970843
 30
0.0
 11
4.052204
 21
38.374203
 31
0.0
  0
LINE
  8
0
 62
     0
 10
10.283991
 20
34.970843
 30
0.0
 11
6.592099
 21
38.662735
 31
0.0
  0
LINE
  8
0
 62
     0
 10
13.102845
 20
34.980416
 30
0.0
 11
9.221744
 21
38.861517
 31
0.0
  0
LINE
  8
0
 62
     0
 10
13.102845
 20
37.808843
 30
0.0
 11
11.950477
 21
38.961212
 31
0.0
  0
ENDBLK
  8
0
  0
BLOCK
  8
0
  2
*X5
 70
    65
 10
0.0
 20
0.0
 30
0.0
  3
*X
  0
LINE
  8
0
 62
     0
 10
55.255114
 20
26.970843
 30
0.0
 11
66.285416
 21
38.001145
 31
0.0
  0
LINE
  8
0
 62
     0
 10
52.426687
 20
26.970843
 30
0.0
 11
64.400928
 21
38.945083
 31
0.0
  0
LINE
  8
0
 62
     0
 10
49.59826
 20
26.970843
 30
0.0
 11
61.426854
 21
38.799437
 31
0.0
  0
LINE
  8
0
 62
     0
 10
46.769833
 20
26.970843
 30
0.0
 11
58.306588
 21
38.507598
 31
0.0
  0
LINE
  8
0
 62
     0
 10
43.941406
 20
26.970843
 30
0.0
 11
55.013771
 21
38.043209
 31
0.0
  0
LINE
  8
0
 62
     0
 10
42.008312
 20
27.866177
 30
0.0
 11
51.511431
 21
37.369296
 31
0.0
  0
LINE
  8
0
 62
     0
 10
41.785416
 20
30.471708
 30
0.0
 11
47.744787
 21
36.431078
 31
0.0
  0
LINE
  8
0
 62
     0
 10
41.940091
 20
33.45481
 30
0.0
 11
43.626138
 21
35.140857
 31
0.0
  0
LINE
  8
0
 62
     0
 10
56.585416
 20
25.472718
 30
0.0
 11
66.285416
 21
35.172718
 31
0.0
  0
LINE
  8
0
 62
     0
 10
56.585416
 20
22.644291
 30
0.0
 11
59.785416
 21
25.844291
 31
0.0
  0
LINE
  8
0
 62
     0
 10
59.911969
 20
25.970843
 30
0.0
 11
66.285416
 21
32.344291
 31
0.0
  0
LINE
  8
0
 62
     0
 10
56.585416
 20
19.815864
 30
0.0
 11
59.785416
 21
23.015864
 31
0.0
  0
LINE
  8
0
 62
     0
 10
62.740396
 20
25.970843
 30
0.0
 11
66.285416
 21
29.515864
 31
0.0
  0
LINE
  8
0
 62
     0
 10
56.585416
 20
16.987436
 30
0.0
 11
60.568823
 21
20.970843
 31
0.0
  0
LINE
  8
0
 62
     0
 10
65.568823
 20
25.970843
 30
0.0
 11
66.285416
 21
26.687436
 31
0.0
  0
LINE
  8
0
 62
     0
 10
56.585416
 20
14.159009
 30
0.0
 11
62.285416
 21
19.859009
 31
0.0
  0
LINE
  8
0
 62
     0
 10
56.585416
 20
11.330582
 30
0.0
 11
62.285416
 21
17.030582
 31
0.0
  0
LINE
  8
0
 62
     0
 10
56.585416
 20
8.502155
 30
0.0
 11
62.285416
 21
14.202155
 31
0.0
  0
LINE
  8
0
 62
     0
 10
58.882531
 20
7.970843
 30
0.0
 11
62.285416
 21
11.373728
 31
0.0
  0
LINE
  8
0
 62
     0
 10
61.710958
 20
7.970843
 30
0.0
 11
62.285416
 21
8.545301
 31
0.0
  0
LINE
  8
0
 62
     0
 10
62.285416
 20
14.082116
 30
0.0
 11
56.585416
 21
19.782116
 31
0.0
  0
LINE
  8
0
 62
     0
 10
49.396689
 20
26.970843
 30
0.0
 11
42.267162
 21
34.10037
 31
0.0
  0
LINE
  8
0
 62
     0
 10
62.285416
 20
11.253689
 30
0.0
 11
56.585416
 21
16.953689
 31
0.0
  0
LINE
  8
0
 62
     0
 10
46.568262
 20
26.970843
 30
0.0
 11
41.785416
 21
31.753689
 31
0.0
  0
LINE
  8
0
 62
     0
 10
62.285416
 20
8.425262
 30
0.0
 11
56.585416
 21
14.125262
 31
0.0
  0
LINE
  8
0
 62
     0
 10
43.739835
 20
26.970843
 30
0.0
 11
41.785416
 21
28.925262
 31
0.0
  0
LINE
  8
0
 62
     0
 10
59.911408
 20
7.970843
 30
0.0
 11
56.585416
 21
11.296835
 31
0.0
  0
LINE
  8
0
 62
     0
 10
57.082981
 20
7.970843
 30
0.0
 11
56.585416
 21
8.468408
 31
0.0
  0
LINE
  8
0
 62
     0
 10
62.285416
 20
16.910543
 30
0.0
 11
56.585416
 21
22.610543
 31
0.0
  0
LINE
  8
0
 62
     0
 10
52.225116
 20
26.970843
 30
0.0
 11
43.945006
 21
35.250953
 31
0.0
  0
LINE
  8
0
 62
     0
 10
62.285416
 20
19.73897
 30
0.0
 11
61.053544
 21
20.970843
 31
0.0
  0
LINE
  8
0
 62
     0
 10
55.053544
 20
26.970843
 30
0.0
 11
46.080601
 21
35.943785
 31
0.0
  0
LINE
  8
0
 62
     0
 10
59.785416
 20
22.23897
 30
0.0
 11
56.585416
 21
25.43897
 31
0.0
  0
LINE
  8
0
 62
     0
 10
59.785416
 20
25.067398
 30
0.0
 11
48.275766
 21
36.577048
 31
0.0
  0
LINE
  8
0
 62
     0
 10
61.710398
 20
25.970843
 30
0.0
 11
50.533868
 21
37.147373
 31
0.0
  0
LINE
  8
0
 62
     0
 10
64.538825
 20
25.970843
 30
0.0
 11
52.85884
 21
37.650828
 31
0.0
  0
LINE
  8
0
 62
     0
 10
66.285416
 20
27.052679
 30
0.0
 11
55.255301
 21
38.082794
 31
0.0
  0
LINE
  8
0
 62
     0
 10
66.285416
 20
29.881106
 30
0.0
 11
57.728725
 21
38.437797
 31
0.0
  0
LINE
  8
0
 62
     0
 10
66.285416
 20
32.709533
 30
0.0
 11
60.285661
 21
38.709288
 31
0.0
  0
LINE
  8
0
 62
     0
 10
66.285416
 20
35.53796
 30
0.0
 11
62.934037
 21
38.88934
 31
0.0
  0
LINE
  8
0
 62
     0
 10
66.285416
 20
38.366387
 30
0.0
 11
65.683587
 21
38.968216
 31
0.0
  0
ENDBLK
  8
0
  0
BLOCK
  8
0
  2
*X6
 70
    65
 10
0.0
 20
0.0
 30
0.0
  3
*X
  0
LINE
  8
0
 62
     0
 10
77.537102
 20
-117.62437
 30
0.0
 11
84.251396
 21
-110.910076
 31
0.0
  0
LINE
  8
0
 62
     0
 10
89.937581
 20
-105.223891
 30
0.0
 11
90.751396
 21
-104.410076
 31
0.0
  0
LINE
  8
0
 62
     0
 10
75.109154
 20
-117.223891
 30
0.0
 11
84.251396
 21
-108.081649
 31
0.0
  0
LINE
  8
0
 62
     0
 10
87.109154
 20
-105.223891
 30
0.0
 11
90.751396
 21
-101.581649
 31
0.0
  0
LINE
  8
0
 62
     0
 10
72.280727
 20
-117.223891
 30
0.0
 11
84.251396
 21
-105.253222
 31
0.0
  0
LINE
  8
0
 62
     0
 10
84.280727
 20
-105.223891
 30
0.0
 11
89.262125
 21
-100.242492
 31
0.0
  0
LINE
  8
0
 62
     0
 10
69.4523
 20
-117.223891
 30
0.0
 11
86.284762
 21
-100.391428
 31
0.0
  0
LINE
  8
0
 62
     0
 10
66.623873
 20
-117.223891
 30
0.0
 11
83.135481
 21
-100.712282
 31
0.0
  0
LINE
  8
0
 62
     0
 10
63.795445
 20
-117.223891
 30
0.0
 11
79.776738
 21
-101.242598
 31
0.0
  0
LINE
  8
0
 62
     0
 10
60.984858
 20
-117.20605
 30
0.0
 11
76.15205
 21
-102.038859
 31
0.0
  0
LINE
  8
0
 62
     0
 10
59.394833
 20
-115.967648
 30
0.0
 11
72.168998
 21
-103.193484
 31
0.0
  0
LINE
  8
0
 62
     0
 10
59.251396
 20
-113.282659
 30
0.0
 11
67.655224
 21
-104.878831
 31
0.0
  0
LINE
  8
0
 62
     0
 10
59.448437
 20
-110.257191
 30
0.0
 11
62.202968
 21
-107.50266
 31
0.0
  0
LINE
  8
0
 62
     0
 10
78.356171
 20
-119.633728
 30
0.0
 11
84.251396
 21
-113.738503
 31
0.0
  0
LINE
  8
0
 62
     0
 10
78.474022
 20
-122.344303
 30
0.0
 11
84.251396
 21
-116.56693
 31
0.0
  0
LINE
  8
0
 62
     0
 10
78.591873
 20
-125.054879
 30
0.0
 11
84.251396
 21
-119.395357
 31
0.0
  0
LINE
  8
0
 62
     0
 10
78.709725
 20
-127.765455
 30
0.0
 11
84.251396
 21
-122.223784
 31
0.0
  0
LINE
  8
0
 62
     0
 10
78.827576
 20
-130.476031
 30
0.0
 11
84.251396
 21
-125.052212
 31
0.0
  0
LINE
  8
0
 62
     0
 10
78.945427
 20
-133.186607
 30
0.0
 11
84.251396
 21
-127.880639
 31
0.0
  0
LINE
  8
0
 62
     0
 10
79.063278
 20
-135.897183
 30
0.0
 11
84.251396
 21
-130.709066
 31
0.0
  0
LINE
  8
0
 62
     0
 10
79.181129
 20
-138.607759
 30
0.0
 11
84.251396
 21
-133.537493
 31
0.0
  0
LINE
  8
0
 62
     0
 10
80.393425
 20
-140.223891
 30
0.0
 11
84.251396
 21
-136.36592
 31
0.0
  0
LINE
  8
0
 62
     0
 10
83.221852
 20
-140.223891
 30
0.0
 11
84.251396
 21
-139.194347
 31
0.0
  0
LINE
  8
0
 62
     0
 10
84.251396
 20
-126.677803
 30
0.0
 11
78.408392
 21
-120.834799
 31
0.0
  0
LINE
  8
0
 62
     0
 10
74.797484
 20
-117.223891
 30
0.0
 11
64.09027
 21
-106.516677
 31
0.0
  0
LINE
  8
0
 62
     0
 10
84.251396
 20
-129.50623
 30
0.0
 11
78.536957
 21
-123.791791
 31
0.0
  0
LINE
  8
0
 62
     0
 10
71.969057
 20
-117.223891
 30
0.0
 11
62.232002
 21
-107.486836
 31
0.0
  0
LINE
  8
0
 62
     0
 10
84.251396
 20
-132.334657
 30
0.0
 11
78.665521
 21
-126.748783
 31
0.0
  0
LINE
  8
0
 62
     0
 10
69.140629
 20
-117.223891
 30
0.0
 11
60.505383
 21
-108.588644
 31
0.0
  0
LINE
  8
0
 62
     0
 10
84.251396
 20
-135.163084
 30
0.0
 11
78.794086
 21
-129.705775
 31
0.0
  0
LINE
  8
0
 62
     0
 10
66.312202
 20
-117.223891
 30
0.0
 11
59.423795
 21
-110.335483
 31
0.0
  0
LINE
  8
0
 62
     0
 10
84.251396
 20
-137.991511
 30
0.0
 11
78.922651
 21
-132.662767
 31
0.0
  0
LINE
  8
0
 62
     0
 10
63.483775
 20
-117.223891
 30
0.0
 11
59.251396
 21
-112.991511
 31
0.0
  0
LINE
  8
0
 62
     0
 10
83.655348
 20
-140.223891
 30
0.0
 11
79.051216
 21
-135.619759
 31
0.0
  0
LINE
  8
0
 62
     0
 10
60.51474
 20
-117.083283
 30
0.0
 11
59.392004
 21
-115.960546
 31
0.0
  0
LINE
  8
0
 62
     0
 10
80.826921
 20
-140.223891
 30
0.0
 11
79.179781
 21
-138.576751
 31
0.0
  0
LINE
  8
0
 62
     0
 10
84.251396
 20
-123.849375
 30
0.0
 11
66.004129
 21
-105.602108
 31
0.0
  0
LINE
  8
0
 62
     0
 10
84.251396
 20
-121.020948
 30
0.0
 11
67.975717
 21
-104.745269
 31
0.0
  0
LINE
  8
0
 62
     0
 10
84.251396
 20
-118.192521
 30
0.0
 11
70.007554
 21
-103.948679
 31
0.0
  0
LINE
  8
0
 62
     0
 10
84.251396
 20
-115.364094
 30
0.0
 11
72.102605
 21
-103.215303
 31
0.0
  0
LINE
  8
0
 62
     0
 10
84.251396
 20
-112.535667
 30
0.0
 11
74.26437
 21
-102.548641
 31
0.0
  0
LINE
  8
0
 62
     0
 10
84.251396
 20
-109.70724
 30
0.0
 11
76.496996
 21
-101.95284
 31
0.0
  0
LINE
  8
0
 62
     0
 10
84.251396
 20
-106.878813
 30
0.0
 11
78.805427
 21
-101.432844
 31
0.0
  0
LINE
  8
0
 62
     0
 10
85.424901
 20
-105.223891
 30
0.0
 11
81.19561
 21
-100.9946
 31
0.0
  0
LINE
  8
0
 62
     0
 10
88.253328
 20
-105.223891
 30
0.0
 11
83.674764
 21
-100.645327
 31
0.0
  0
LINE
  8
0
 62
     0
 10
90.751396
 20
-104.893531
 30
0.0
 11
86.25178
 21
-100.393915
 31
0.0
  0
LINE
  8
0
 62
     0
 10
90.751396
 20
-102.065104
 30
0.0
 11
88.937771
 21
-100.25148
 31
0.0
  0
ENDBLK
  8
0
  0
BLOCK
  8
0
  2
*X7
 70
    65
 10
0.0
 20
0.0
 30
0.0
  3
*X
  0
LINE
  8
0
 62
     0
 10
145.538783
 20
-117.50494
 30
0.0
 11
158.931362
 21
-104.112361
 31
0.0
  0
LINE
  8
0
 62
     0
 10
142.991405
 20
-117.223891
 30
0.0
 11
158.931362
 21
-101.283934
 31
0.0
  0
LINE
  8
0
 62
     0
 10
140.162978
 20
-117.223891
 30
0.0
 11
157.13594
 21
-100.250929
 31
0.0
  0
LINE
  8
0
 62
     0
 10
137.334551
 20
-117.223891
 30
0.0
 11
154.141877
 21
-100.416564
 31
0.0
  0
LINE
  8
0
 62
     0
 10
134.506123
 20
-117.223891
 30
0.0
 11
150.972562
 21
-100.757452
 31
0.0
  0
LINE
  8
0
 62
     0
 10
131.677696
 20
-117.223891
 30
0.0
 11
147.588922
 21
-101.312665
 31
0.0
  0
LINE
  8
0
 62
     0
 10
128.916639
 20
-117.156521
 30
0.0
 11
143.931738
 21
-102.141422
 31
0.0
  0
LINE
  8
0
 62
     0
 10
127.500292
 20
-115.74444
 30
0.0
 11
139.903043
 21
-103.34169
 31
0.0
  0
LINE
  8
0
 62
     0
 10
127.431362
 20
-112.984944
 30
0.0
 11
135.316767
 21
-105.099539
 31
0.0
  0
LINE
  8
0
 62
     0
 10
127.828625
 20
-109.759253
 30
0.0
 11
129.715857
 21
-107.872022
 31
0.0
  0
LINE
  8
0
 62
     0
 10
146.523732
 20
-119.348417
 30
0.0
 11
158.931362
 21
-106.940788
 31
0.0
  0
LINE
  8
0
 62
     0
 10
146.641583
 20
-122.058993
 30
0.0
 11
158.931362
 21
-109.769215
 31
0.0
  0
LINE
  8
0
 62
     0
 10
146.759435
 20
-124.769569
 30
0.0
 11
150.931362
 21
-120.597642
 31
0.0
  0
LINE
  8
0
 62
     0
 10
153.305113
 20
-118.223891
 30
0.0
 11
158.931362
 21
-112.597642
 31
0.0
  0
LINE
  8
0
 62
     0
 10
146.877286
 20
-127.480145
 30
0.0
 11
150.931362
 21
-123.42607
 31
0.0
  0
LINE
  8
0
 62
     0
 10
156.13354
 20
-118.223891
 30
0.0
 11
158.931362
 21
-115.42607
 31
0.0
  0
LINE
  8
0
 62
     0
 10
146.995137
 20
-130.190721
 30
0.0
 11
152.961968
 21
-124.223891
 31
0.0
  0
LINE
  8
0
 62
     0
 10
147.112988
 20
-132.901297
 30
0.0
 11
153.931362
 21
-126.082924
 31
0.0
  0
LINE
  8
0
 62
     0
 10
147.230839
 20
-135.611873
 30
0.0
 11
153.931362
 21
-128.911351
 31
0.0
  0
LINE
  8
0
 62
     0
 10
147.34869
 20
-138.322449
 30
0.0
 11
153.931362
 21
-131.739778
 31
0.0
  0
LINE
  8
0
 62
     0
 10
148.275676
 20
-140.223891
 30
0.0
 11
153.931362
 21
-134.568205
 31
0.0
  0
LINE
  8
0
 62
     0
 10
151.104103
 20
-140.223891
 30
0.0
 11
153.931362
 21
-137.396632
 31
0.0
  0
LINE
  8
0
 62
     0
 10
153.931362
 20
-131.303945
 30
0.0
 11
146.730455
 21
-124.103038
 31
0.0
  0
LINE
  8
0
 62
     0
 10
139.851308
 20
-117.223891
 30
0.0
 11
130.219527
 21
-107.59211
 31
0.0
  0
LINE
  8
0
 62
     0
 10
153.931362
 20
-134.132372
 30
0.0
 11
146.85902
 21
-127.06003
 31
0.0
  0
LINE
  8
0
 62
     0
 10
137.02288
 20
-117.223891
 30
0.0
 11
128.536133
 21
-108.737143
 31
0.0
  0
LINE
  8
0
 62
     0
 10
153.931362
 20
-136.960799
 30
0.0
 11
146.987585
 21
-130.017022
 31
0.0
  0
LINE
  8
0
 62
     0
 10
134.194453
 20
-117.223891
 30
0.0
 11
127.540348
 21
-110.569785
 31
0.0
  0
LINE
  8
0
 62
     0
 10
153.931362
 20
-139.789226
 30
0.0
 11
147.116149
 21
-132.974014
 31
0.0
  0
LINE
  8
0
 62
     0
 10
131.366026
 20
-117.223891
 30
0.0
 11
127.431362
 21
-113.289226
 31
0.0
  0
LINE
  8
0
 62
     0
 10
151.537599
 20
-140.223891
 30
0.0
 11
147.244714
 21
-135.931006
 31
0.0
  0
LINE
  8
0
 62
     0
 10
148.709172
 20
-140.223891
 30
0.0
 11
147.373279
 21
-138.887998
 31
0.0
  0
LINE
  8
0
 62
     0
 10
153.931362
 20
-128.475517
 30
0.0
 11
146.60189
 21
-121.146046
 31
0.0
  0
LINE
  8
0
 62
     0
 10
142.679735
 20
-117.223891
 30
0.0
 11
132.072054
 21
-106.61621
 31
0.0
  0
LINE
  8
0
 62
     0
 10
153.931362
 20
-125.64709
 30
0.0
 11
152.508162
 21
-124.223891
 31
0.0
  0
LINE
  8
0
 62
     0
 10
150.931362
 20
-122.64709
 30
0.0
 11
133.979967
 21
-105.695696
 31
0.0
  0
LINE
  8
0
 62
     0
 10
150.931362
 20
-119.818663
 30
0.0
 11
135.945367
 21
-104.832669
 31
0.0
  0
LINE
  8
0
 62
     0
 10
152.165016
 20
-118.223891
 30
0.0
 11
137.970731
 21
-104.029605
 31
0.0
  0
LINE
  8
0
 62
     0
 10
154.993443
 20
-118.223891
 30
0.0
 11
140.058974
 21
-103.289421
 31
0.0
  0
LINE
  8
0
 62
     0
 10
157.82187
 20
-118.223891
 30
0.0
 11
142.213533
 21
-102.615554
 31
0.0
  0
LINE
  8
0
 62
     0
 10
158.931362
 20
-116.504955
 30
0.0
 11
144.438483
 21
-102.012076
 31
0.0
  0
LINE
  8
0
 62
     0
 10
158.931362
 20
-113.676528
 30
0.0
 11
146.738675
 21
-101.483841
 31
0.0
  0
LINE
  8
0
 62
     0
 10
158.931362
 20
-110.8481
 30
0.0
 11
149.119937
 21
-101.036676
 31
0.0
  0
LINE
  8
0
 62
     0
 10
158.931362
 20
-108.019673
 30
0.0
 11
151.589341
 21
-100.677653
 31
0.0
  0
LINE
  8
0
 62
     0
 10
158.931362
 20
-105.191246
 30
0.0
 11
154.155577
 21
-100.415461
 31
0.0
  0
LINE
  8
0
 62
     0
 10
158.931362
 20
-102.362819
 30
0.0
 11
156.829492
 21
-100.260949
 31
0.0
  0
ENDBLK
  8
0
  0
BLOCK
  8
0
  2
A_WN_435_E_60_
 70
     0
 10
0.0
 20
0.0
 30
0.0
  3
A_WN_435_E_60_
  0
INSERT
  8
0
  2
*X6
 10
-90.751396
 20
140.223891
 30
0.0
  0
LINE
  8
0
 10
-4.25
 20
31.648207
 30
0.0
 11
0.0
 21
34.101945
 31
0.0
  0
LINE
  8
0
 10
-4.25
 20
0.0
 30
0.0
 11
-4.25
 21
31.648207
 31
0.0
  0
LINE
  8
0
 10
-5.0
 20
0.0
 30
0.0
 11
-5.0
 21
30.0
 31
0.0
  0
LINE
  8
0
 10
-5.0
 20
30.0
 30
0.0
 11
0.0
 21
30.0
 31
0.0
  0
LINE
  8
0
 10
-6.5
 20
35.0
 30
0.0
 11
-6.5
 21
0.0
 31
0.0
  0
LINE
  8
0
 10
0.0
 20
35.0
 30
0.0
 11
-6.5
 21
35.0
 31
0.0
  0
LINE
  8
0
  6
CENTER
 10
0.0
 20
-1.326875
 30
0.0
 11
0.0
 21
42.119924
 31
0.0
  0
ARC
  8
0
 10
14.414933
 20
21.0
 30
0.0
 40
2.0
 50
90.0
 51
177.510447
  0
ARC
  8
0
 10
-14.414933
 20
21.0
 30
0.0
 40
2.0
 50
2.489553
 51
90.0
  0
LINE
  8
0
 10
0.0
 20
23.0
 30
0.0
 11
29.5
 21
23.0
 31
0.0
  0
LINE
  8
0
 10
-11.5
 20
0.0
 30
0.0
 11
-12.416821
 21
21.086874
 31
0.0
  0
LINE
  8
0
 10
12.416821
 20
21.086874
 30
0.0
 11
11.5
 21
0.0
 31
0.0
  0
ARC
  8
0
 10
29.5
 20
25.0
 30
0.0
 40
2.0
 50
270.0
 51
0.0
  0
ARC
  8
0
 10
-29.5
 20
25.0
 30
0.0
 40
2.0
 50
180.0
 51
270.0
  0
ARC
  8
0
 10
27.5
 20
28.726739
 30
0.0
 40
4.0
 50
0.0
 51
60.370992
  0
ARC
  8
0
 10
-27.5
 20
28.726739
 30
0.0
 40
4.0
 50
119.629008
 51
180.0
  0
ARC
  8
0
 10
0.0
 20
-19.625
 30
0.0
 40
59.625
 50
60.370992
 51
119.629008
  0
LINE
  8
0
 10
-29.5
 20
23.0
 30
0.0
 11
-14.414933
 21
23.0
 31
0.0
  0
LINE
  8
0
 10
31.5
 20
25.0
 30
0.0
 11
31.5
 21
28.726739
 31
0.0
  0
LINE
  8
0
 10
-31.5
 20
25.0
 30
0.0
 11
-31.5
 21
28.726739
 31
0.0
  0
LINE
  8
0
 10
-11.5
 20
0.0
 30
0.0
 11
11.5
 21
0.0
 31
0.0
  0
ENDBLK
  8
0
  0
BLOCK
  8
0
  2
B_WN_435_E_60_
 70
     0
 10
0.0
 20
0.0
 30
0.0
  3
B_WN_435_E_60_
  0
LINE
  8
0
 10
5.5
 20
26.0
 30
0.0
 11
5.5
 21
23.5
 31
0.0
  0
ARC
  8
0
 10
23.5
 20
23.5
 30
0.0
 40
18.0
 50
180.0
 51
270.0
  0
LINE
  8
0
 10
26.0
 20
5.5
 30
0.0
 11
23.5
 21
5.5
 31
0.0
  0
ARC
  8
0
 10
26.0
 20
0.0
 30
0.0
 40
5.5
 50
270.0
 51
90.0
  0
LINE
  8
0
 10
26.0
 20
-5.5
 30
0.0
 11
23.5
 21
-5.5
 31
0.0
  0
ARC
  8
0
 10
23.5
 20
-23.5
 30
0.0
 40
18.0
 50
90.0
 51
180.0
  0
LINE
  8
0
 10
5.5
 20
-26.0
 30
0.0
 11
5.5
 21
-23.5
 31
0.0
  0
ARC
  8
0
 10
0.0
 20
-25.635006
 30
0.0
 40
5.5
 50
180.0
 51
0.0
  0
LINE
  8
0
 10
-5.5
 20
-26.0
 30
0.0
 11
-5.5
 21
-23.5
 31
0.0
  0
ARC
  8
0
 10
-23.5
 20
-23.5
 30
0.0
 40
18.0
 50
0.0
 51
90.0
  0
LINE
  8
0
 10
-26.0
 20
-5.5
 30
0.0
 11
-23.5
 21
-5.5
 31
0.0
  0
ARC
  8
0
 10
-26.0
 20
0.0
 30
0.0
 40
5.5
 50
90.0
 51
270.0
  0
ARC
  8
0
 10
-23.5
 20
23.5
 30
0.0
 40
18.0
 50
270.0
 51
0.0
  0
LINE
  8
0
 10
-5.5
 20
26.0
 30
0.0
 11
-5.5
 21
23.5
 31
0.0
  0
LINE
  8
0
 10
-26.0
 20
5.5
 30
0.0
 11
-23.5
 21
5.5
 31
0.0
  0
ARC
  8
0
 10
0.0
 20
26.0
 30
0.0
 40
5.5
 50
0.0
 51
180.0
  0
ENDBLK
  8
0
  0
BLOCK
  8
0
  2
A_WN_435_T_60_
 70
     0
 10
0.0
 20
0.0
 30
0.0
  3
A_WN_435_T_60_
  0
LINE
  8
0
 10
4.25
 20
-25.0
 30
0.0
 11
5.0
 21
-24.25
 31
0.0
  0
LINE
  8
0
 10
-4.25
 20
-25.0
 30
0.0
 11
-5.0
 21
-24.25
 31
0.0
  0
LINE
  8
0
 10
0.0
 20
0.0
 30
0.0
 11
11.5
 21
0.0
 31
0.0
  0
LINE
  8
0
 10
4.25
 20
0.0
 30
0.0
 11
4.25
 21
-25.0
 31
0.0
  0
LINE
  8
0
 10
-4.25
 20
0.0
 30
0.0
 11
-4.25
 21
-25.0
 31
0.0
  0
LINE
  8
0
 10
5.0
 20
0.0
 30
0.0
 11
5.0
 21
-24.25
 31
0.0
  0
LINE
  8
0
 10
-4.25
 20
-25.0
 30
0.0
 11
4.25
 21
-25.0
 31
0.0
  0
INSERT
  8
0
  2
*X7
 10
-158.931362
 20
140.223891
 30
0.0
  0
LINE
  8
0
 10
-5.0
 20
16.0
 30
0.0
 11
-5.0
 21
-24.25
 31
0.0
  0
LINE
  8
0
 10
-8.0
 20
16.0
 30
0.0
 11
-5.0
 21
16.0
 31
0.0
  0
LINE
  8
0
 10
-8.0
 20
22.0
 30
0.0
 11
-8.0
 21
16.0
 31
0.0
  0
LINE
  8
0
 10
0.0
 20
22.0
 30
0.0
 11
-8.0
 21
22.0
 31
0.0
  0
LINE
  8
0
 10
-11.5
 20
0.0
 30
0.0
 11
-4.25
 21
0.0
 31
0.0
  0
LINE
  8
0
 10
-31.5
 20
25.0
 30
0.0
 11
-31.5
 21
28.726739
 31
0.0
  0
LINE
  8
0
 10
31.5
 20
25.0
 30
0.0
 11
31.5
 21
28.726739
 31
0.0
  0
LINE
  8
0
 10
-29.5
 20
23.0
 30
0.0
 11
-14.414933
 21
23.0
 31
0.0
  0
ARC
  8
0
 10
0.0
 20
-19.625
 30
0.0
 40
59.625
 50
60.370992
 51
119.629008
  0
ARC
  8
0
 10
-27.5
 20
28.726739
 30
0.0
 40
4.0
 50
119.629008
 51
180.0
  0
ARC
  8
0
 10
27.5
 20
28.726739
 30
0.0
 40
4.0
 50
0.0
 51
60.370992
  0
ARC
  8
0
 10
-29.5
 20
25.0
 30
0.0
 40
2.0
 50
180.0
 51
270.0
  0
ARC
  8
0
 10
29.5
 20
25.0
 30
0.0
 40
2.0
 50
270.0
 51
0.0
  0
LINE
  8
0
 10
12.416821
 20
21.086874
 30
0.0
 11
11.5
 21
0.0
 31
0.0
  0
LINE
  8
0
 10
-11.5
 20
0.0
 30
0.0
 11
-12.416821
 21
21.086874
 31
0.0
  0
LINE
  8
0
 10
0.0
 20
23.0
 30
0.0
 11
29.5
 21
23.0
 31
0.0
  0
ARC
  8
0
 10
-14.414933
 20
21.0
 30
0.0
 40
2.0
 50
2.489553
 51
90.0
  0
ARC
  8
0
 10
14.414933
 20
21.0
 30
0.0
 40
2.0
 50
90.0
 51
177.510447
  0
LINE
  8
0
  6
CENTER
 10
0.0
 20
-25.562186
 30
0.0
 11
0.0
 21
42.119924
 31
0.0
  0
ENDBLK
  8
0
  0
BLOCK
  8
0
  2
B_WN_435_T_60_
 70
     0
 10
0.0
 20
0.0
 30
0.0
  3
B_WN_435_T_60_
  0
ARC
  8
0
 10
0.0
 20
26.0
 30
0.0
 40
5.5
 50
0.0
 51
180.0
  0
LINE
  8
0
 10
-26.0
 20
5.5
 30
0.0
 11
-23.5
 21
5.5
 31
0.0
  0
LINE
  8
0
 10
-5.5
 20
26.0
 30
0.0
 11
-5.5
 21
23.5
 31
0.0
  0
ARC
  8
0
 10
-23.5
 20
23.5
 30
0.0
 40
18.0
 50
270.0
 51
0.0
  0
ARC
  8
0
 10
-26.0
 20
0.0
 30
0.0
 40
5.5
 50
90.0
 51
270.0
  0
LINE
  8
0
 10
-26.0
 20
-5.5
 30
0.0
 11
-23.5
 21
-5.5
 31
0.0
  0
ARC
  8
0
 10
-23.5
 20
-23.5
 30
0.0
 40
18.0
 50
0.0
 51
90.0
  0
LINE
  8
0
 10
-5.5
 20
-26.0
 30
0.0
 11
-5.5
 21
-23.5
 31
0.0
  0
ARC
  8
0
 10
0.0
 20
-25.635006
 30
0.0
 40
5.5
 50
180.0
 51
0.0
  0
LINE
  8
0
 10
5.5
 20
-26.0
 30
0.0
 11
5.5
 21
-23.5
 31
0.0
  0
ARC
  8
0
 10
23.5
 20
-23.5
 30
0.0
 40
18.0
 50
90.0
 51
180.0
  0
LINE
  8
0
 10
26.0
 20
-5.5
 30
0.0
 11
23.5
 21
-5.5
 31
0.0
  0
ARC
  8
0
 10
26.0
 20
0.0
 30
0.0
 40
5.5
 50
270.0
 51
90.0
  0
LINE
  8
0
 10
26.0
 20
5.5
 30
0.0
 11
23.5
 21
5.5
 31
0.0
  0
ARC
  8
0
 10
23.5
 20
23.5
 30
0.0
 40
18.0
 50
180.0
 51
270.0
  0
LINE
  8
0
 10
5.5
 20
26.0
 30
0.0
 11
5.5
 21
23.5
 31
0.0
  0
ENDBLK
  8
0
  0
BLOCK
  8
0
  2
*X12
 70
    65
 10
0.0
 20
0.0
 30
0.0
  3
*X
  0
LINE
  8
0
 62
     0
 10
-189.748653
 20
-21.810793
 30
0.0
 11
-187.248653
 21
-19.310793
 31
0.0
  0
LINE
  8
0
 62
     0
 10
-189.748653
 20
-20.043026
 30
0.0
 11
-187.248653
 21
-17.543026
 31
0.0
  0
LINE
  8
0
 62
     0
 10
-189.748653
 20
-18.275259
 30
0.0
 11
-187.248653
 21
-15.775259
 31
0.0
  0
LINE
  8
0
 62
     0
 10
-189.748653
 20
-16.507492
 30
0.0
 11
-187.248653
 21
-14.007492
 31
0.0
  0
LINE
  8
0
 62
     0
 10
-189.748653
 20
-14.739725
 30
0.0
 11
-184.748653
 21
-9.739725
 31
0.0
  0
LINE
  8
0
 62
     0
 10
-189.748653
 20
-12.971958
 30
0.0
 11
-185.778909
 21
-9.002213
 31
0.0
  0
LINE
  8
0
 62
     0
 10
-189.748653
 20
-11.204191
 30
0.0
 11
-187.546676
 21
-9.002213
 31
0.0
  0
LINE
  8
0
 62
     0
 10
-189.748653
 20
-9.436424
 30
0.0
 11
-189.314443
 21
-9.002213
 31
0.0
  0
LINE
  8
0
 62
     0
 10
-189.748653
 20
-23.578559
 30
0.0
 11
-187.248653
 21
-21.078559
 31
0.0
  0
LINE
  8
0
 62
     0
 10
-189.748653
 20
-25.346326
 30
0.0
 11
-187.248653
 21
-22.846326
 31
0.0
  0
LINE
  8
0
 62
     0
 10
-189.748653
 20
-27.114093
 30
0.0
 11
-187.248653
 21
-24.614093
 31
0.0
  0
LINE
  8
0
 62
     0
 10
-189.748653
 20
-28.88186
 30
0.0
 11
-187.248653
 21
-26.38186
 31
0.0
  0
LINE
  8
0
 62
     0
 10
-188.101239
 20
-29.002213
 30
0.0
 11
-187.248653
 21
-28.149627
 31
0.0
  0
ENDBLK
  8
0
  0
BLOCK
  8
0
  2
*X13
 70
    65
 10
0.0
 20
0.0
 30
0.0
  3
*X
  0
LINE
  8
0
 62
     0
 10
-100.410432
 20
-12.905967
 30
0.0
 11
-97.810432
 21
-10.305967
 31
0.0
  0
LINE
  8
0
 62
     0
 10
-100.410432
 20
-10.254317
 30
0.0
 11
-97.810432
 21
-7.654317
 31
0.0
  0
LINE
  8
0
 62
     0
 10
-100.410432
 20
-7.602667
 30
0.0
 11
-97.810432
 21
-5.002667
 31
0.0
  0
LINE
  8
0
 62
     0
 10
-100.410432
 20
-4.951016
 30
0.0
 11
-97.810432
 21
-2.351016
 31
0.0
  0
LINE
  8
0
 62
     0
 10
-100.410432
 20
-2.299366
 30
0.0
 11
-97.810432
 21
0.300634
 31
0.0
  0
LINE
  8
0
 62
     0
 10
-94.848505
 20
3.262561
 30
0.0
 11
-94.410432
 21
3.700634
 31
0.0
  0
LINE
  8
0
 62
     0
 10
-100.410432
 20
0.352285
 30
0.0
 11
-96.715971
 21
4.046745
 31
0.0
  0
LINE
  8
0
 62
     0
 10
-100.410432
 20
3.003935
 30
0.0
 11
-99.367622
 21
4.046745
 31
0.0
  0
LINE
  8
0
 62
     0
 10
-100.410432
 20
-15.557618
 30
0.0
 11
-97.810432
 21
-12.957618
 31
0.0
  0
LINE
  8
0
 62
     0
 10
-100.410432
 20
-18.209268
 30
0.0
 11
-97.810432
 21
-15.609268
 31
0.0
  0
LINE
  8
0
 62
     0
 10
-100.410432
 20
-20.860919
 30
0.0
 11
-97.810432
 21
-18.260919
 31
0.0
  0
LINE
  8
0
 62
     0
 10
-99.851118
 20
-22.953255
 30
0.0
 11
-97.810432
 21
-20.912569
 31
0.0
  0
ENDBLK
  8
0
  0
BLOCK
  8
0
  2
*X14
 70
    65
 10
0.0
 20
0.0
 30
0.0
  3
*X
  0
LINE
  8
0
 62
     0
 10
19.373594
 20
6.115342
 30
0.0
 11
21.623594
 21
8.365342
 31
0.0
  0
LINE
  8
0
 62
     0
 10
19.373594
 20
8.766993
 30
0.0
 11
21.623594
 21
11.016993
 31
0.0
  0
LINE
  8
0
 62
     0
 10
19.373594
 20
11.418643
 30
0.0
 11
21.623594
 21
13.668643
 31
0.0
  0
LINE
  8
0
 62
     0
 10
19.373594
 20
14.070294
 30
0.0
 11
21.623594
 21
16.320294
 31
0.0
  0
LINE
  8
0
 62
     0
 10
19.373594
 20
16.721944
 30
0.0
 11
21.623594
 21
18.971944
 31
0.0
  0
LINE
  8
0
 62
     0
 10
19.373594
 20
19.373594
 30
0.0
 11
21.623594
 21
21.623594
 31
0.0
  0
LINE
  8
0
 62
     0
 10
23.723616
 20
23.723616
 30
0.0
 11
25.862961
 21
25.862961
 31
0.0
  0
LINE
  8
0
 62
     0
 10
19.373594
 20
22.025245
 30
0.0
 11
23.211311
 21
25.862961
 31
0.0
  0
LINE
  8
0
 62
     0
 10
19.373594
 20
24.676895
 30
0.0
 11
20.55966
 21
25.862961
 31
0.0
  0
LINE
  8
0
 62
     0
 10
19.373594
 20
3.463692
 30
0.0
 11
21.623594
 21
5.713692
 31
0.0
  0
LINE
  8
0
 62
     0
 10
19.373594
 20
0.812041
 30
0.0
 11
21.623594
 21
3.062041
 31
0.0
  0
LINE
  8
0
 62
     0
 10
19.373594
 20
-1.839609
 30
0.0
 11
21.623594
 21
0.410391
 31
0.0
  0
LINE
  8
0
 62
     0
 10
19.373594
 20
-4.491259
 30
0.0
 11
21.623594
 21
-2.241259
 31
0.0
  0
LINE
  8
0
 62
     0
 10
19.373594
 20
-7.14291
 30
0.0
 11
21.623594
 21
-4.89291
 31
0.0
  0
LINE
  8
0
 62
     0
 10
20.031116
 20
-9.137039
 30
0.0
 11
21.623594
 21
-7.54456
 31
0.0
  0
ENDBLK
  8
0
  0
ENDSEC
  0
SECTION
  2
ENTITIES
  0
LINE
  8
0
 10
-162.896252
 20
-74.549412
 30
0.0
 11
-160.410306
 21
-73.617928
 31
0.0
  0
LINE
  8
0
 10
-150.110113
 20
-61.763273
 30
0.0
 11
-151.041597
 21
-64.249219
 31
0.0
  0
ARC
  8
0
 10
-166.024341
 20
-58.635184
 30
0.0
 40
16.0
 50
290.540978
 51
339.459022
  0
ARC
  8
0
 10
-129.513777
 20
-58.635184
 30
0.0
 40
16.0
 50
200.540978
 51
249.459022
  0
LINE
  8
0
 10
-132.641866
 20
-74.549412
 30
0.0
 11
-135.127812
 21
-73.617928
 31
0.0
  0
LINE
  8
0
 10
-145.428005
 20
-61.763273
 30
0.0
 11
-144.496521
 21
-64.249219
 31
0.0
  0
ARC
  8
0
 10
-166.024341
 20
-95.145748
 30
0.0
 40
16.0
 50
20.540978
 51
69.459022
  0
LINE
  8
0
 10
-162.896252
 20
-79.23152
 30
0.0
 11
-160.410306
 21
-80.163004
 31
0.0
  0
LINE
  8
0
 10
-150.110113
 20
-92.017659
 30
0.0
 11
-151.041597
 21
-89.531713
 31
0.0
  0
LINE
  8
0
 10
-145.428005
 20
-92.017659
 30
0.0
 11
-144.496521
 21
-89.531713
 31
0.0
  0
ARC
  8
0
 10
-129.513777
 20
-95.145748
 30
0.0
 40
16.0
 50
110.540978
 51
159.459022
  0
LINE
  8
0
 10
-132.641866
 20
-79.23152
 30
0.0
 11
-135.127812
 21
-80.163004
 31
0.0
  0
ARC
  8
0
 10
-147.769059
 20
-91.140466
 30
0.0
 40
2.5
 50
200.540978
 51
339.459022
  0
ARC
  8
0
 10
-133.519059
 20
-76.890466
 30
0.0
 40
2.5
 50
290.540978
 51
69.459022
  0
ARC
  8
0
 10
-162.019059
 20
-76.890466
 30
0.0
 40
2.5
 50
110.540978
 51
249.459022
  0
ARC
  8
0
 10
-147.769059
 20
-62.640466
 30
0.0
 40
2.5
 50
20.540978
 51
159.459022
  0
LINE
  8
0
 10
-201.498653
 20
-15.002213
 30
0.0
 11
-201.498653
 21
-10.093867
 31
0.0
  0
LINE
  8
0
 10
-167.998653
 20
-15.002213
 30
0.0
 11
-167.998653
 21
-10.093867
 31
0.0
  0
LINE
  8
0
 10
-201.498653
 20
-15.002213
 30
0.0
 11
-192.998653
 21
-15.002213
 31
0.0
  0
LINE
  8
0
 10
-191.998653
 20
-29.002213
 30
0.0
 11
-177.498653
 21
-29.002213
 31
0.0
  0
LINE
  8
0
 10
-191.998653
 20
-29.002213
 30
0.0
 11
-191.998653
 21
-16.002213
 31
0.0
  0
LINE
  8
0
 10
-177.498653
 20
-29.002213
 30
0.0
 11
-177.498653
 21
-16.002213
 31
0.0
  0
ARC
  8
0
 10
-184.748653
 20
-77.642838
 30
0.0
 40
71.140625
 50
77.682234
 51
102.317766
  0
ARC
  8
0
 10
-199.498653
 20
-10.093867
 30
0.0
 40
2.0
 50
102.317766
 51
180.0
  0
ARC
  8
0
 10
-169.998653
 20
-10.093867
 30
0.0
 40
2.0
 50
0.0
 51
77.682234
  0
LINE
  8
0
 10
-184.748653
 20
-15.002213
 30
0.0
 11
-167.998653
 21
-15.002213
 31
0.0
  0
ARC
  8
0
 10
-192.998653
 20
-16.002213
 30
0.0
 40
1.0
 50
0.0
 51
90.0
  0
ARC
  8
0
 10
-176.498653
 20
-16.002213
 30
0.0
 40
1.0
 50
90.0
 51
180.0
  0
LINE
  8
0
 10
-189.748653
 20
-29.002213
 30
0.0
 11
-189.748653
 21
-9.002213
 31
0.0
  0
LINE
  8
0
 10
-189.748653
 20
-9.002213
 30
0.0
 11
-184.748653
 21
-9.002213
 31
0.0
  0
LINE
  8
0
 10
-187.748653
 20
-29.002213
 30
0.0
 11
-187.748653
 21
-14.002213
 31
0.0
  0
LINE
  8
0
 10
-187.748653
 20
-14.002213
 30
0.0
 11
-184.748653
 21
-14.002213
 31
0.0
  0
LINE
  8
0
  6
CENTER
 10
-184.748653
 20
-31.018117
 30
0.0
 11
-184.748653
 21
-4.360379
 31
0.0
  0
INSERT
  8
0
  2
*X0
 10
-111.776895
 20
-20.128517
 30
0.0
  0
ARC
  8
0
 10
-94.410432
 20
-56.390466
 30
0.0
 40
4.0
 50
0.0
 51
180.0
  0
LINE
  8
0
 10
-114.910432
 20
-72.890466
 30
0.0
 11
-112.410432
 21
-72.890466
 31
0.0
  0
LINE
  8
0
 10
-98.410432
 20
-58.890466
 30
0.0
 11
-98.410432
 21
-56.390466
 31
0.0
  0
ARC
  8
0
 10
-112.410432
 20
-58.890466
 30
0.0
 40
14.0
 50
270.0
 51
0.0
  0
ARC
  8
0
 10
-114.910432
 20
-76.890466
 30
0.0
 40
4.0
 50
90.0
 51
270.0
  0
LINE
  8
0
 10
-112.410432
 20
-80.890466
 30
0.0
 11
-114.910432
 21
-80.890466
 31
0.0
  0
ARC
  8
0
 10
-112.410432
 20
-94.890466
 30
0.0
 40
14.0
 50
0.0
 51
90.0
  0
LINE
  8
0
 10
-98.410432
 20
-97.390466
 30
0.0
 11
-98.410432
 21
-94.890466
 31
0.0
  0
ARC
  8
0
 10
-94.410432
 20
-97.390466
 30
0.0
 40
4.0
 50
180.0
 51
0.0
  0
LINE
  8
0
 10
-90.410432
 20
-94.890466
 30
0.0
 11
-90.410432
 21
-97.390466
 31
0.0
  0
ARC
  8
0
 10
-76.410432
 20
-94.890466
 30
0.0
 40
14.0
 50
90.0
 51
180.0
  0
LINE
  8
0
 10
-73.910432
 20
-80.890466
 30
0.0
 11
-76.410432
 21
-80.890466
 31
0.0
  0
ARC
  8
0
 10
-73.910432
 20
-76.890466
 30
0.0
 40
4.0
 50
270.0
 51
90.0
  0
LINE
  8
0
 10
-76.410432
 20
-72.890466
 30
0.0
 11
-73.910432
 21
-72.890466
 31
0.0
  0
ARC
  8
0
 10
-76.410432
 20
-58.890466
 30
0.0
 40
14.0
 50
180.0
 51
270.0
  0
LINE
  8
0
 10
-90.410432
 20
-56.390466
 30
0.0
 11
-90.410432
 21
-58.890466
 31
0.0
  0
LINE
  8
0
 10
-118.910432
 20
-2.203255
 30
0.0
 11
-118.910432
 21
1.621433
 31
0.0
  0
LINE
  8
0
 10
-69.910432
 20
-2.203255
 30
0.0
 11
-69.910432
 21
1.621433
 31
0.0
  0
LINE
  8
0
 10
-104.110432
 20
-22.953255
 30
0.0
 11
-84.710432
 21
-22.953255
 31
0.0
  0
LINE
  8
0
 10
-117.160432
 20
-3.953255
 30
0.0
 11
-105.110432
 21
-3.953255
 31
0.0
  0
ARC
  8
0
 10
-94.410432
 20
-60.8977
 30
0.0
 40
68.944444
 50
70.817546
 51
109.182454
  0
ARC
  8
0
 10
-116.160432
 20
1.621433
 30
0.0
 40
2.75
 50
109.182454
 51
180.0
  0
ARC
  8
0
 10
-72.660432
 20
1.621433
 30
0.0
 40
2.75
 50
0.0
 51
70.817546
  0
ARC
  8
0
 10
-117.160432
 20
-2.203255
 30
0.0
 40
1.75
 50
180.0
 51
270.0
  0
ARC
  8
0
 10
-71.660432
 20
-2.203255
 30
0.0
 40
1.75
 50
270.0
 51
0.0
  0
LINE
  8
0
 10
-104.110432
 20
-22.953255
 30
0.0
 11
-104.110432
 21
-4.953255
 31
0.0
  0
LINE
  8
0
 10
-84.710432
 20
-22.953255
 30
0.0
 11
-84.710432
 21
-4.953255
 31
0.0
  0
LINE
  8
0
 10
-94.410432
 20
-3.953255
 30
0.0
 11
-71.660432
 21
-3.953255
 31
0.0
  0
ARC
  8
0
 10
-105.110432
 20
-4.953255
 30
0.0
 40
1.0
 50
0.0
 51
90.0
  0
ARC
  8
0
 10
-83.710432
 20
-4.953255
 30
0.0
 40
1.0
 50
90.0
 51
180.0
  0
LINE
  8
0
  6
CENTER
 10
-94.410432
 20
-24.969159
 30
0.0
 11
-94.410432
 21
10.104625
 31
0.0
  0
LINE
  8
0
 10
-94.410432
 20
4.046745
 30
0.0
 11
-100.410432
 21
4.046745
 31
0.0
  0
LINE
  8
0
 10
-100.410432
 20
4.046745
 30
0.0
 11
-100.410432
 21
-22.953255
 31
0.0
  0
LINE
  8
0
 10
-98.410432
 20
-22.953255
 30
0.0
 11
-98.410432
 21
0.046745
 31
0.0
  0
LINE
  8
0
 10
-98.410432
 20
0.046745
 30
0.0
 11
-94.410432
 21
0.046745
 31
0.0
  0
LINE
  8
0
  6
CENTER
 10
-147.769059
 20
-51.092189
 30
0.0
 11
-147.769059
 21
-4.360379
 31
0.0
  0
ARC
  8
0
 10
-139.519059
 20
-16.002213
 30
0.0
 40
1.0
 50
90.0
 51
180.0
  0
ARC
  8
0
 10
-156.019059
 20
-16.002213
 30
0.0
 40
1.0
 50
0.0
 51
90.0
  0
LINE
  8
0
 10
-147.769059
 20
-15.002213
 30
0.0
 11
-131.019059
 21
-15.002213
 31
0.0
  0
ARC
  8
0
 10
-133.019059
 20
-10.093867
 30
0.0
 40
2.0
 50
0.0
 51
77.682234
  0
ARC
  8
0
 10
-162.519059
 20
-10.093867
 30
0.0
 40
2.0
 50
102.317766
 51
180.0
  0
ARC
  8
0
 10
-147.769059
 20
-77.642838
 30
0.0
 40
71.140625
 50
77.682234
 51
102.317766
  0
LINE
  8
0
 10
-140.519059
 20
-29.002213
 30
0.0
 11
-140.519059
 21
-16.002213
 31
0.0
  0
LINE
  8
0
 10
-155.019059
 20
-29.002213
 30
0.0
 11
-155.019059
 21
-16.002213
 31
0.0
  0
LINE
  8
0
 10
-155.019059
 20
-29.002213
 30
0.0
 11
-150.769059
 21
-29.002213
 31
0.0
  0
LINE
  8
0
 10
-164.519059
 20
-15.002213
 30
0.0
 11
-156.019059
 21
-15.002213
 31
0.0
  0
LINE
  8
0
 10
-131.019059
 20
-15.002213
 30
0.0
 11
-131.019059
 21
-10.093867
 31
0.0
  0
LINE
  8
0
 10
-164.519059
 20
-15.002213
 30
0.0
 11
-164.519059
 21
-10.093867
 31
0.0
  0
LINE
  8
0
 10
-150.769059
 20
-29.002213
 30
0.0
 11
-150.769059
 21
-20.002213
 31
0.0
  0
LINE
  8
0
 10
-150.769059
 20
-20.002213
 30
0.0
 11
-152.769059
 21
-20.002213
 31
0.0
  0
LINE
  8
0
 10
-152.769059
 20
-20.002213
 30
0.0
 11
-152.769059
 21
-16.002213
 31
0.0
  0
LINE
  8
0
 10
-152.769059
 20
-16.002213
 30
0.0
 11
-147.769059
 21
-16.002213
 31
0.0
  0
INSERT
  8
0
  2
*X1
 10
-111.709311
 20
-18.207177
 30
0.0
  0
LINE
  8
0
  6
CENTER
 10
-41.22786
 20
-43.893357
 30
0.0
 11
-41.22786
 21
10.104625
 31
0.0
  0
ARC
  8
0
 10
-30.52786
 20
-4.953255
 30
0.0
 40
1.0
 50
90.0
 51
180.0
  0
ARC
  8
0
 10
-51.92786
 20
-4.953255
 30
0.0
 40
1.0
 50
0.0
 51
90.0
  0
LINE
  8
0
 10
-41.22786
 20
-3.953255
 30
0.0
 11
-18.47786
 21
-3.953255
 31
0.0
  0
LINE
  8
0
 10
-31.52786
 20
-22.953255
 30
0.0
 11
-31.52786
 21
-4.953255
 31
0.0
  0
LINE
  8
0
 10
-50.92786
 20
-22.953255
 30
0.0
 11
-50.92786
 21
-4.953255
 31
0.0
  0
ARC
  8
0
 10
-18.47786
 20
-2.203255
 30
0.0
 40
1.75
 50
270.0
 51
0.0
  0
ARC
  8
0
 10
-63.97786
 20
-2.203255
 30
0.0
 40
1.75
 50
180.0
 51
270.0
  0
ARC
  8
0
 10
-19.47786
 20
1.621433
 30
0.0
 40
2.75
 50
0.0
 51
70.817546
  0
ARC
  8
0
 10
-62.97786
 20
1.621433
 30
0.0
 40
2.75
 50
109.182454
 51
180.0
  0
ARC
  8
0
 10
-41.22786
 20
-60.8977
 30
0.0
 40
68.944444
 50
70.817546
 51
109.182454
  0
LINE
  8
0
 10
-63.97786
 20
-3.953255
 30
0.0
 11
-51.92786
 21
-3.953255
 31
0.0
  0
LINE
  8
0
 10
-50.92786
 20
-22.953255
 30
0.0
 11
-45.22786
 21
-22.953255
 31
0.0
  0
LINE
  8
0
 10
-16.72786
 20
-2.203255
 30
0.0
 11
-16.72786
 21
1.621433
 31
0.0
  0
LINE
  8
0
 10
-65.72786
 20
-2.203255
 30
0.0
 11
-65.72786
 21
1.621433
 31
0.0
  0
LINE
  8
0
 10
-41.22786
 20
-4.953255
 30
0.0
 11
-47.72786
 21
-4.953255
 31
0.0
  0
LINE
  8
0
 10
-47.72786
 20
-4.953255
 30
0.0
 11
-47.72786
 21
-9.953255
 31
0.0
  0
LINE
  8
0
 10
-47.72786
 20
-9.953255
 30
0.0
 11
-45.22786
 21
-9.953255
 31
0.0
  0
LINE
  8
0
 10
-45.22786
 20
-9.953255
 30
0.0
 11
-45.22786
 21
-42.353255
 31
0.0
  0
ARC
  8
0
 10
25.873594
 20
-50.890466
 30
0.0
 40
5.5
 50
0.0
 51
180.0
  0
LINE
  8
0
 10
-0.126406
 20
-71.390466
 30
0.0
 11
2.373594
 21
-71.390466
 31
0.0
  0
LINE
  8
0
 10
20.373594
 20
-50.890466
 30
0.0
 11
20.373594
 21
-53.390466
 31
0.0
  0
ARC
  8
0
 10
2.373594
 20
-53.390466
 30
0.0
 40
18.0
 50
270.0
 51
0.0
  0
ARC
  8
0
 10
-0.126406
 20
-76.890466
 30
0.0
 40
5.5
 50
90.0
 51
270.0
  0
LINE
  8
0
 10
-0.126406
 20
-82.390466
 30
0.0
 11
2.373594
 21
-82.390466
 31
0.0
  0
ARC
  8
0
 10
2.373594
 20
-100.390466
 30
0.0
 40
18.0
 50
0.0
 51
90.0
  0
LINE
  8
0
 10
20.373594
 20
-102.890466
 30
0.0
 11
20.373594
 21
-100.390466
 31
0.0
  0
ARC
  8
0
 10
25.873594
 20
-102.525472
 30
0.0
 40
5.5
 50
180.0
 51
0.0
  0
LINE
  8
0
 10
31.373594
 20
-102.890466
 30
0.0
 11
31.373594
 21
-100.390466
 31
0.0
  0
ARC
  8
0
 10
49.373594
 20
-100.390466
 30
0.0
 40
18.0
 50
90.0
 51
180.0
  0
LINE
  8
0
 10
51.873594
 20
-82.390466
 30
0.0
 11
49.373594
 21
-82.390466
 31
0.0
  0
ARC
  8
0
 10
51.873594
 20
-76.890466
 30
0.0
 40
5.5
 50
270.0
 51
90.0
  0
LINE
  8
0
 10
51.873594
 20
-71.390466
 30
0.0
 11
49.373594
 21
-71.390466
 31
0.0
  0
ARC
  8
0
 10
49.373594
 20
-53.390466
 30
0.0
 40
18.0
 50
180.0
 51
270.0
  0
LINE
  8
0
 10
31.373594
 20
-50.890466
 30
0.0
 11
31.373594
 21
-53.390466
 31
0.0
  0
LINE
  8
0
 10
14.373594
 20
-9.137039
 30
0.0
 11
37.373594
 21
-9.137039
 31
0.0
  0
LINE
  8
0
 10
-5.626406
 20
15.862961
 30
0.0
 11
-5.626406
 21
19.5897
 31
0.0
  0
LINE
  8
0
 10
57.373594
 20
15.862961
 30
0.0
 11
57.373594
 21
19.5897
 31
0.0
  0
LINE
  8
0
 10
-3.626406
 20
13.862961
 30
0.0
 11
11.458661
 21
13.862961
 31
0.0
  0
ARC
  8
0
 10
25.873594
 20
-28.762039
 30
0.0
 40
59.625
 50
60.370992
 51
119.629008
  0
ARC
  8
0
 10
-1.626406
 20
19.5897
 30
0.0
 40
4.0
 50
119.629008
 51
180.0
  0
ARC
  8
0
 10
53.373594
 20
19.5897
 30
0.0
 40
4.0
 50
0.0
 51
60.370992
  0
ARC
  8
0
 10
-3.626406
 20
15.862961
 30
0.0
 40
2.0
 50
180.0
 51
270.0
  0
ARC
  8
0
 10
55.373594
 20
15.862961
 30
0.0
 40
2.0
 50
270.0
 51
0.0
  0
LINE
  8
0
 10
38.290415
 20
11.949836
 30
0.0
 11
37.373594
 21
-9.137039
 31
0.0
  0
LINE
  8
0
 10
14.373594
 20
-9.137039
 30
0.0
 11
13.456774
 21
11.949836
 31
0.0
  0
LINE
  8
0
 10
25.873594
 20
13.862961
 30
0.0
 11
55.373594
 21
13.862961
 31
0.0
  0
ARC
  8
0
 10
11.458661
 20
11.862961
 30
0.0
 40
2.0
 50
2.489553
 51
90.0
  0
ARC
  8
0
 10
40.288527
 20
11.862961
 30
0.0
 40
2.0
 50
90.0
 51
177.510447
  0
LINE
  8
0
  6
CENTER
 10
25.873594
 20
-10.463914
 30
0.0
 11
25.873594
 21
32.982885
 31
0.0
  0
LINE
  8
0
 10
25.873594
 20
25.862961
 30
0.0
 11
19.373594
 21
25.862961
 31
0.0
  0
LINE
  8
0
 10
19.373594
 20
25.862961
 30
0.0
 11
19.373594
 21
-9.137039
 31
0.0
  0
LINE
  8
0
 10
20.873594
 20
20.862961
 30
0.0
 11
25.873594
 21
20.862961
 31
0.0
  0
LINE
  8
0
 10
20.873594
 20
-9.137039
 30
0.0
 11
20.873594
 21
20.862961
 31
0.0
  0
LINE
  8
0
  6
CENTER
 10
94.05356
 20
-34.699225
 30
0.0
 11
94.05356
 21
32.982885
 31
0.0
  0
ARC
  8
0
 10
108.468493
 20
11.862961
 30
0.0
 40
2.0
 50
90.0
 51
177.510447
  0
ARC
  8
0
 10
79.638627
 20
11.862961
 30
0.0
 40
2.0
 50
2.489553
 51
90.0
  0
LINE
  8
0
 10
94.05356
 20
13.862961
 30
0.0
 11
123.55356
 21
13.862961
 31
0.0
  0
LINE
  8
0
 10
82.55356
 20
-9.137039
 30
0.0
 11
81.63674
 21
11.949836
 31
0.0
  0
LINE
  8
0
 10
106.470381
 20
11.949836
 30
0.0
 11
105.55356
 21
-9.137039
 31
0.0
  0
ARC
  8
0
 10
123.55356
 20
15.862961
 30
0.0
 40
2.0
 50
270.0
 51
0.0
  0
ARC
  8
0
 10
64.55356
 20
15.862961
 30
0.0
 40
2.0
 50
180.0
 51
270.0
  0
ARC
  8
0
 10
121.55356
 20
19.5897
 30
0.0
 40
4.0
 50
0.0
 51
60.370992
  0
ARC
  8
0
 10
66.55356
 20
19.5897
 30
0.0
 40
4.0
 50
119.629008
 51
180.0
  0
ARC
  8
0
 10
94.05356
 20
-28.762039
 30
0.0
 40
59.625
 50
60.370992
 51
119.629008
  0
LINE
  8
0
 10
64.55356
 20
13.862961
 30
0.0
 11
79.638627
 21
13.862961
 31
0.0
  0
LINE
  8
0
 10
125.55356
 20
15.862961
 30
0.0
 11
125.55356
 21
19.5897
 31
0.0
  0
LINE
  8
0
 10
62.55356
 20
15.862961
 30
0.0
 11
62.55356
 21
19.5897
 31
0.0
  0
LINE
  8
0
 10
82.55356
 20
-9.137039
 30
0.0
 11
89.05356
 21
-9.137039
 31
0.0
  0
LINE
  8
0
 10
94.05356
 20
12.862961
 30
0.0
 11
86.05356
 21
12.862961
 31
0.0
  0
LINE
  8
0
 10
86.05356
 20
12.862961
 30
0.0
 11
86.05356
 21
6.862961
 31
0.0
  0
LINE
  8
0
 10
86.05356
 20
6.862961
 30
0.0
 11
89.05356
 21
6.862961
 31
0.0
  0
LINE
  8
0
 10
89.05356
 20
6.862961
 30
0.0
 11
89.05356
 21
-33.387039
 31
0.0
  0
LINE
  8
0
 10
-187.248653
 20
-28.502213
 30
0.0
 11
-187.248653
 21
-12.594265
 31
0.0
  0
LINE
  8
0
 10
-187.248653
 20
-12.594265
 30
0.0
 11
-184.748653
 21
-11.150889
 31
0.0
  0
LINE
  8
0
 10
-97.810432
 20
-22.353255
 30
0.0
 11
-97.810432
 21
1.552492
 31
0.0
  0
LINE
  8
0
 10
-97.810432
 20
1.552492
 30
0.0
 11
-94.410432
 21
3.515483
 31
0.0
  0
LINE
  8
0
 10
21.623594
 20
-8.387039
 30
0.0
 11
21.623594
 21
22.511168
 31
0.0
  0
LINE
  8
0
 10
21.623594
 20
22.511168
 30
0.0
 11
25.873594
 21
24.964907
 31
0.0
  0
LINE
  8
0
 10
-37.22786
 20
-56.390466
 30
0.0
 11
-37.22786
 21
-58.890466
 31
0.0
  0
ARC
  8
0
 10
-23.22786
 20
-58.890466
 30
0.0
 40
14.0
 50
180.0
 51
270.0
  0
LINE
  8
0
 10
-23.22786
 20
-72.890466
 30
0.0
 11
-20.72786
 21
-72.890466
 31
0.0
  0
ARC
  8
0
 10
-20.72786
 20
-76.890466
 30
0.0
 40
4.0
 50
270.0
 51
90.0
  0
LINE
  8
0
 10
-20.72786
 20
-80.890466
 30
0.0
 11
-23.22786
 21
-80.890466
 31
0.0
  0
ARC
  8
0
 10
-23.22786
 20
-94.890466
 30
0.0
 40
14.0
 50
90.0
 51
180.0
  0
LINE
  8
0
 10
-37.22786
 20
-94.890466
 30
0.0
 11
-37.22786
 21
-97.390466
 31
0.0
  0
ARC
  8
0
 10
-41.22786
 20
-97.390466
 30
0.0
 40
4.0
 50
180.0
 51
0.0
  0
LINE
  8
0
 10
-45.22786
 20
-97.390466
 30
0.0
 11
-45.22786
 21
-94.890466
 31
0.0
  0
ARC
  8
0
 10
-59.22786
 20
-94.890466
 30
0.0
 40
14.0
 50
0.0
 51
90.0
  0
LINE
  8
0
 10
-59.22786
 20
-80.890466
 30
0.0
 11
-61.72786
 21
-80.890466
 31
0.0
  0
ARC
  8
0
 10
-61.72786
 20
-76.890466
 30
0.0
 40
4.0
 50
90.0
 51
270.0
  0
ARC
  8
0
 10
-59.22786
 20
-58.890466
 30
0.0
 40
14.0
 50
270.0
 51
0.0
  0
LINE
  8
0
 10
-45.22786
 20
-58.890466
 30
0.0
 11
-45.22786
 21
-56.390466
 31
0.0
  0
LINE
  8
0
 10
-61.72786
 20
-72.890466
 30
0.0
 11
-59.22786
 21
-72.890466
 31
0.0
  0
ARC
  8
0
 10
-41.22786
 20
-56.390466
 30
0.0
 40
4.0
 50
0.0
 51
180.0
  0
ARC
  8
0
 10
-184.748653
 20
-62.640466
 30
0.0
 40
2.5
 50
20.540978
 51
159.459022
  0
ARC
  8
0
 10
-198.998653
 20
-76.890466
 30
0.0
 40
2.5
 50
110.540978
 51
249.459022
  0
ARC
  8
0
 10
-170.498653
 20
-76.890466
 30
0.0
 40
2.5
 50
290.540978
 51
69.459022
  0
ARC
  8
0
 10
-184.748653
 20
-91.140466
 30
0.0
 40
2.5
 50
200.540978
 51
339.459022
  0
LINE
  8
0
 10
-169.62146
 20
-79.23152
 30
0.0
 11
-172.107406
 21
-80.163004
 31
0.0
  0
ARC
  8
0
 10
-166.493371
 20
-95.145748
 30
0.0
 40
16.0
 50
110.540978
 51
159.459022
  0
LINE
  8
0
 10
-182.407599
 20
-92.017659
 30
0.0
 11
-181.476115
 21
-89.531713
 31
0.0
  0
LINE
  8
0
 10
-187.089707
 20
-92.017659
 30
0.0
 11
-188.021191
 21
-89.531713
 31
0.0
  0
LINE
  8
0
 10
-199.875846
 20
-79.23152
 30
0.0
 11
-197.3899
 21
-80.163004
 31
0.0
  0
ARC
  8
0
 10
-203.003935
 20
-95.145748
 30
0.0
 40
16.0
 50
20.540978
 51
69.459022
  0
LINE
  8
0
 10
-182.407599
 20
-61.763273
 30
0.0
 11
-181.476115
 21
-64.249219
 31
0.0
  0
LINE
  8
0
 10
-169.62146
 20
-74.549412
 30
0.0
 11
-172.107406
 21
-73.617928
 31
0.0
  0
ARC
  8
0
 10
-166.493371
 20
-58.635184
 30
0.0
 40
16.0
 50
200.540978
 51
249.459022
  0
ARC
  8
0
 10
-203.003935
 20
-58.635184
 30
0.0
 40
16.0
 50
290.540978
 51
339.459022
  0
LINE
  8
0
 10
-187.089707
 20
-61.763273
 30
0.0
 11
-188.021191
 21
-64.249219
 31
0.0
  0
LINE
  8
0
 10
-199.875846
 20
-74.549412
 30
0.0
 11
-197.3899
 21
-73.617928
 31
0.0
  0
LINE
  8
0
 10
99.55356
 20
-50.890466
 30
0.0
 11
99.55356
 21
-53.390466
 31
0.0
  0
ARC
  8
0
 10
117.55356
 20
-53.390466
 30
0.0
 40
18.0
 50
180.0
 51
270.0
  0
LINE
  8
0
 10
120.05356
 20
-71.390466
 30
0.0
 11
117.55356
 21
-71.390466
 31
0.0
  0
ARC
  8
0
 10
120.05356
 20
-76.890466
 30
0.0
 40
5.5
 50
270.0
 51
90.0
  0
LINE
  8
0
 10
120.05356
 20
-82.390466
 30
0.0
 11
117.55356
 21
-82.390466
 31
0.0
  0
ARC
  8
0
 10
117.55356
 20
-100.390466
 30
0.0
 40
18.0
 50
90.0
 51
180.0
  0
LINE
  8
0
 10
99.55356
 20
-102.890466
 30
0.0
 11
99.55356
 21
-100.390466
 31
0.0
  0
ARC
  8
0
 10
94.05356
 20
-102.525472
 30
0.0
 40
5.5
 50
180.0
 51
0.0
  0
LINE
  8
0
 10
88.55356
 20
-102.890466
 30
0.0
 11
88.55356
 21
-100.390466
 31
0.0
  0
ARC
  8
0
 10
70.55356
 20
-100.390466
 30
0.0
 40
18.0
 50
0.0
 51
90.0
  0
LINE
  8
0
 10
68.05356
 20
-82.390466
 30
0.0
 11
70.55356
 21
-82.390466
 31
0.0
  0
ARC
  8
0
 10
68.05356
 20
-76.890466
 30
0.0
 40
5.5
 50
90.0
 51
270.0
  0
ARC
  8
0
 10
70.55356
 20
-53.390466
 30
0.0
 40
18.0
 50
270.0
 51
0.0
  0
LINE
  8
0
 10
88.55356
 20
-50.890466
 30
0.0
 11
88.55356
 21
-53.390466
 31
0.0
  0
LINE
  8
0
 10
68.05356
 20
-71.390466
 30
0.0
 11
70.55356
 21
-71.390466
 31
0.0
  0
ARC
  8
0
 10
94.05356
 20
-50.890466
 30
0.0
 40
5.5
 50
0.0
 51
180.0
  0
INSERT
  8
0
  2
*X2
 10
-64.877801
 20
131.086852
 30
0.0
  0
INSERT
  8
0
  2
*X3
 10
-64.877801
 20
131.086852
 30
0.0
  0
INSERT
  8
0
  2
*X4
 10
-107.513276
 20
-30.924098
 30
0.0
  0
INSERT
  8
0
  2
*X5
 10
-107.513276
 20
-30.924098
 30
0.0
  0
LINE
  8
0
 10
-147.769059
 20
-29.002213
 30
0.0
 11
-140.519059
 21
-29.002213
 31
0.0
  0
LINE
  8
0
 10
-37.22786
 20
-22.953255
 30
0.0
 11
-37.22786
 21
-42.353255
 31
0.0
  0
LINE
  8
0
 10
-44.62786
 20
-15.923092
 30
0.0
 11
-44.62786
 21
-42.953255
 31
0.0
  0
LINE
  8
0
 10
-37.82786
 20
-22.953255
 30
0.0
 11
-37.82786
 21
-42.953255
 31
0.0
  0
LINE
  8
0
 10
-41.22786
 20
-22.953255
 30
0.0
 11
-31.52786
 21
-22.953255
 31
0.0
  0
LINE
  8
0
 10
-44.62786
 20
-42.953255
 30
0.0
 11
-45.22786
 21
-42.353255
 31
0.0
  0
LINE
  8
0
 10
-37.82786
 20
-42.953255
 30
0.0
 11
-37.22786
 21
-42.353255
 31
0.0
  0
LINE
  8
0
 10
-44.62786
 20
-42.953255
 30
0.0
 11
-37.82786
 21
-42.953255
 31
0.0
  0
LINE
  8
0
 10
89.80356
 20
-34.137039
 30
0.0
 11
98.30356
 21
-34.137039
 31
0.0
  0
LINE
  8
0
 10
99.05356
 20
-9.137039
 30
0.0
 11
99.05356
 21
-33.387039
 31
0.0
  0
LINE
  8
0
 10
89.80356
 20
0.20954
 30
0.0
 11
89.80356
 21
-34.137039
 31
0.0
  0
LINE
  8
0
 10
98.30356
 20
-9.137039
 30
0.0
 11
98.30356
 21
-34.137039
 31
0.0
  0
LINE
  8
0
 10
94.05356
 20
-9.137039
 30
0.0
 11
105.55356
 21
-9.137039
 31
0.0
  0
LINE
  8
0
 10
89.80356
 20
-34.137039
 30
0.0
 11
89.05356
 21
-33.387039
 31
0.0
  0
LINE
  8
0
 10
98.30356
 20
-34.137039
 30
0.0
 11
99.05356
 21
-33.387039
 31
0.0
  0
LINE
  8
0
 10
-144.769059
 20
-29.002213
 30
0.0
 11
-144.769059
 21
-48.402213
 31
0.0
  0
LINE
  8
0
 10
-150.769059
 20
-29.002213
 30
0.0
 11
-150.769059
 21
-48.402213
 31
0.0
  0
LINE
  8
0
 10
-150.169059
 20
-49.002213
 30
0.0
 11
-145.369059
 21
-49.002213
 31
0.0
  0
LINE
  8
0
 10
-150.769059
 20
-48.402213
 30
0.0
 11
-144.769059
 21
-48.402213
 31
0.0
  0
LINE
  8
0
 10
-145.369059
 20
-29.002213
 30
0.0
 11
-145.369059
 21
-49.002213
 31
0.0
  0
LINE
  8
0
 10
-150.169059
 20
-25.051368
 30
0.0
 11
-150.169059
 21
-49.002213
 31
0.0
  0
LINE
  8
0
 10
-150.769059
 20
-48.402213
 30
0.0
 11
-150.169059
 21
-49.002213
 31
0.0
  0
LINE
  8
0
 10
-145.369059
 20
-49.002213
 30
0.0
 11
-144.769059
 21
-48.402213
 31
0.0
  0
LINE
  8
0
 10
31.373594
 20
15.862961
 30
0.0
 11
31.373594
 21
24.409608
 31
0.0
  0
ARC
  8
0
 10
36.373594
 20
23.824943
 30
0.0
 40
5.0
 50
78.708294
 51
169.782178
  0
ARC
  8
0
 10
29.373594
 20
15.862961
 30
0.0
 40
2.0
 50
270.0
 51
0.0
  0
LINE
  8
0
 10
29.484611
 20
23.066679
 30
0.0
 11
25.873594
 21
23.066679
 31
0.0
  0
ARC
  8
0
 10
29.484611
 20
25.066679
 30
0.0
 40
2.0
 50
270.0
 51
349.782178
  0
ARC
  8
0
 10
29.560709
 20
-39.51119
 30
0.0
 40
68.682766
 50
74.748195
 51
83.485897
  0
ARC
  8
0
 10
97.740674
 20
-39.51119
 30
0.0
 40
68.682766
 50
74.748195
 51
83.485897
  0
ARC
  8
0
 10
104.55356
 20
23.824943
 30
0.0
 40
5.0
 50
78.708294
 51
169.782178
  0
ARC
  8
0
 10
97.55356
 20
15.862961
 30
0.0
 40
2.0
 50
270.0
 51
0.0
  0
LINE
  8
0
 10
99.55356
 20
15.862961
 30
0.0
 11
99.55356
 21
24.409608
 31
0.0
  0
ARC
  8
0
 10
97.664577
 20
25.066679
 30
0.0
 40
2.0
 50
270.0
 51
349.782178
  0
LINE
  8
0
 10
97.664577
 20
23.066679
 30
0.0
 11
94.05356
 21
23.066679
 31
0.0
  0
LINE
  8
0
 10
-90.410432
 20
-1.953255
 30
0.0
 11
-90.410432
 21
2.218745
 31
0.0
  0
ARC
  8
0
 10
-86.410432
 20
3.048265
 30
0.0
 40
4.0
 50
82.869025
 51
180.0
  0
LINE
  8
0
 10
-92.410432
 20
4.218745
 30
0.0
 11
-94.410432
 21
4.218745
 31
0.0
  0
ARC
  8
0
 10
-92.410432
 20
2.218745
 30
0.0
 40
2.0
 50
0.0
 51
90.0
  0
ARC
  8
0
 10
-92.410432
 20
-1.953255
 30
0.0
 40
2.0
 50
270.0
 51
0.0
  0
ARC
  8
0
 10
-90.338824
 20
-58.414844
 30
0.0
 40
65.58162
 50
77.991458
 51
86.131181
  0
LINE
  8
0
 10
-182.407599
 20
-15.002213
 30
0.0
 11
-182.407599
 21
-10.339541
 31
0.0
  0
ARC
  8
0
 10
-178.407599
 20
-11.304584
 30
0.0
 40
4.0
 50
84.539875
 51
180.0
  0
ARC
  8
0
 10
-175.671677
 20
-34.620628
 30
0.0
 40
27.399316
 50
87.506831
 51
94.931367
  0
LINE
  8
0
 10
-183.907599
 20
-8.839541
 30
0.0
 11
-184.748653
 21
-8.839541
 31
0.0
  0
ARC
  8
0
 10
-183.907599
 20
-10.339541
 30
0.0
 40
1.5
 50
360.0
 51
90.0
  0
ARC
  8
0
 10
-146.928005
 20
-10.339541
 30
0.0
 40
1.5
 50
360.0
 51
90.0
  0
ARC
  8
0
 10
-141.428005
 20
-11.304584
 30
0.0
 40
4.0
 50
84.539875
 51
180.0
  0
LINE
  8
0
 10
-145.428005
 20
-15.002213
 30
0.0
 11
-145.428005
 21
-10.339541
 31
0.0
  0
LINE
  8
0
 10
-146.928005
 20
-8.839541
 30
0.0
 11
-147.769059
 21
-8.839541
 31
0.0
  0
ARC
  8
0
 10
-138.692083
 20
-34.620628
 30
0.0
 40
27.399316
 50
87.506831
 51
94.931367
  0
ARC
  8
0
 10
-33.22786
 20
3.048265
 30
0.0
 40
4.0
 50
82.869025
 51
180.0
  0
ARC
  8
0
 10
-37.156253
 20
-58.414844
 30
0.0
 40
65.58162
 50
77.991458
 51
86.131181
  0
ARC
  8
0
 10
-39.22786
 20
-1.953255
 30
0.0
 40
2.0
 50
270.0
 51
0.0
  0
ARC
  8
0
 10
-39.22786
 20
2.218745
 30
0.0
 40
2.0
 50
0.0
 51
90.0
  0
LINE
  8
0
 10
-37.22786
 20
-1.953255
 30
0.0
 11
-37.22786
 21
2.218745
 31
0.0
  0
LINE
  8
0
 10
-39.22786
 20
4.218745
 30
0.0
 11
-41.22786
 21
4.218745
 31
0.0
  0
LINE
  8
0
 10
89.05356
 20
-33.387039
 30
0.0
 11
99.05356
 21
-33.387039
 31
0.0
  0
LINE
  8
0
 10
89.05356
 20
0.95954
 30
0.0
 11
89.80356
 21
0.20954
 31
0.0
  0
LINE
  8
0
 10
-45.22786
 20
-15.323092
 30
0.0
 11
-44.62786
 21
-15.923092
 31
0.0
  0
LINE
  8
0
 10
-45.22786
 20
-42.353255
 30
0.0
 11
-37.22786
 21
-42.353255
 31
0.0
  0
LINE
  8
0
 10
-150.769059
 20
-24.451368
 30
0.0
 11
-150.169059
 21
-25.051368
 31
0.0
  0
LINE
  8
0
 10
-187.248653
 20
-28.502213
 30
0.0
 11
-184.748653
 21
-28.502213
 31
0.0
  0
LINE
  8
0
 10
-187.748653
 20
-29.002213
 30
0.0
 11
-187.248653
 21
-28.502213
 31
0.0
  0
LINE
  8
0
 10
-187.248653
 20
-12.594265
 30
0.0
 11
-184.748653
 21
-12.594265
 31
0.0
  0
LINE
  8
0
 10
-97.810432
 20
1.552492
 30
0.0
 11
-94.410432
 21
1.552492
 31
0.0
  0
LINE
  8
0
 10
-97.810432
 20
-22.353255
 30
0.0
 11
-94.410432
 21
-22.353255
 31
0.0
  0
LINE
  8
0
 10
-98.410432
 20
-22.953255
 30
0.0
 11
-97.810432
 21
-22.353255
 31
0.0
  0
LINE
  8
0
 10
21.623594
 20
-8.387039
 30
0.0
 11
25.873594
 21
-8.387039
 31
0.0
  0
LINE
  8
0
 10
20.873594
 20
-9.137039
 30
0.0
 11
21.623594
 21
-8.387039
 31
0.0
  0
LINE
  8
0
 10
21.623594
 20
22.511168
 30
0.0
 11
25.873594
 21
22.511168
 31
0.0
  0
INSERT
  8
0
  2
*X12
 10
0.0
 20
0.0
 30
0.0
1001
ACAD
1000
HATCH
1002
{
1070
    16
1000
ANSI31
1040
10.0
1040
0.0
1002
}
  0
INSERT
  8
0
  2
*X13
 10
0.0
 20
0.0
 30
0.0
1001
ACAD
1000
HATCH
1002
{
1070
    16
1000
ANSI31
1040
15.0
1040
0.0
1002
}
  0
INSERT
  8
0
  2
*X14
 10
0.0
 20
0.0
 30
0.0
1001
ACAD
1000
HATCH
1002
{
1070
    16
1000
ANSI31
1040
15.0
1040
0.0
1002
}
  0
ENDSEC
  0
EOF
