  0
SECTION
  2
HEADER
  9
$ACADVER
  1
AC1009
  9
$INSBASE
 10
0.0
 20
0.0
 30
0.0
  9
$EXTMIN
 10
-716.88062977230629
 20
503.43341719074158
 30
-0.0000000000112498
  9
$EXTMAX
 10
-255.42326922218891
 20
650.17455396251455
 30
0.0000000000002956
  9
$LIMMIN
 10
0.0
 20
0.0
  9
$LIMMAX
 10
420.0
 20
297.0
  9
$ORTHOMODE
 70
     1
  9
$REGENMODE
 70
     1
  9
$FILLMODE
 70
     1
  9
$QTEXTMODE
 70
     0
  9
$MIRRTEXT
 70
     1
  9
$DRAGMODE
 70
     2
  9
$LTSCALE
 40
1.0
  9
$OSMODE
 70
    40
  9
$ATTMODE
 70
     1
  9
$TEXTSIZE
 40
2.5
  9
$TRACEWID
 40
1.0
  9
$TEXTSTYLE
  7
ISOCP
  9
$CLAYER
  8
0
  9
$CELTYPE
  6
BYLAYER
  9
$CECOLOR
 62
   256
  9
$DIMSCALE
 40
0.0
  9
$DIMASZ
 40
2.5
  9
$DIMEXO
 40
0.0
  9
$DIMDLI
 40
7.5
  9
$DIMRND
 40
0.0
  9
$DIMDLE
 40
0.0
  9
$DIMEXE
 40
1.25
  9
$DIMTP
 40
0.0
  9
$DIMTM
 40
0.0
  9
$DIMTXT
 40
3.5
  9
$DIMCEN
 40
0.0
  9
$DIMTSZ
 40
0.0
  9
$DIMTOL
 70
     0
  9
$DIMLIM
 70
     0
  9
$DIMTIH
 70
     0
  9
$DIMTOH
 70
     0
  9
$DIMSE1
 70
     0
  9
$DIMSE2
 70
     0
  9
$DIMTAD
 70
     0
  9
$DIMZIN
 70
     8
  9
$DIMBLK
  1

  9
$DIMASO
 70
     1
  9
$DIMSHO
 70
     1
  9
$DIMPOST
  1

  9
$DIMAPOST
  1

  9
$DIMALT
 70
     0
  9
$DIMALTD
 70
     4
  9
$DIMALTF
 40
0.0394
  9
$DIMLFAC
 40
1.0
  9
$DIMTOFL
 70
     0
  9
$DIMTVP
 40
0.0
  9
$DIMTIX
 70
     0
  9
$DIMSOXD
 70
     0
  9
$DIMSAH
 70
     0
  9
$DIMBLK1
  1

  9
$DIMBLK2
  1

  9
$DIMSTYLE
  2
MASKIN
  9
$DIMCLRD
 70
     7
  9
$DIMCLRE
 70
     7
  9
$DIMCLRT
 70
     1
  9
$DIMTFAC
 40
1.0
  9
$DIMGAP
 40
1.0
  9
$LUNITS
 70
     2
  9
$LUPREC
 70
     4
  9
$SKETCHINC
 40
1.0
  9
$FILLETRAD
 40
3.0
  9
$AUNITS
 70
     0
  9
$AUPREC
 70
     0
  9
$MENU
  1
acad
  9
$ELEVATION
 40
0.0
  9
$PELEVATION
 40
0.0
  9
$THICKNESS
 40
0.0
  9
$LIMCHECK
 70
     0
  9
$BLIPMODE
 70
     0
  9
$CHAMFERA
 40
10.0
  9
$CHAMFERB
 40
10.0
  9
$SKPOLY
 70
     0
  9
$TDCREATE
 40
2452923.323562766
  9
$TDUPDATE
 40
2452937.3418475231
  9
$TDINDWG
 40
0.2048148958
  9
$TDUSRTIMER
 40
0.2048129167
  9
$USRTIMER
 70
     1
  9
$ANGBASE
 50
0.0
  9
$ANGDIR
 70
     0
  9
$PDMODE
 70
     3
  9
$PDSIZE
 40
1.0
  9
$PLINEWID
 40
0.0
  9
$COORDS
 70
     2
  9
$SPLFRAME
 70
     0
  9
$SPLINETYPE
 70
     6
  9
$SPLINESEGS
 70
     8
  9
$ATTDIA
 70
     0
  9
$ATTREQ
 70
     1
  9
$HANDLING
 70
-16383
  9
$HANDSEED
  5
2A1B
  9
$SURFTAB1
 70
     6
  9
$SURFTAB2
 70
     6
  9
$SURFTYPE
 70
     6
  9
$SURFU
 70
     6
  9
$SURFV
 70
     6
  9
$UCSNAME
  2

  9
$UCSORG
 10
0.0
 20
0.0
 30
0.0
  9
$UCSXDIR
 10
1.0
 20
0.0
 30
0.0
  9
$UCSYDIR
 10
0.0
 20
1.0
 30
0.0
  9
$PUCSNAME
  2

  9
$PUCSORG
 10
0.0
 20
0.0
 30
0.0
  9
$PUCSXDIR
 10
1.0
 20
0.0
 30
0.0
  9
$PUCSYDIR
 10
0.0
 20
1.0
 30
0.0
  9
$USERI1
 70
     0
  9
$USERI2
 70
     0
  9
$USERI3
 70
     0
  9
$USERI4
 70
     0
  9
$USERI5
 70
     0
  9
$USERR1
 40
0.0
  9
$USERR2
 40
0.0
  9
$USERR3
 40
0.0
  9
$USERR4
 40
0.0
  9
$USERR5
 40
0.0
  9
$WORLDVIEW
 70
     1
  9
$SHADEDGE
 70
     3
  9
$SHADEDIF
 70
    70
  9
$TILEMODE
 70
     1
  9
$MAXACTVP
 70
    48
  9
$PLIMCHECK
 70
     0
  9
$PEXTMIN
 10
1.0000000000000000E+020
 20
1.0000000000000000E+020
 30
1.0000000000000000E+020
  9
$PEXTMAX
 10
-1.0000000000000000E+020
 20
-1.0000000000000000E+020
 30
-1.0000000000000000E+020
  9
$PLIMMIN
 10
0.0
 20
0.0
  9
$PLIMMAX
 10
420.0
 20
297.0
  9
$UNITMODE
 70
     0
  9
$VISRETAIN
 70
     1
  9
$PLINEGEN
 70
     0
  9
$PSLTSCALE
 70
     1
  0
ENDSEC
  0
SECTION
  2
TABLES
  0
TABLE
  2
VPORT
 70
    10
  0
VPORT
  2
*ACTIVE
 70
     0
 10
0.0
 20
0.0
 11
1.0
 21
1.0
 12
-486.15194949724759
 22
576.80398557662807
 13
0.0
 23
0.0
 14
10.0
 24
10.0
 15
10.0
 25
10.0
 16
0.0
 26
0.0
 36
1.0
 17
0.0
 27
0.0
 37
0.0
 40
607.66209116658467
 41
1.5262500000000001
 42
50.0
 43
0.0
 44
0.0
 50
0.0
 51
0.0
 71
     0
 72
   100
 73
     1
 74
     1
 75
     0
 76
     0
 77
     0
 78
     0
  0
ENDTAB
  0
TABLE
  2
LTYPE
 70
     5
  0
LTYPE
  2
CONTINUOUS
 70
     0
  3
Solid line
 72
    65
 73
     0
 40
0.0
  0
LTYPE
  2
DASHDOT_CENTER
 70
     0
  3
Center (.5x) ___ _ ___ _ ___ _ ___ _ ___ _ ___
 72
    65
 73
     4
 40
28.574999999999989
 49
19.050000000000001
 49
-3.1749999999999989
 49
3.1749999999999989
 49
-3.1749999999999989
  0
ENDTAB
  0
TABLE
  2
LAYER
 70
    10
  0
LAYER
  2
0
 70
     0
 62
     7
  6
CONTINUOUS
  0
ENDTAB
  0
TABLE
  2
STYLE
 70
     2
  0
STYLE
  2
STANDARD
 70
     0
 40
0.0
 41
1.0
 50
0.0
 71
     0
 42
2.5
  3
txt
  4

  0
STYLE
  2
ISOCP
 70
     0
 40
0.0
 41
1.0
 50
0.0
 71
     0
 42
2.5
  3
isocp.shx
  4

  0
ENDTAB
  0
TABLE
  2
VIEW
 70
     0
  0
ENDTAB
  0
TABLE
  2
UCS
 70
     0
  0
ENDTAB
  0
TABLE
  2
APPID
 70
     1
  0
APPID
  2
ACAD
 70
     0
  0
ENDTAB
  0
TABLE
  2
DIMSTYLE
 70
     2
  0
DIMSTYLE
  2
MASKIN
 70
     0
  3

  4

  5

  6

  7

 40
1.0
 41
4.0
 42
0.0
 43
3.75
 44
1.25
 45
0.0
 46
0.0
 47
0.0
 48
0.0
140
3.5
141
2.5
142
0.0
143
0.0394
144
1.0
145
0.0
146
1.0
147
1.0
 71
     0
 72
     0
 73
     0
 74
     0
 75
     0
 76
     0
 77
     1
 78
     8
170
     0
171
     4
172
     1
173
     0
174
     0
175
     0
176
     0
177
     0
178
     3
  0
ENDTAB
  0
ENDSEC
  0
SECTION
  2
BLOCKS
  0
BLOCK
  8
0
  2
$MODEL_SPACE
 70
     0
 10
0.0
 20
0.0
 30
0.0
  3
$MODEL_SPACE
  1

  0
ENDBLK
  5
1A
  8
0
  0
BLOCK
 67
     1
  8
0
  2
$PAPER_SPACE
 70
     0
 10
0.0
 20
0.0
 30
0.0
  3
$PAPER_SPACE
  1

  0
ENDBLK
  5
17
 67
     1
  8
0
  0
BLOCK
  8
0
  2
*X1
 70
     1
 10
0.0
 20
0.0
 30
0.0
  3
*X1
  1

  0
LINE
  5
2985
  8
0
 62
     0
 10
-416.89643527170239
 20
643.17060525139777
 30
0.0
 11
-420.89643527170239
 21
647.17060525139777
 31
0.0
  0
LINE
  5
2986
  8
0
 62
     0
 10
-422.55328952119481
 20
643.17060525139777
 30
0.0
 11
-426.55328952119481
 21
647.17060525139777
 31
0.0
  0
LINE
  5
2987
  8
0
 62
     0
 10
-428.21014377068718
 20
643.17060525139755
 30
0.0
 11
-432.21014377068718
 21
647.17060525139777
 31
0.0
  0
LINE
  5
2988
  8
0
 62
     0
 10
-433.86699802017949
 20
643.17060525139755
 30
0.0
 11
-437.62582465952681
 21
646.92943189074504
 31
0.0
  0
LINE
  5
2989
  8
0
 62
     0
 10
-438.52385226967198
 20
642.17060525139789
 30
0.0
 11
-442.44927709854687
 21
646.09603008027273
 31
0.0
  0
LINE
  5
298A
  8
0
 62
     0
 10
-444.1807065191644
 20
642.17060525139766
 30
0.0
 11
-446.80893170194929
 21
644.79883043418261
 31
0.0
  0
LINE
  5
298B
  8
0
 62
     0
 10
-414.24617046052458
 20
612.23606919275778
 30
0.0
 11
-415.18070651916429
 21
613.17060525139766
 31
0.0
  0
LINE
  5
298C
  8
0
 62
     0
 10
-446.73997191891419
 20
639.07301640165508
 30
0.0
 11
-450.13560290167118
 21
642.46864738441229
 31
0.0
  0
LINE
  5
298D
  8
0
 62
     0
 10
-417.33756076865672
 20
609.67060525139777
 30
0.0
 11
-420.83756076865672
 21
613.17060525139755
 31
0.0
  0
LINE
  5
298E
  8
0
 62
     0
 10
-446.73997191891408
 20
633.41616215216266
 30
0.0
 11
-450.23997191891408
 21
636.91616215216277
 31
0.0
  0
LINE
  5
298F
  8
0
 62
     0
 10
-422.99441501814908
 20
609.67060525139777
 30
0.0
 11
-426.49441501814908
 21
613.17060525139755
 31
0.0
  0
LINE
  5
2990
  8
0
 62
     0
 10
-446.73997191891408
 20
627.75930790267034
 30
0.0
 11
-450.23997191891408
 21
631.25930790267034
 31
0.0
  0
LINE
  5
2991
  8
0
 62
     0
 10
-428.65126926764151
 20
609.67060525139777
 30
0.0
 11
-432.1512692676414
 21
613.17060525139766
 31
0.0
  0
LINE
  5
2992
  8
0
 62
     0
 10
-446.73997191891402
 20
622.10245365317803
 30
0.0
 11
-450.23997191891408
 21
625.60245365317803
 31
0.0
  0
LINE
  5
2993
  8
0
 62
     0
 10
-433.3655522663081
 20
608.72803400057205
 30
0.0
 11
-438.80812351713382
 21
614.17060525139777
 31
0.0
  0
LINE
  5
2994
  8
0
 62
     0
 10
-446.73997191891419
 20
616.44559940368561
 30
0.0
 11
-450.23997191891431
 21
619.94559940368572
 31
0.0
  0
LINE
  5
2995
  8
0
 62
     0
 10
-436.54200697650481
 20
606.24763446127633
 30
0.0
 11
-444.4649777666263
 21
614.17060525139777
 31
0.0
  0
LINE
  5
2996
  8
0
 62
     0
 10
-438.45021738623171
 20
602.49899062151076
 30
0.0
 11
-450.23997191891408
 21
614.28874515419318
 31
0.0
  0
LINE
  5
2997
  8
0
 62
     0
 10
-438.73997191891408
 20
597.13189090470075
 30
0.0
 11
-450.23997191891408
 21
608.63189090470075
 31
0.0
  0
LINE
  5
2998
  8
0
 62
     0
 10
-438.73997191891408
 20
591.47503665520844
 30
0.0
 11
-450.23997191891408
 21
602.97503665520844
 31
0.0
  0
LINE
  5
2999
  8
0
 62
     0
 10
-444.09239476459561
 20
591.17060525139766
 30
0.0
 11
-451.59239476459578
 21
598.67060525139777
 31
0.0
  0
LINE
  5
299A
  8
0
 62
     0
 10
-438.73997191891419
 20
585.81818240571613
 30
0.0
 11
-441.23997191891408
 21
588.31818240571613
 31
0.0
  0
LINE
  5
299B
  8
0
 62
     0
 10
-445.73997191891408
 20
587.16132815622382
 30
0.0
 11
-453.23997191891419
 21
594.66132815622382
 31
0.0
  0
LINE
  5
299C
  8
0
 62
     0
 10
-438.73997191891402
 20
580.16132815622359
 30
0.0
 11
-441.23997191891408
 21
582.6613281562237
 31
0.0
  0
LINE
  5
299D
  8
0
 62
     0
 10
-445.73997191891408
 20
581.50447390673116
 30
0.0
 11
-453.23997191891408
 21
589.00447390673128
 31
0.0
  0
LINE
  5
299E
  8
0
 62
     0
 10
-438.73997191891419
 20
574.50447390673139
 30
0.0
 11
-441.23997191891408
 21
577.00447390673139
 31
0.0
  0
LINE
  5
299F
  8
0
 62
     0
 10
-445.73997191891408
 20
575.84761965723885
 30
0.0
 11
-456.63997191891411
 21
586.74761965723883
 31
0.0
  0
LINE
  5
29A0
  8
0
 62
     0
 10
-441.062957513073
 20
571.17060525139789
 30
0.0
 11
-441.23997191891419
 21
571.34761965723908
 31
0.0
  0
LINE
  5
29A1
  8
0
 62
     0
 10
-470.23997191891408
 20
594.69076540774654
 30
0.0
 11
-473.23977267995451
 21
597.69056616878697
 31
0.0
  0
LINE
  5
29A2
  8
0
 62
     0
 10
-446.71981176256531
 20
571.17060525139766
 30
0.0
 11
-456.63997191891411
 21
581.09076540774663
 31
0.0
  0
LINE
  5
29A3
  8
0
 62
     0
 10
-466.8399719189141
 20
585.63391115825425
 30
0.0
 11
-469.37666601205768
 21
588.17060525139766
 31
0.0
  0
LINE
  5
29A4
  8
0
 62
     0
 10
-470.23997191891402
 20
589.03391115825411
 30
0.0
 11
-473.23997191891408
 21
592.03391115825423
 31
0.0
  0
LINE
  5
29A5
  8
0
 62
     0
 10
-452.37666601205768
 20
571.17060525139766
 30
0.0
 11
-456.639971918914
 21
575.4339111582542
 31
0.0
  0
LINE
  5
29A6
  8
0
 62
     0
 10
-466.8399719189141
 20
579.97705690876182
 30
0.0
 11
-473.23997191891408
 21
586.3770569087618
 31
0.0
  0
LINE
  5
29A7
  8
0
 62
     0
 10
-466.8399719189141
 20
574.32020265926951
 30
0.0
 11
-473.23997191891419
 21
580.72020265926949
 31
0.0
  0
LINE
  5
29A8
  8
0
 62
     0
 10
-469.34722876053502
 20
571.17060525139789
 30
0.0
 11
-473.23997191891408
 21
575.06334840977695
 31
0.0
  0
LINE
  5
29A9
  8
0
 62
     0
 10
-441.23997191891419
 20
571.33693874022163
 30
0.0
 11
-438.73997191891402
 21
573.83693874022174
 31
0.0
  0
LINE
  5
29AA
  8
0
 62
     0
 10
-441.23997191891402
 20
576.99379298971417
 30
0.0
 11
-438.73997191891402
 21
579.49379298971405
 31
0.0
  0
LINE
  5
29AB
  8
0
 62
     0
 10
-447.06315965723041
 20
571.17060525139766
 30
0.0
 11
-445.73997191891402
 21
572.49379298971417
 31
0.0
  0
LINE
  5
29AC
  8
0
 62
     0
 10
-441.23997191891408
 20
582.65064723920625
 30
0.0
 11
-438.73997191891408
 21
585.15064723920636
 31
0.0
  0
LINE
  5
29AD
  8
0
 62
     0
 10
-452.72001390672278
 20
571.17060525139766
 30
0.0
 11
-445.73997191891408
 21
578.15064723920648
 31
0.0
  0
LINE
  5
29AE
  8
0
 62
     0
 10
-441.23997191891402
 20
588.3075014886989
 30
0.0
 11
-438.73997191891419
 21
590.80750148869868
 31
0.0
  0
LINE
  5
29AF
  8
0
 62
     0
 10
-419.8768681562151
 20
609.67060525139777
 30
0.0
 11
-416.3768681562151
 21
613.17060525139766
 31
0.0
  0
LINE
  5
29B0
  8
0
 62
     0
 10
-456.63997191891411
 20
572.90750148869881
 30
0.0
 11
-445.73997191891408
 21
583.80750148869879
 31
0.0
  0
LINE
  5
29B1
  8
0
 62
     0
 10
-444.03372240570758
 20
591.17060525139766
 30
0.0
 11
-438.73997191891419
 21
596.4643557381911
 31
0.0
  0
LINE
  5
29B2
  8
0
 62
     0
 10
-425.53372240570752
 20
609.67060525139789
 30
0.0
 11
-422.03372240570758
 21
613.17060525139766
 31
0.0
  0
LINE
  5
29B3
  8
0
 62
     0
 10
-456.63997191891411
 20
578.56435573819135
 30
0.0
 11
-445.73997191891408
 21
589.46435573819122
 31
0.0
  0
LINE
  5
29B4
  8
0
 62
     0
 10
-456.63997191891411
 20
584.22120998768355
 30
0.0
 11
-438.47894939914931
 21
602.38223250744829
 31
0.0
  0
LINE
  5
29B5
  8
0
 62
     0
 10
-431.45159917496483
 20
609.40958273163301
 30
0.0
 11
-427.69057665519989
 21
613.17060525139766
 31
0.0
  0
LINE
  5
29B6
  8
0
 62
     0
 10
-469.69057665519989
 20
571.17060525139789
 30
0.0
 11
-466.8399719189141
 21
574.02120998768362
 31
0.0
  0
LINE
  5
29B7
  8
0
 62
     0
 10
-453.23997191891408
 20
593.27806423717595
 30
0.0
 11
-433.34743090469232
 21
613.17060525139766
 31
0.0
  0
LINE
  5
29B8
  8
0
 62
     0
 10
-473.23997191891419
 20
573.27806423717595
 30
0.0
 11
-466.8399719189141
 21
579.67806423717593
 31
0.0
  0
LINE
  5
29B9
  8
0
 62
     0
 10
-450.23997191891408
 20
601.93491848666815
 30
0.0
 11
-438.00428515418469
 21
614.17060525139777
 31
0.0
  0
LINE
  5
29BA
  8
0
 62
     0
 10
-473.23997191891408
 20
578.93491848666815
 30
0.0
 11
-466.8399719189141
 21
585.33491848666824
 31
0.0
  0
LINE
  5
29BB
  8
0
 62
     0
 10
-450.23997191891408
 20
607.59177273616058
 30
0.0
 11
-443.66113940367711
 21
614.17060525139777
 31
0.0
  0
LINE
  5
29BC
  8
0
 62
     0
 10
-414.66113940367711
 20
643.17060525139777
 30
0.0
 11
-414.23997191891419
 21
643.59177273616069
 31
0.0
  0
LINE
  5
29BD
  8
0
 62
     0
 10
-473.23997191891408
 20
584.59177273616081
 30
0.0
 11
-469.66113940367711
 21
588.17060525139766
 31
0.0
  0
LINE
  5
29BE
  8
0
 62
     0
 10
-450.23997191891408
 20
613.24862698565312
 30
0.0
 11
-446.73997191891402
 21
616.74862698565323
 31
0.0
  0
LINE
  5
29BF
  8
0
 62
     0
 10
-420.31799365316948
 20
643.17060525139777
 30
0.0
 11
-416.38529594908329
 21
647.10330295548385
 31
0.0
  0
LINE
  5
29C0
  8
0
 62
     0
 10
-473.23997191891408
 20
590.24862698565323
 30
0.0
 11
-470.23997191891402
 21
593.24862698565323
 31
0.0
  0
LINE
  5
29C1
  8
0
 62
     0
 10
-450.23997191891408
 20
618.90548123514554
 30
0.0
 11
-446.73997191891408
 21
622.40548123514554
 31
0.0
  0
LINE
  5
29C2
  8
0
 62
     0
 10
-425.97484790266191
 20
643.17060525139777
 30
0.0
 11
-421.97484790266191
 21
647.17060525139777
 31
0.0
  0
LINE
  5
29C3
  8
0
 62
     0
 10
-473.23997191891408
 20
595.90548123514554
 30
0.0
 11
-470.47484790266179
 21
598.67060525139777
 31
0.0
  0
LINE
  5
29C4
  8
0
 62
     0
 10
-431.63170215215439
 20
643.17060525139755
 30
0.0
 11
-427.63170215215428
 21
647.17060525139777
 31
0.0
  0
LINE
  5
29C5
  8
0
 62
     0
 10
-450.23997191891419
 20
624.56233548463774
 30
0.0
 11
-446.73997191891419
 21
628.06233548463786
 31
0.0
  0
LINE
  5
29C6
  8
0
 62
     0
 10
-438.28855640164659
 20
642.17060525139766
 30
0.0
 11
-433.28858594319951
 21
647.1705757098448
 31
0.0
  0
LINE
  5
29C7
  8
0
 62
     0
 10
-450.23997191891402
 20
630.21918973413028
 30
0.0
 11
-446.73997191891402
 21
633.71918973413028
 31
0.0
  0
LINE
  5
29C8
  8
0
 62
     0
 10
-443.94541065113901
 20
642.17060525139766
 30
0.0
 11
-439.4267614407691
 21
646.68925446176763
 31
0.0
  0
LINE
  5
29C9
  8
0
 62
     0
 10
-450.23997191891408
 20
635.87604398362259
 30
0.0
 11
-446.73997191891408
 21
639.37604398362259
 31
0.0
  0
LINE
  5
29CA
  8
0
 62
     0
 10
-450.23997191891408
 20
641.53289823311502
 30
0.0
 11
-447.06874670976862
 21
644.70412344226054
 31
0.0
  0
ENDBLK
  5
29CC
  8
0
  0
BLOCK
  8
0
  2
*X2
 70
     1
 10
0.0
 20
0.0
 30
0.0
  3
*X2
  1

  0
LINE
  5
29CE
  8
0
 62
     0
 10
-665.22852776784805
 20
623.80198907839622
 30
0.0
 11
-669.09714394084961
 21
627.67060525139766
 31
0.0
  0
LINE
  5
29CF
  8
0
 62
     0
 10
-669.33978462796892
 20
623.67060525139766
 30
0.0
 11
-673.33978462796892
 21
627.67060525139766
 31
0.0
  0
LINE
  5
29D0
  8
0
 62
     0
 10
-673.58242531508824
 20
623.67060525139766
 30
0.0
 11
-677.5824253150879
 21
627.67060525139755
 31
0.0
  0
LINE
  5
29D1
  8
0
 62
     0
 10
-677.82506600220734
 20
623.67060525139766
 30
0.0
 11
-681.82506600220722
 21
627.67060525139766
 31
0.0
  0
LINE
  5
29D2
  8
0
 62
     0
 10
-682.06770668932666
 20
623.67060525139766
 30
0.0
 11
-686.05628481940141
 21
627.65918338147253
 31
0.0
  0
LINE
  5
29D3
  8
0
 62
     0
 10
-685.56034737644586
 20
622.92060525139766
 30
0.0
 11
-689.93833594960222
 21
627.2985938245539
 31
0.0
  0
LINE
  5
29D4
  8
0
 62
     0
 10
-665.22852776784805
 20
602.58878564279985
 30
0.0
 11
-666.31034737644597
 21
603.67060525139766
 31
0.0
  0
LINE
  5
29D5
  8
0
 62
     0
 10
-689.80298806356529
 20
622.92060525139766
 30
0.0
 11
-693.41454031790931
 21
626.53215750574168
 31
0.0
  0
LINE
  5
29D6
  8
0
 62
     0
 10
-666.55987677897724
 20
599.67749396680972
 30
0.0
 11
-670.55298806356507
 21
603.67060525139755
 31
0.0
  0
LINE
  5
29D7
  8
0
 62
     0
 10
-694.0456287506845
 20
622.92060525139755
 30
0.0
 11
-696.54756490736963
 21
625.42254140808279
 31
0.0
  0
LINE
  5
29D8
  8
0
 62
     0
 10
-670.29562875068461
 20
599.17060525139766
 30
0.0
 11
-674.79562875068439
 21
603.67060525139755
 31
0.0
  0
LINE
  5
29D9
  8
0
 62
     0
 10
-694.22852776784816
 20
618.860863581442
 30
0.0
 11
-697.22852776784839
 21
621.86086358144223
 31
0.0
  0
LINE
  5
29DA
  8
0
 62
     0
 10
-674.53826943780393
 20
599.17060525139766
 30
0.0
 11
-679.03826943780359
 21
603.67060525139755
 31
0.0
  0
LINE
  5
29DB
  8
0
 62
     0
 10
-694.22852776784816
 20
614.61822289432257
 30
0.0
 11
-697.22852776784839
 21
617.61822289432291
 31
0.0
  0
LINE
  5
29DC
  8
0
 62
     0
 10
-678.78072846189252
 20
599.17042358836716
 30
0.0
 11
-684.03091012492314
 21
604.42060525139766
 31
0.0
  0
LINE
  5
29DD
  8
0
 62
     0
 10
-694.22852776784805
 20
610.37558220720337
 30
0.0
 11
-697.22852776784828
 21
613.37558220720359
 31
0.0
  0
LINE
  5
29DE
  8
0
 62
     0
 10
-682.18143548393334
 20
598.32848992328866
 30
0.0
 11
-688.27355081204234
 21
604.42060525139777
 31
0.0
  0
LINE
  5
29DF
  8
0
 62
     0
 10
-694.22852776784805
 20
606.13294152008405
 30
0.0
 11
-697.22852776784828
 21
609.13294152008439
 31
0.0
  0
LINE
  5
29E0
  8
0
 62
     0
 10
-684.52522032654895
 20
596.42963407878506
 30
0.0
 11
-692.51619149916155
 21
604.42060525139777
 31
0.0
  0
LINE
  5
29E1
  8
0
 62
     0
 10
-685.96809258218809
 20
593.62986564730488
 30
0.0
 11
-697.22852776784805
 21
604.89030083296495
 31
0.0
  0
LINE
  5
29E2
  8
0
 62
     0
 10
-686.22852776784805
 20
589.64766014584552
 30
0.0
 11
-697.22852776784805
 21
600.64766014584563
 31
0.0
  0
LINE
  5
29E3
  8
0
 62
     0
 10
-686.22852776784805
 20
585.40501945872609
 30
0.0
 11
-697.22852776784805
 21
596.4050194587262
 31
0.0
  0
LINE
  5
29E4
  8
0
 62
     0
 10
-691.23675424763883
 20
586.17060525139766
 30
0.0
 11
-697.22852776784805
 21
592.16237877160677
 31
0.0
  0
LINE
  5
29E5
  8
0
 62
     0
 10
-686.22852776784805
 20
581.16237877160688
 30
0.0
 11
-689.22852776784816
 21
584.162378771607
 31
0.0
  0
LINE
  5
29E6
  8
0
 62
     0
 10
-693.22852776784805
 20
583.91973808448756
 30
0.0
 11
-698.02852776784812
 21
588.71973808448774
 31
0.0
  0
LINE
  5
29E7
  8
0
 62
     0
 10
-686.22852776784805
 20
576.91973808448779
 30
0.0
 11
-689.22852776784816
 21
579.91973808448768
 31
0.0
  0
LINE
  5
29E8
  8
0
 62
     0
 10
-693.22852776784805
 20
579.67709739736847
 30
0.0
 11
-698.02852776784812
 21
584.47709739736854
 31
0.0
  0
LINE
  5
29E9
  8
0
 62
     0
 10
-686.22852776784794
 20
572.67709739736836
 30
0.0
 11
-689.22852776784805
 21
575.67709739736847
 31
0.0
  0
LINE
  5
29EA
  8
0
 62
     0
 10
-693.22852776784805
 20
575.43445671024915
 30
0.0
 11
-700.76467630899651
 21
582.9706052513975
 31
0.0
  0
LINE
  5
29EB
  8
0
 62
     0
 10
-688.96467630899645
 20
571.17060525139755
 30
0.0
 11
-689.22852776784805
 21
571.43445671024915
 31
0.0
  0
LINE
  5
29EC
  8
0
 62
     0
 10
-713.02852776784812
 20
590.99181602312979
 30
0.0
 11
-713.20731699611565
 21
591.17060525139743
 31
0.0
  0
LINE
  5
29ED
  8
0
 62
     0
 10
-693.22852776784805
 20
571.19181602312983
 30
0.0
 11
-701.32852776784796
 21
579.29181602312974
 31
0.0
  0
LINE
  5
29EE
  8
0
 62
     0
 10
-713.02852776784812
 20
586.74917533601058
 30
0.0
 11
-715.22852776784805
 21
588.94917533601028
 31
0.0
  0
LINE
  5
29EF
  8
0
 62
     0
 10
-697.4499576832352
 20
571.17060525139755
 30
0.0
 11
-701.32852776784796
 21
575.04917533601053
 31
0.0
  0
LINE
  5
29F0
  8
0
 62
     0
 10
-709.72852776784805
 20
579.20653464889119
 30
0.0
 11
-715.22852776784805
 21
584.70653464889108
 31
0.0
  0
LINE
  5
29F1
  8
0
 62
     0
 10
-709.72852776784828
 20
574.96389396177187
 30
0.0
 11
-715.22852776784805
 21
580.46389396177176
 31
0.0
  0
LINE
  5
29F2
  8
0
 62
     0
 10
-710.17787974459316
 20
571.17060525139766
 30
0.0
 11
-715.22852776784794
 21
576.22125327465255
 31
0.0
  0
LINE
  5
29F3
  8
0
 62
     0
 10
-714.42052043171225
 20
571.17060525139766
 30
0.0
 11
-715.22852776784805
 21
571.97861258753346
 31
0.0
  0
LINE
  5
29F4
  8
0
 62
     0
 10
-687.89381064128906
 20
571.17060525139755
 30
0.0
 11
-686.22852776784794
 21
572.83588812483879
 31
0.0
  0
LINE
  5
29F5
  8
0
 62
     0
 10
-689.22852776784805
 20
574.07852881195799
 30
0.0
 11
-686.22852776784794
 21
577.07852881195811
 31
0.0
  0
LINE
  5
29F6
  8
0
 62
     0
 10
-689.22852776784816
 20
578.3211694990772
 30
0.0
 11
-686.22852776784805
 21
581.32116949907731
 31
0.0
  0
LINE
  5
29F7
  8
0
 62
     0
 10
-668.37909201552736
 20
599.17060525139777
 30
0.0
 11
-665.22852776784805
 21
602.3211694990772
 31
0.0
  0
LINE
  5
29F8
  8
0
 62
     0
 10
-696.37909201552748
 20
571.17060525139766
 30
0.0
 11
-693.22852776784794
 21
574.32116949907743
 31
0.0
  0
LINE
  5
29F9
  8
0
 62
     0
 10
-689.22852776784805
 20
582.56381018619663
 30
0.0
 11
-686.22852776784805
 21
585.56381018619663
 31
0.0
  0
LINE
  5
29FA
  8
0
 62
     0
 10
-672.6217327026468
 20
599.17060525139777
 30
0.0
 11
-668.12173270264702
 21
603.67060525139755
 31
0.0
  0
LINE
  5
29FB
  8
0
 62
     0
 10
-700.62173270264702
 20
571.17060525139755
 30
0.0
 11
-693.22852776784805
 21
578.56381018619663
 31
0.0
  0
LINE
  5
29FC
  8
0
 62
     0
 10
-689.86437338976611
 20
586.17060525139777
 30
0.0
 11
-686.22852776784805
 21
589.80645087331595
 31
0.0
  0
LINE
  5
29FD
  8
0
 62
     0
 10
-676.86437338976611
 20
599.17060525139777
 30
0.0
 11
-672.36437338976623
 21
603.67060525139766
 31
0.0
  0
LINE
  5
29FE
  8
0
 62
     0
 10
-701.32852776784796
 20
574.70645087331593
 30
0.0
 11
-693.22852776784794
 21
582.80645087331595
 31
0.0
  0
LINE
  5
29FF
  8
0
 62
     0
 10
-681.73674087067366
 20
598.54087845760944
 30
0.0
 11
-676.60701407688555
 21
603.67060525139755
 31
0.0
  0
LINE
  5
2A00
  8
0
 62
     0
 10
-701.32852776784785
 20
578.94909156043525
 30
0.0
 11
-685.59880097405949
 21
594.67881835422361
 31
0.0
  0
LINE
  5
2A01
  8
0
 62
     0
 10
-698.028527767848
 20
586.49173224755441
 30
0.0
 11
-680.84965476400475
 21
603.67060525139755
 31
0.0
  0
LINE
  5
2A02
  8
0
 62
     0
 10
-713.34965476400464
 20
571.17060525139766
 30
0.0
 11
-709.72852776784805
 21
574.79173224755425
 31
0.0
  0
LINE
  5
2A03
  8
0
 62
     0
 10
-698.028527767848
 20
590.73437293467373
 30
0.0
 11
-697.59229545112396
 21
591.17060525139755
 31
0.0
  0
LINE
  5
2A04
  8
0
 62
     0
 10
-697.22852776784794
 20
591.53437293467368
 30
0.0
 11
-684.34229545112396
 21
604.42060525139777
 31
0.0
  0
LINE
  5
2A05
  8
0
 62
     0
 10
-715.22852776784805
 20
573.53437293467368
 30
0.0
 11
-709.72852776784794
 21
579.03437293467368
 31
0.0
  0
LINE
  5
2A06
  8
0
 62
     0
 10
-697.22852776784794
 20
595.77701362179312
 30
0.0
 11
-688.58493613824317
 21
604.42060525139777
 31
0.0
  0
LINE
  5
2A07
  8
0
 62
     0
 10
-669.33493613824317
 20
623.67060525139766
 30
0.0
 11
-666.16107891337185
 21
626.84446247626909
 31
0.0
  0
LINE
  5
2A08
  8
0
 62
     0
 10
-715.22852776784805
 20
577.777013621793
 30
0.0
 11
-710.03493613824355
 21
582.97060525139739
 31
0.0
  0
LINE
  5
2A09
  8
0
 62
     0
 10
-697.22852776784805
 20
600.01965430891232
 30
0.0
 11
-692.8275768253626
 21
604.42060525139777
 31
0.0
  0
LINE
  5
2A0A
  8
0
 62
     0
 10
-673.5775768253626
 20
623.67060525139766
 30
0.0
 11
-669.5775768253626
 21
627.67060525139766
 31
0.0
  0
LINE
  5
2A0B
  8
0
 62
     0
 10
-715.22852776784794
 20
582.01965430891244
 30
0.0
 11
-713.02852776784812
 21
584.21965430891225
 31
0.0
  0
LINE
  5
2A0C
  8
0
 62
     0
 10
-697.22852776784805
 20
604.26229499603153
 30
0.0
 11
-694.22852776784805
 21
607.26229499603164
 31
0.0
  0
LINE
  5
2A0D
  8
0
 62
     0
 10
-677.8202175124818
 20
623.67060525139766
 30
0.0
 11
-673.8202175124818
 21
627.67060525139766
 31
0.0
  0
LINE
  5
2A0E
  8
0
 62
     0
 10
-715.22852776784794
 20
586.26229499603176
 30
0.0
 11
-713.02852776784812
 21
588.46229499603146
 31
0.0
  0
LINE
  5
2A0F
  8
0
 62
     0
 10
-682.81285819960112
 20
622.92060525139789
 30
0.0
 11
-682.22852776784816
 21
623.50493568315073
 31
0.0
  0
LINE
  5
2A10
  8
0
 62
     0
 10
-697.22852776784828
 20
608.50493568315073
 30
0.0
 11
-694.22852776784816
 21
611.50493568315085
 31
0.0
  0
LINE
  5
2A11
  8
0
 62
     0
 10
-682.06285819960124
 20
623.67060525139766
 30
0.0
 11
-678.06285819960124
 21
627.67060525139766
 31
0.0
  0
LINE
  5
2A12
  8
0
 62
     0
 10
-715.22852776784805
 20
590.50493568315096
 30
0.0
 11
-714.56285819960158
 21
591.17060525139743
 31
0.0
  0
LINE
  5
2A13
  8
0
 62
     0
 10
-696.30549888672056
 20
613.67060525139755
 30
0.0
 11
-694.22852776784805
 21
615.74757637027005
 31
0.0
  0
LINE
  5
2A14
  8
0
 62
     0
 10
-687.05549888672033
 20
622.92060525139789
 30
0.0
 11
-682.30549888672056
 21
627.67060525139766
 31
0.0
  0
LINE
  5
2A15
  8
0
 62
     0
 10
-697.22852776784805
 20
612.74757637027005
 30
0.0
 11
-696.30549888672056
 21
613.67060525139755
 31
0.0
  0
LINE
  5
2A16
  8
0
 62
     0
 10
-691.29813957383965
 20
622.92060525139766
 30
0.0
 11
-686.5785300704971
 21
627.6402147547401
 31
0.0
  0
LINE
  5
2A17
  8
0
 62
     0
 10
-697.22852776784828
 20
616.99021705738915
 30
0.0
 11
-694.22852776784816
 21
619.99021705738915
 31
0.0
  0
LINE
  5
2A18
  8
0
 62
     0
 10
-697.22852776784828
 20
621.23285774450835
 30
0.0
 11
-691.44109535724795
 21
627.0202901551088
 31
0.0
  0
ENDBLK
  5
2A1A
  8
0
  0
ENDSEC
  0
SECTION
  2
ENTITIES
  0
ARC
  5
A2B
  8
0
 10
-429.23997191891408
 20
600.17060525139766
 30
0.0
 40
9.5
 50
90.0
 51
180.0
1001
ACAD
1000
ASC_BOUNDS
1002
{
1070
    19
1005
118D
1002
}
  0
LINE
  5
A2C
  8
0
 10
-439.73997191891408
 20
571.17060525139766
 30
0.0
 11
-473.23997191891419
 21
571.17060525139766
 31
0.0
1001
ACAD
1000
ASC_BOUNDS
1002
{
1070
    19
1005
118D
1005
118D
1002
}
  0
LINE
  5
A2D
  8
0
 10
-414.23997191891419
 20
612.42060525139777
 30
0.0
 11
-414.23997191891419
 21
644.42060525139766
 31
0.0
1001
ACAD
1000
ASC_BOUNDS
1002
{
1070
    19
1005
118D
1002
}
  0
LINE
  5
A2E
  8
0
 10
-438.73997191891408
 20
572.17060525139777
 30
0.0
 11
-438.73997191891419
 21
600.17060525139766
 31
0.0
1001
ACAD
1000
ASC_BOUNDS
1002
{
1070
    19
1005
118D
1002
}
  0
LINE
  5
A2F
  8
0
 10
-416.98997191891419
 20
609.67060525139777
 30
0.0
 11
-429.23997191891408
 21
609.67060525139777
 31
0.0
1001
ACAD
1000
ASC_BOUNDS
1002
{
1070
    19
1005
118D
1002
}
  0
LINE
  5
A30
  8
0
 10
-416.98997191891419
 20
647.17060525139777
 30
0.0
 11
-433.23997191891408
 21
647.17060525139777
 31
0.0
1001
ACAD
1000
ASC_BOUNDS
1002
{
1070
    19
1005
118D
1002
}
  0
LINE
  5
A31
  8
0
 10
-473.23997191891419
 20
571.17060525139766
 30
0.0
 11
-473.23997191891408
 21
607.17060525139766
 31
0.0
1001
ACAD
1000
ASC_BOUNDS
1002
{
1070
    19
1005
118D
1002
}
  0
LINE
  5
A80
  8
0
 10
-473.23997191891419
 20
540.458097155617
 30
0.0
 11
-473.23997191891419
 21
505.958097155617
 31
0.0
  0
LINE
  5
A82
  8
0
 10
-414.23997191891419
 20
540.45809715561688
 30
0.0
 11
-414.23997191891419
 21
505.958097155617
 31
0.0
  0
LINE
  5
A83
  8
0
 10
-470.73997191891419
 20
542.95809715561711
 30
0.0
 11
-416.73997191891408
 21
542.958097155617
 31
0.0
  0
LINE
  5
A84
  8
0
 10
-470.73997191891431
 20
503.45809715561688
 30
0.0
 11
-416.73997191891408
 21
503.45809715561688
 31
0.0
  0
ARC
  5
A85
  8
0
 10
-416.98997191891419
 20
644.42060525139766
 30
0.0
 40
2.75
 50
0.0
 51
90.0
1001
ACAD
1000
ASC_BOUNDS
1002
{
1070
    19
1005
118D
1002
}
  0
ARC
  5
A86
  8
0
 10
-416.98997191891419
 20
612.42060525139777
 30
0.0
 40
2.75
 50
270.0
 51
0.0
1001
ACAD
1000
ASC_BOUNDS
1002
{
1070
    19
1005
118D
1002
}
  0
ARC
  5
AC6
  8
0
 10
-439.73997191891408
 20
572.17060525139777
 30
0.0
 40
1.0
 50
270.0
 51
0.0
1001
ACAD
1000
ASC_BOUNDS
1002
{
1070
    19
1005
118D
1002
}
  0
LINE
  5
B03
  8
0
  6
DASHDOT_CENTER
 10
-461.73997191891408
 20
533.208097155617
 30
0.0
 11
-461.73997191891408
 21
513.20809715561688
 31
0.0
  0
LINE
  5
B04
  8
0
  6
DASHDOT_CENTER
 10
-476.23997191891419
 20
523.208097155617
 30
0.0
 11
-411.23997191891408
 21
523.208097155617
 31
0.0
  0
CIRCLE
  5
B05
  8
0
 10
-461.73997191891408
 20
523.208097155617
 30
0.0
 40
5.0999999999999988
  0
ARC
  5
B45
  8
0
 10
-470.73997191891419
 20
540.458097155617
 30
0.0
 40
2.5
 50
90.0
 51
180.0
  0
ARC
  5
B46
  8
0
 10
-470.73997191891431
 20
505.958097155617
 30
0.0
 40
2.5
 50
180.00000000000011
 51
270.0
  0
ARC
  5
B47
  8
0
 10
-416.73997191891408
 20
540.45809715561688
 30
0.0
 40
2.5
 50
0.0
 51
89.999999999999872
  0
ARC
  5
B48
  8
0
 10
-416.73997191891408
 20
505.958097155617
 30
0.0
 40
2.5
 50
270.0
 51
0.0
  0
CIRCLE
  5
B85
  8
0
 10
-461.73997191891408
 20
523.208097155617
 30
0.0
 40
8.5
  0
ARC
  5
BC3
  8
0
 10
-461.73997191891408
 20
523.208097155617
 30
0.0
 40
11.5
 50
270.0
 51
90.0
  0
LINE
  5
BC4
  8
0
 10
-461.73997191891408
 20
534.70809715561688
 30
0.0
 11
-473.23997191891419
 21
534.70809715561688
 31
0.0
  0
LINE
  5
BC5
  8
0
 10
-461.73997191891408
 20
511.708097155617
 30
0.0
 11
-473.23997191891419
 21
511.708097155617
 31
0.0
  0
ARC
  5
C40
  8
0
 10
-433.23997191891408
 20
607.17060525139766
 30
0.0
 40
40.0
 50
90.0
 51
180.0
1001
ACAD
1000
ASC_BOUNDS
1002
{
1070
    19
1005
118D
1002
}
  0
ARC
  5
C41
  8
0
 10
-447.73997191891419
 20
641.75383818297894
 30
0.0
 40
2.5
 50
112.7472480084452
 51
180.0
1001
ACAD
1000
ASC_BOUNDS
1002
{
1070
    19
1005
118D
1002
}
  0
LINE
  5
C7E
  8
0
 10
-450.23997191891419
 20
598.67060525139766
 30
0.0
 11
-472.23997191891419
 21
598.67060525139777
 31
0.0
1001
ACAD
1000
ASC_BOUNDS
1002
{
1070
    19
1005
118D
1005
118D
1002
}
  0
LINE
  5
C7F
  8
0
 10
-450.23997191891408
 20
598.67060525139766
 30
0.0
 11
-450.23997191891408
 21
641.75383818297894
 31
0.0
1001
ACAD
1000
ASC_BOUNDS
1002
{
1070
    19
1005
118D
1002
}
  0
LINE
  5
C80
  8
0
  6
DASHDOT_CENTER
 10
-461.73997191891419
 20
568.17060525139777
 30
0.0
 11
-461.73997191891431
 21
601.67060525139789
 31
0.0
  0
LINE
  5
C81
  8
0
 10
-453.23997191891408
 20
588.17060525139766
 30
0.0
 11
-470.23997191891402
 21
588.17060525139766
 31
0.0
1001
ACAD
1000
ASC_BOUNDS
1002
{
1070
    19
1005
118D
1005
118D
1002
}
  0
LINE
  5
C82
  8
0
 10
-453.23997191891408
 20
588.17060525139766
 30
0.0
 11
-453.23997191891419
 21
598.67060525139766
 31
0.0
1001
ACAD
1000
ASC_BOUNDS
1002
{
1070
    19
1005
118D
1002
}
  0
LINE
  5
C84
  8
0
 10
-470.23997191891402
 20
588.17060525139766
 30
0.0
 11
-470.23997191891408
 21
598.67060525139766
 31
0.0
1001
ACAD
1000
ASC_BOUNDS
1002
{
1070
    19
1005
118D
1002
}
  0
LINE
  5
C86
  8
0
 10
-466.8399719189141
 20
571.17060525139766
 30
0.0
 11
-466.8399719189141
 21
588.17060525139766
 31
0.0
1001
ACAD
1000
ASC_BOUNDS
1002
{
1070
    19
1005
118D
1002
}
  0
LINE
  5
C87
  8
0
 10
-456.63997191891411
 20
571.17060525139766
 30
0.0
 11
-456.63997191891411
 21
588.17060525139766
 31
0.0
1001
ACAD
1000
ASC_BOUNDS
1002
{
1070
    19
1005
118D
1002
}
  0
ARC
  5
C89
  8
0
 10
-472.23997191891419
 20
597.67060525139789
 30
0.0
 40
1.0
 50
89.999999999999716
 51
180.0
1001
ACAD
1000
ASC_BOUNDS
1002
{
1070
    19
1005
118D
1002
}
  0
LINE
  5
D04
  8
0
 10
-446.73997191891419
 20
614.17060525139789
 30
0.0
 11
-446.73997191891419
 21
642.17060525139766
 31
0.0
1001
ACAD
1000
ASC_BOUNDS
1002
{
1070
    19
1005
118D
1002
}
  0
LINE
  5
D05
  8
0
  6
DASHDOT_CENTER
 10
-411.23997191891408
 20
628.17060525139766
 30
0.0
 11
-448.23997191891419
 21
628.17060525139766
 31
0.0
  0
LINE
  5
D06
  8
0
 10
-414.23997191891419
 20
643.17060525139777
 30
0.0
 11
-435.23997191891419
 21
643.17060525139777
 31
0.0
1001
ACAD
1000
ASC_BOUNDS
1002
{
1070
    19
1005
118D
1002
}
  0
LINE
  5
D07
  8
0
 10
-414.23997191891419
 20
613.17060525139766
 30
0.0
 11
-435.23997191891431
 21
613.17060525139766
 31
0.0
1001
ACAD
1000
ASC_BOUNDS
1002
{
1070
    19
1005
118D
1002
}
  0
LINE
  5
D08
  8
0
 10
-435.23997191891408
 20
613.17060525139789
 30
0.0
 11
-435.23997191891419
 21
643.17060525139777
 31
0.0
1001
ACAD
1000
ASC_BOUNDS
1002
{
1070
    19
1005
118D
1002
}
  0
LINE
  5
D81
  8
0
 10
-435.23997191891408
 20
642.17060525139766
 30
0.0
 11
-446.73997191891419
 21
642.17060525139766
 31
0.0
1001
ACAD
1000
ASC_BOUNDS
1002
{
1070
    19
1005
118D
1002
}
  0
LINE
  5
D82
  8
0
 10
-435.23997191891408
 20
614.17060525139777
 30
0.0
 11
-446.73997191891419
 21
614.17060525139777
 31
0.0
1001
ACAD
1000
ASC_BOUNDS
1002
{
1070
    19
1005
118D
1002
}
  0
LINE
  5
F66
  8
0
 10
-441.23997191891408
 20
591.17060525139766
 30
0.0
 11
-445.73997191891408
 21
591.17060525139766
 31
0.0
1001
ACAD
1000
ASC_BOUNDS
1002
{
1070
    19
1005
118D
1002
}
  0
LINE
  5
F68
  8
0
 10
-441.23997191891408
 20
571.17060525139766
 30
0.0
 11
-441.23997191891408
 21
591.17060525139766
 31
0.0
1001
ACAD
1000
ASC_BOUNDS
1002
{
1070
    19
1005
118D
1002
}
  0
LINE
  5
F69
  8
0
 10
-445.73997191891408
 20
571.17060525139766
 30
0.0
 11
-445.73997191891408
 21
591.17060525139766
 31
0.0
1001
ACAD
1000
ASC_BOUNDS
1002
{
1070
    19
1005
118D
1002
}
  0
ARC
  5
1007
  8
0
 10
-295.43715594643112
 20
607.17060525139766
 30
0.0
 40
40.0
 50
0.000000000000007
 51
90.0
  0
LINE
  5
1008
  8
0
 10
-288.93715594643118
 20
571.17060525139766
 30
0.0
 11
-255.43715594643109
 21
571.17060525139766
 31
0.0
  0
LINE
  5
100C
  8
0
 10
-255.43715594643109
 20
571.17060525139766
 30
0.0
 11
-255.4371559464312
 21
607.17060525139766
 31
0.0
  0
LINE
  5
1015
  8
0
 10
-314.43715594643112
 20
612.42060525139777
 30
0.0
 11
-314.43715594643112
 21
644.42060525139766
 31
0.0
  0
LINE
  5
101A
  8
0
 10
-289.93715594643118
 20
572.17060525139777
 30
0.0
 11
-289.93715594643112
 21
600.17060525139766
 31
0.0
  0
ARC
  5
101B
  8
0
 10
-288.93715594643118
 20
572.17060525139777
 30
0.0
 40
1.0
 50
180.0
 51
270.0
  0
ARC
  5
101C
  8
0
 10
-299.43715594643112
 20
600.17060525139766
 30
0.0
 40
9.5
 50
0.000000000000007
 51
90.0
  0
LINE
  5
1020
  8
0
 10
-311.68715594643112
 20
609.67060525139777
 30
0.0
 11
-299.43715594643112
 21
609.67060525139777
 31
0.0
  0
ARC
  5
1021
  8
0
 10
-311.68715594643112
 20
612.42060525139777
 30
0.0
 40
2.75
 50
180.0
 51
270.0
  0
LINE
  5
1023
  8
0
 10
-311.68715594643112
 20
647.17060525139777
 30
0.0
 11
-295.43715594643112
 21
647.17060525139777
 31
0.0
  0
ARC
  5
1025
  8
0
 10
-311.68715594643112
 20
644.42060525139766
 30
0.0
 40
2.75
 50
90.0
 51
180.0
  0
LINE
  5
10F8
  8
0
  6
DASHDOT_CENTER
 10
-317.43715594643118
 20
628.17060525139766
 30
0.0
 11
-278.21973391576842
 21
628.17060525139766
 31
0.0
  0
INSERT
  5
118D
  8
0
  6
CONTINUOUS
  2
*X1
 10
0.0
 20
0.0
 30
0.0
1001
ACAD
1000
HATCH
1002
{
1070
    19
1000
_USER
1040
4.0
1040
0.7853981633974483
1000
ASC_BOUNDS
1070
     2
1070
     1
1070
     7
1005
C86
1005
A2C
1005
A31
1005
C89
1005
C7E
1005
C84
1005
C81
1070
     1
1070
    25
1005
A2B
1005
A2E
1005
AC6
1005
F68
1005
F66
1005
F69
1005
A2C
1005
C87
1005
C81
1005
C82
1005
C7E
1005
C7F
1005
C41
1005
C40
1005
A30
1005
A85
1005
D06
1005
D81
1005
D04
1005
D82
1005
D08
1005
D07
1005
A2D
1005
A86
1005
A2F
1000
ASC_SEEDPOINT
1011
-441.22894358115121
1021
0.0
1031
0.0
1021
602.58909089874658
1031
0.0
1000
R14_HATCH_DATA
1000
118D
1011
1.0
1021
0.0
1031
0.0
1021
0.0
1031
0.0
1011
0.0
1021
0.0
1031
0.0
1021
1.0
1031
0.0
1011
0.0
1021
0.0
1031
0.0
1021
0.0
1031
1.0
1040
0.0
1010
0.0
1020
0.0
1030
1.0
1000
_USER
1070
     0
1070
     1
1071
        2
1071
        7
1070
     1
1070
     1
1071
       28
1040
-429.23997191891408
1040
609.67060525139777
1040
0.0
1040
-416.98997191891419
1040
609.67060525139777
1040
0.4142135623730951
1040
-414.23997191891419
1040
612.42060525139777
1040
0.0
1040
-414.23997191891419
1040
613.17060525139766
1040
0.0
1040
-435.23997191891419
1040
613.17060525139766
1040
0.0
1040
-435.23997191891419
1040
614.17060525139777
1040
0.0
1040
-446.73997191891419
1040
614.17060525139777
1040
0.0
1040
-446.73997191891419
1040
642.17060525139766
1040
0.0
1040
-435.23997191891408
1040
642.17060525139766
1040
0.0
1040
-435.23997191891419
1040
643.17060525139777
1040
0.0
1040
-414.23997191891419
1040
643.17060525139777
1040
0.0
1040
-414.23997191891419
1040
644.42060525139766
1040
0.4142135623730951
1040
-416.98997191891419
1040
647.17060525139777
1040
0.0
1040
-433.23997191891408
1040
647.17060525139777
1040
0.0995808076713719
1040
-448.70663858558078
1040
644.05938704508435
1040
0.3021689731743146
1040
-450.23997191891408
1040
641.75383818297894
1040
0.0
1040
-450.23997191891408
1040
598.67060525139777
1040
0.0
1040
-453.23997191891419
1040
598.67060525139777
1040
0.0
1040
-453.23997191891408
1040
588.17060525139766
1040
0.0
1040
-456.63997191891411
1040
588.17060525139789
1040
0.0
1040
-456.63997191891411
1040
571.17060525139766
1040
0.0
1040
-445.73997191891408
1040
571.17060525139766
1040
0.0
1040
-445.73997191891408
1040
591.17060525139766
1040
0.0
1040
-441.23997191891408
1040
591.17060525139755
1040
0.0
1040
-441.23997191891419
1040
571.17060525139789
1040
0.0
1040
-439.73997191891419
1040
571.17060525139766
1040
0.4142135623731117
1040
-438.73997191891408
1040
572.17060525139777
1040
0.0
1040
-438.73997191891419
1040
600.17060525139766
1040
-0.4142135623730951
1071
       25
1005
A2F
1005
A86
1005
A2D
1005
D07
1005
D08
1005
D82
1005
D04
1005
D81
1005
D06
1005
A85
1005
A30
1005
C40
1005
C41
1005
C7F
1005
C7E
1005
C82
1005
C81
1005
C87
1005
A2C
1005
F69
1005
F66
1005
F68
1005
AC6
1005
A2E
1005
A2B
1071
        7
1070
     1
1070
     1
1071
        7
1040
-466.8399719189141
1040
588.17060525139766
1040
0.0
1040
-470.23997191891402
1040
588.17060525139766
1040
0.0
1040
-470.23997191891408
1040
598.67060525139777
1040
0.0
1040
-472.23997191891419
1040
598.67060525139777
1040
0.4142135623730798
1040
-473.23997191891408
1040
597.67060525139789
1040
0.0
1040
-473.23997191891419
1040
571.17060525139766
1040
0.0
1040
-466.8399719189141
1040
571.17060525139789
1040
0.0
1071
        7
1005
C81
1005
C84
1005
C7E
1005
C89
1005
A31
1005
A2C
1005
C86
1070
     0
1070
     0
1040
0.7853981633974483
1040
4.0
1070
     1
1070
     2
1040
0.7853981633974483
1040
0.0
1040
0.0
1040
-2.828427124746189
1040
2.8284271247461898
1070
     0
1040
2.3561944901923439
1040
0.0
1040
0.0
1040
-2.8284271247461898
1040
-2.828427124746189
1070
     0
1040
0.2069777899283078
1071
        2
1040
-441.22894358115121
1040
602.58909089874658
1040
0.0
1040
-468.76884437805512
1040
579.61455631744138
1040
0.0
1002
}
  0
LINE
  5
2256
  8
0
  6
DASHDOT_CENTER
 10
-266.93715594643112
 20
568.17060525139777
 30
0.0
 11
-266.93715594643112
 21
601.67060525139789
 31
0.0
  0
LINE
  5
229A
  8
0
 10
-383.20573215379522
 20
571.33693874022174
 30
0.0
 11
-343.20573215379522
 21
571.33693874022174
 31
0.0
  0
LINE
  5
229B
  8
0
 10
-380.20573215379522
 20
647.17060525139755
 30
0.0
 11
-346.20573215379522
 21
647.170605251398
 31
0.0
  0
LINE
  5
229D
  8
0
 10
-383.20573215379522
 20
571.33693874022174
 30
0.0
 11
-383.20573215379522
 21
644.17060525139766
 31
0.0
  0
ARC
  5
229E
  8
0
 10
-380.20573215379522
 20
644.17060525139766
 30
0.0
 40
3.0
 50
90.000000000000213
 51
180.0
  0
ARC
  5
229F
  8
0
 10
-346.20573215379522
 20
644.17060525139777
 30
0.0
 40
3.0
 50
0.0
 51
90.000000000000256
  0
LINE
  5
22DC
  8
0
 10
-343.20573215379522
 20
571.33693874022174
 30
0.0
 11
-343.20573215379522
 21
644.17060525139766
 31
0.0
  0
LINE
  5
22DF
  8
0
  6
DASHDOT_CENTER
 10
-363.20573215379522
 20
568.33693874022174
 30
0.0
 11
-363.20573215379522
 21
650.170605251398
 31
0.0
  0
LINE
  5
22E1
  8
0
 10
-374.95573215379522
 20
598.67060525139766
 30
0.0
 11
-374.95573215379522
 21
632.30938704508424
 31
0.0
  0
LINE
  5
22E2
  8
0
 10
-374.95573215379522
 20
598.67060525139766
 30
0.0
 11
-351.45573215379511
 21
598.67060525139766
 31
0.0
  0
LINE
  5
22E3
  8
0
 10
-351.45573215379511
 20
598.67060525139766
 30
0.0
 11
-351.45573215379511
 21
632.30938704508424
 31
0.0
  0
ARC
  5
22EB
  8
0
 10
-363.20573215379528
 20
632.30938704508424
 30
0.0
 40
11.75000000000005
 50
0.0
 51
180.0
  0
LINE
  5
2365
  8
0
 10
-715.22852776784805
 20
571.17060525139766
 30
0.0
 11
-686.22852776784805
 21
571.17060525139766
 31
0.0
1001
ACAD
1000
ASC_BOUNDS
1002
{
1070
    19
1005
25F3
1005
25F3
1002
}
  0
LINE
  5
2366
  8
0
 10
-686.22852776784805
 20
571.17060525139766
 30
0.0
 11
-686.22852776784805
 21
591.67060525139766
 31
0.0
1001
ACAD
1000
ASC_BOUNDS
1002
{
1070
    19
1005
25F3
1002
}
  0
LINE
  5
2368
  8
0
 10
-678.72852776784805
 20
599.17060525139766
 30
0.0
 11
-668.22852776784805
 21
599.17060525139766
 31
0.0
1001
ACAD
1000
ASC_BOUNDS
1002
{
1070
    19
1005
25F3
1002
}
  0
ARC
  5
23A5
  8
0
 10
-678.72852776784805
 20
591.67060525139766
 30
0.0
 40
7.5
 50
90.0
 51
180.0
1001
ACAD
1000
ASC_BOUNDS
1002
{
1070
    19
1005
25F3
1002
}
  0
LINE
  5
23A6
  8
0
 10
-685.22852776784816
 20
627.67060525139766
 30
0.0
 11
-668.22852776784805
 21
627.67060525139766
 31
0.0
1001
ACAD
1000
ASC_BOUNDS
1002
{
1070
    19
1005
25F3
1002
}
  0
LINE
  5
23A7
  8
0
 10
-715.22852776784805
 20
571.17060525139766
 30
0.0
 11
-715.22852776784805
 21
597.67060525139755
 31
0.0
1001
ACAD
1000
ASC_BOUNDS
1002
{
1070
    19
1005
25F3
1002
}
  0
LINE
  5
23A8
  8
0
 10
-665.22852776784805
 20
602.17060525139777
 30
0.0
 11
-665.22852776784805
 21
624.67060525139766
 31
0.0
1001
ACAD
1000
ASC_BOUNDS
1002
{
1070
    19
1005
25F3
1005
25F3
1002
}
  0
ARC
  5
2406
  8
0
 10
-668.22852776784805
 20
602.17060525139777
 30
0.0
 40
3.0
 50
270.0
 51
359.99999999999972
1001
ACAD
1000
ASC_BOUNDS
1002
{
1070
    19
1005
25F3
1002
}
  0
ARC
  5
2407
  8
0
 10
-668.22852776784805
 20
624.67060525139766
 30
0.0
 40
3.0
 50
359.99999999999972
 51
90.000000000000298
1001
ACAD
1000
ASC_BOUNDS
1002
{
1070
    19
1005
25F3
1002
}
  0
LINE
  5
2444
  8
0
 10
-682.22852776784816
 20
603.67060525139766
 30
0.0
 11
-665.22852776784805
 21
603.67060525139766
 31
0.0
1001
ACAD
1000
ASC_BOUNDS
1002
{
1070
    19
1005
25F3
1002
}
  0
LINE
  5
2445
  8
0
 10
-682.22852776784805
 20
623.67060525139766
 30
0.0
 11
-665.22852776784805
 21
623.67060525139766
 31
0.0
1001
ACAD
1000
ASC_BOUNDS
1002
{
1070
    19
1005
25F3
1002
}
  0
LINE
  5
2446
  8
0
 10
-682.22852776784805
 20
603.67060525139766
 30
0.0
 11
-682.22852776784805
 21
623.67060525139766
 31
0.0
1001
ACAD
1000
ASC_BOUNDS
1002
{
1070
    19
1005
25F3
1005
25F3
1002
}
  0
LINE
  5
2447
  8
0
 10
-694.22852776784816
 20
622.92060525139766
 30
0.0
 11
-682.22852776784805
 21
622.92060525139766
 31
0.0
1001
ACAD
1000
ASC_BOUNDS
1002
{
1070
    19
1005
25F3
1002
}
  0
LINE
  5
2448
  8
0
 10
-694.22852776784816
 20
604.42060525139777
 30
0.0
 11
-682.22852776784805
 21
604.42060525139777
 31
0.0
1001
ACAD
1000
ASC_BOUNDS
1002
{
1070
    19
1005
25F3
1002
}
  0
LINE
  5
2449
  8
0
 10
-694.22852776784805
 20
604.42060525139777
 30
0.0
 11
-694.22852776784816
 21
622.92060525139766
 31
0.0
1001
ACAD
1000
ASC_BOUNDS
1002
{
1070
    19
1005
25F3
1005
25F3
1002
}
  0
LINE
  5
2487
  8
0
 10
-689.22852776784805
 20
571.17060525139766
 30
0.0
 11
-689.22852776784805
 21
586.17060525139766
 31
0.0
1001
ACAD
1000
ASC_BOUNDS
1002
{
1070
    19
1005
25F3
1002
}
  0
LINE
  5
2488
  8
0
 10
-693.22852776784805
 20
571.17060525139766
 30
0.0
 11
-693.22852776784805
 21
586.17060525139766
 31
0.0
1001
ACAD
1000
ASC_BOUNDS
1002
{
1070
    19
1005
25F3
1002
}
  0
LINE
  5
2489
  8
0
  6
DASHDOT_CENTER
 10
-709.72852776784805
 20
571.17060525139766
 30
0.0
 11
-709.72852776784805
 21
582.97060525139761
 31
0.0
1001
ACAD
1000
ASC_BOUNDS
1002
{
1070
    19
1005
25F3
1002
}
  0
LINE
  5
248B
  8
0
 10
-693.22852776784805
 20
586.17060525139766
 30
0.0
 11
-689.22852776784805
 21
586.17060525139766
 31
0.0
1001
ACAD
1000
ASC_BOUNDS
1002
{
1070
    19
1005
25F3
1002
}
  0
LINE
  5
248F
  8
0
 10
-697.22852776784805
 20
591.17060525139766
 30
0.0
 11
-697.22852776784828
 21
624.16588785038107
 31
0.0
1001
ACAD
1000
ASC_BOUNDS
1002
{
1070
    19
1005
25F3
1005
25F3
1002
}
  0
ARC
  5
24CC
  8
0
 10
-685.22852776784805
 20
597.67060525139755
 30
0.0
 40
30.0
 50
90.000000000000256
 51
180.0
1001
ACAD
1000
ASC_BOUNDS
1002
{
1070
    19
1005
25F3
1002
}
  0
ARC
  5
24CD
  8
0
 10
-695.72852776784816
 20
624.16588785038107
 30
0.0
 40
1.5
 50
111.61827242215951
 51
180.0
1001
ACAD
1000
ASC_BOUNDS
1002
{
1070
    19
1005
25F3
1002
}
  0
LINE
  5
250A
  8
0
  6
DASHDOT_CENTER
 10
-701.32852776784796
 20
571.17060525139766
 30
0.0
 11
-701.32852776784796
 21
582.97060525139761
 31
0.0
1001
ACAD
1000
ASC_BOUNDS
1002
{
1070
    19
1005
25F3
1002
}
  0
LINE
  5
250F
  8
0
  6
DASHDOT_CENTER
 10
-705.52852776784812
 20
568.17060525139777
 30
0.0
 11
-705.52852776784812
 21
594.17060525139766
 31
0.0
  0
LINE
  5
2514
  8
0
  6
DASHDOT_CENTER
 10
-662.22852776784805
 20
613.67060525139777
 30
0.0
 11
-700.22852776784805
 21
613.67060525139755
 31
0.0
1001
ACAD
1000
ASC_BOUNDS
1002
{
1070
    19
1005
25F3
1005
25F3
1002
}
  0
LINE
  5
258D
  8
0
 10
-713.02852776784823
 20
582.97060525139761
 30
0.0
 11
-698.02852776784812
 21
582.9706052513975
 31
0.0
1001
ACAD
1000
ASC_BOUNDS
1002
{
1070
    19
1005
25F3
1005
25F3
1002
}
  0
LINE
  5
258E
  8
0
 10
-715.22852776784805
 20
591.17060525139743
 30
0.0
 11
-697.22852776784805
 21
591.17060525139766
 31
0.0
1001
ACAD
1000
ASC_BOUNDS
1002
{
1070
    19
1005
25F3
1005
25F3
1002
}
  0
LINE
  5
2590
  8
0
 10
-713.02852776784812
 20
582.97060525139761
 30
0.0
 11
-713.02852776784812
 21
591.17060525139755
 31
0.0
1001
ACAD
1000
ASC_BOUNDS
1002
{
1070
    19
1005
25F3
1002
}
  0
LINE
  5
2591
  8
0
 10
-698.02852776784812
 20
582.9706052513975
 30
0.0
 11
-698.02852776784812
 21
591.17060525139766
 31
0.0
1001
ACAD
1000
ASC_BOUNDS
1002
{
1070
    19
1005
25F3
1002
}
  0
INSERT
  5
25F3
  8
0
  6
CONTINUOUS
  2
*X2
 10
0.0
 20
0.0
 30
0.0
1001
ACAD
1000
HATCH
1002
{
1070
    19
1000
_USER
1040
3.0
1040
0.7853981633974483
1000
ASC_BOUNDS
1070
     3
1070
     1
1070
     6
1005
2489
1005
2365
1005
23A7
1005
258E
1005
2590
1005
258D
1070
     1
1070
    19
1005
2406
1005
2368
1005
23A5
1005
2366
1005
2487
1005
248B
1005
2488
1005
2365
1005
250A
1005
258D
1005
2591
1005
258E
1005
248F
1005
2514
1005
2449
1005
2448
1005
2446
1005
2444
1005
23A8
1070
     1
1070
    11
1005
2407
1005
23A8
1005
2445
1005
2446
1005
2447
1005
2449
1005
2514
1005
248F
1005
24CD
1005
24CC
1005
23A6
1000
ASC_SEEDPOINT
1011
-688.89550527863139
1021
0.0
1031
0.0
1021
625.31479709940106
1031
0.0
1000
R14_HATCH_DATA
1000
25F3
1011
1.0
1021
0.0
1031
0.0
1021
0.0
1031
0.0
1011
0.0
1021
0.0
1031
0.0
1021
1.0
1031
0.0
1011
0.0
1021
0.0
1031
0.0
1021
0.0
1031
1.0
1040
0.0
1010
0.0
1020
0.0
1030
1.0
1000
_USER
1070
     0
1070
     1
1071
        3
1071
        7
1070
     1
1070
     1
1071
       11
1040
-696.28115934679556
1040
625.56037640822217
1040
0.3075528976172373
1040
-697.22852776784828
1040
624.16588785038095
1040
0.0
1040
-697.22852776784828
1040
613.67060525139755
1040
0.0
1040
-694.22852776784816
1040
613.67060525139755
1040
0.0
1040
-694.22852776784816
1040
622.92060525139766
1040
0.0
1040
-682.22852776784805
1040
622.92060525139766
1040
0.0
1040
-682.22852776784816
1040
623.67060525139766
1040
0.0
1040
-665.22852776784805
1040
623.67060525139766
1040
0.0
1040
-665.22852776784805
1040
624.67060525139766
1040
0.4142135623730979
1040
-668.22852776784805
1040
627.67060525139766
1040
0.0
1040
-685.22852776784828
1040
627.67060525139766
1040
0.0946082726826685
1071
       11
1005
23A6
1005
24CC
1005
24CD
1005
248F
1005
2514
1005
2449
1005
2447
1005
2446
1005
2445
1005
23A8
1005
2407
1071
        7
1070
     1
1070
     1
1071
       20
1040
-694.22852776784805
1040
604.42060525139777
1040
0.0
1040
-694.22852776784805
1040
613.67060525139755
1040
0.0
1040
-697.22852776784828
1040
613.67060525139755
1040
0.0
1040
-697.22852776784805
1040
591.17060525139766
1040
0.0
1040
-698.02852776784812
1040
591.17060525139766
1040
0.0
1040
-698.02852776784812
1040
582.9706052513975
1040
0.0
1040
-701.32852776784796
1040
582.9706052513975
1040
0.0
1040
-701.32852776784796
1040
571.17060525139755
1040
0.0
1040
-693.22852776784805
1040
571.17060525139766
1040
0.0
1040
-693.22852776784805
1040
586.17060525139766
1040
0.0
1040
-689.22852776784805
1040
586.17060525139766
1040
0.0
1040
-689.22852776784816
1040
571.17060525139755
1040
0.0
1040
-686.22852776784805
1040
571.17060525139766
1040
0.0
1040
-686.22852776784805
1040
591.67060525139766
1040
-0.4142135623730951
1040
-678.72852776784805
1040
599.17060525139766
1040
0.0
1040
-668.22852776784805
1040
599.17060525139766
1040
0.414213562373094
1040
-665.22852776784805
1040
602.17060525139777
1040
0.0
1040
-665.22852776784805
1040
603.67060525139766
1040
0.0
1040
-682.22852776784805
1040
603.67060525139755
1040
0.0
1040
-682.22852776784805
1040
604.42060525139777
1040
0.0
1071
       19
1005
23A8
1005
2444
1005
2446
1005
2448
1005
2449
1005
2514
1005
248F
1005
258E
1005
2591
1005
258D
1005
250A
1005
2365
1005
2488
1005
248B
1005
2487
1005
2366
1005
23A5
1005
2368
1005
2406
1071
        7
1070
     0
1070
     1
1071
        6
1040
-715.22852776784805
1040
571.17060525139766
1040
-709.72852776784805
1040
571.17060525139766
1040
-709.72852776784805
1040
582.9706052513975
1040
-713.02852776784812
1040
582.97060525139761
1040
-713.02852776784812
1040
591.17060525139743
1040
-715.22852776784794
1040
591.17060525139732
1071
        6
1005
258D
1005
2590
1005
258E
1005
23A7
1005
2365
1005
2489
1070
     0
1070
     0
1040
0.7853981633974483
1040
3.0
1070
     1
1070
     2
1040
0.7853981633974483
1040
-66.882382812167634
1040
0.0
1040
-2.1213203435596419
1040
2.1213203435596419
1070
     0
1040
2.3561944901923439
1040
-66.882382812167634
1040
0.0
1040
-2.1213203435596419
1040
-2.1213203435596419
1070
     0
1040
0.0926610599910235
1071
        3
1040
-688.89550527863139
1040
625.31479709940106
1040
0.0
1040
-692.23273938024988
1040
599.64768341178751
1040
0.0
1040
-714.38826980135411
1040
579.16958920884997
1040
0.0
1002
}
  0
LINE
  5
2631
  8
0
 10
-642.52407868616115
 20
571.17060525139766
 30
0.0
 11
-612.52407868616115
 21
571.17060525139766
 31
0.0
  0
LINE
  5
2633
  8
0
  6
DASHDOT_CENTER
 10
-627.52407868616115
 20
568.17060525139777
 30
0.0
 11
-627.52407868616115
 21
630.67060525139755
 31
0.0
  0
LINE
  5
2634
  8
0
 10
-641.02407868616115
 20
627.67060525139766
 30
0.0
 11
-614.02407868616103
 21
627.67060525139755
 31
0.0
  0
LINE
  5
2635
  8
0
 10
-642.52407868616115
 20
571.17060525139766
 30
0.0
 11
-642.52407868616115
 21
626.17060525139755
 31
0.0
  0
LINE
  5
2636
  8
0
 10
-612.52407868616115
 20
571.17060525139766
 30
0.0
 11
-612.52407868616103
 21
626.17060525139755
 31
0.0
  0
ARC
  5
2637
  8
0
 10
-641.02407868616115
 20
626.17060525139755
 30
0.0
 40
1.5
 50
89.999999999999787
 51
180.0
  0
ARC
  5
2638
  8
0
 10
-614.02407868616103
 20
626.17060525139755
 30
0.0
 40
1.5
 50
0.0
 51
89.999999999999758
  0
LINE
  5
2676
  8
0
 10
-636.62407868616106
 20
591.17060525139755
 30
0.0
 11
-636.62407868616106
 21
616.46037640822215
 31
0.0
  0
LINE
  5
2677
  8
0
 10
-618.42407868616112
 20
591.17060525139755
 30
0.0
 11
-618.42407868616101
 21
616.46037640822215
 31
0.0
  0
ARC
  5
26B6
  8
0
 10
-627.52407868616115
 20
616.46037640822215
 30
0.0
 40
9.1000000000000796
 50
0.0
 51
180.0
  0
LINE
  5
26F3
  8
0
 10
-636.62407868616117
 20
591.17060525139755
 30
0.0
 11
-618.42407868616101
 21
591.17060525139755
 31
0.0
  0
LINE
  5
2751
  8
0
 10
-539.81962960447424
 20
571.17060525139766
 30
0.0
 11
-568.81962960447424
 21
571.17060525139766
 31
0.0
  0
ARC
  5
2752
  8
0
 10
-569.81962960447424
 20
597.67060525139755
 30
0.0
 40
30.0
 50
0.000000000000007
 51
89.999999999999758
  0
LINE
  5
2753
  8
0
  6
DASHDOT_CENTER
 10
-549.51962960447406
 20
568.17060525139777
 30
0.0
 11
-549.51962960447406
 21
594.17060525139766
 31
0.0
  0
LINE
  5
2754
  8
0
 10
-539.81962960447424
 20
571.17060525139766
 30
0.0
 11
-539.81962960447424
 21
597.67060525139755
 31
0.0
  0
LINE
  5
2757
  8
0
 10
-589.81962960447413
 20
602.17060525139777
 30
0.0
 11
-589.81962960447424
 21
624.67060525139766
 31
0.0
  0
LINE
  5
275B
  8
0
  6
DASHDOT_CENTER
 10
-592.81962960447413
 20
613.67060525139777
 30
0.0
 11
-554.81962960447413
 21
613.67060525139755
 31
0.0
  0
LINE
  5
275C
  8
0
 10
-568.81962960447424
 20
571.17060525139766
 30
0.0
 11
-568.81962960447424
 21
591.67060525139766
 31
0.0
  0
ARC
  5
2762
  8
0
 10
-576.31962960447424
 20
591.67060525139766
 30
0.0
 40
7.5
 50
0.000000000000007
 51
90.0
  0
LINE
  5
2764
  8
0
 10
-576.31962960447424
 20
599.17060525139766
 30
0.0
 11
-586.81962960447413
 21
599.17060525139766
 31
0.0
  0
ARC
  5
2765
  8
0
 10
-586.81962960447413
 20
602.17060525139777
 30
0.0
 40
3.0
 50
180.0000000000002
 51
270.0
  0
LINE
  5
2767
  8
0
 10
-569.81962960447402
 20
627.67060525139766
 30
0.0
 11
-586.81962960447424
 21
627.67060525139766
 31
0.0
  0
ARC
  5
276B
  8
0
 10
-586.81962960447424
 20
624.67060525139766
 30
0.0
 40
3.0
 50
89.999999999999687
 51
180.0000000000002
  0
LINE
  5
27AE
  8
0
 10
-715.22852776784805
 20
535.20809715561711
 30
0.0
 11
-715.22852776784805
 21
511.20809715561711
 31
0.0
  0
LINE
  5
27B0
  8
0
 10
-712.22852776784805
 20
538.208097155617
 30
0.0
 11
-668.22852776784805
 21
538.208097155617
 31
0.0
  0
LINE
  5
27B1
  8
0
 10
-712.22852776784805
 20
508.20809715561711
 30
0.0
 11
-668.22852776784805
 21
508.208097155617
 31
0.0
  0
LINE
  5
27B2
  8
0
 10
-665.22852776784805
 20
535.20809715561711
 30
0.0
 11
-665.22852776784805
 21
511.208097155617
 31
0.0
  0
ARC
  5
27EF
  8
0
 10
-712.22852776784805
 20
535.20809715561711
 30
0.0
 40
3.0
 50
90.0
 51
180.0
  0
ARC
  5
27F0
  8
0
 10
-712.22852776784805
 20
511.20809715561711
 30
0.0
 40
3.0
 50
180.0
 51
270.0
  0
ARC
  5
27F1
  8
0
 10
-668.22852776784805
 20
535.20809715561711
 30
0.0
 40
3.0
 50
0.0
 51
90.0
  0
ARC
  5
27F2
  8
0
 10
-668.22852776784805
 20
511.208097155617
 30
0.0
 40
3.0
 50
270.0
 51
0.0
  0
LINE
  5
282F
  8
0
  6
DASHDOT_CENTER
 10
-705.52852776784812
 20
534.50809715561707
 30
0.0
 11
-705.52852776784812
 21
511.90809715561699
 31
0.0
  0
LINE
  5
2831
  8
0
  6
DASHDOT_CENTER
 10
-716.82852776784819
 20
523.20809715561711
 30
0.0
 11
-662.22852776784805
 21
523.208097155617
 31
0.0
  0
CIRCLE
  5
2832
  8
0
 10
-705.52852776784812
 20
523.20809715561711
 30
0.0
 40
4.2000000000000446
  0
CIRCLE
  5
2835
  8
0
 10
-705.52852776784812
 20
523.20809715561711
 30
0.0
 40
7.5
  0
ARC
  5
2838
  8
0
 10
-705.52852776784812
 20
523.20809715561711
 30
0.0
 40
8.3000000000000682
 50
270.0
 51
90.0
  0
LINE
  5
283A
  8
0
 10
-705.52852776784812
 20
531.50809715561707
 30
0.0
 11
-715.22852776784805
 21
531.50809715561707
 31
0.0
  0
LINE
  5
283B
  8
0
 10
-705.52852776784812
 20
514.90809715561704
 30
0.0
 11
-715.22852776784805
 21
514.90809715561704
 31
0.0
  0
ENDSEC
  0
EOF
