  0
SECTION
  2
HEADER
  9
$ACADVER
  1
AC1009
  9
$INSBASE
 10
0.0
 20
0.0
 30
0.0
  9
$EXTMIN
 10
49.97497662200476
 20
-15.010481988324949
 30
-0.0015258207003583
  9
$EXTMAX
 10
220.25390699535359
 20
328.66772540934329
 30
0.0000000349246037
  9
$LIMMIN
 10
0.0
 20
0.0
  9
$LIMMAX
 10
420.0
 20
297.0
  9
$ORTHOMODE
 70
     1
  9
$REGENMODE
 70
     1
  9
$FILLMODE
 70
     1
  9
$QTEXTMODE
 70
     0
  9
$MIRRTEXT
 70
     1
  9
$DRAGMODE
 70
     2
  9
$LTSCALE
 40
0.25
  9
$OSMODE
 70
    40
  9
$ATTMODE
 70
     1
  9
$TEXTSIZE
 40
2.5
  9
$TRACEWID
 40
1.0
  9
$TEXTSTYLE
  7
STANDARD
  9
$CLAYER
  8
0
  9
$CELTYPE
  6
BYLAYER
  9
$CECOLOR
 62
   256
  9
$DIMSCALE
 40
1.0
  9
$DIMASZ
 40
2.5
  9
$DIMEXO
 40
0.625
  9
$DIMDLI
 40
3.75
  9
$DIMRND
 40
0.0
  9
$DIMDLE
 40
0.0
  9
$DIMEXE
 40
1.25
  9
$DIMTP
 40
0.0
  9
$DIMTM
 40
0.0
  9
$DIMTXT
 40
2.5
  9
$DIMCEN
 40
2.5
  9
$DIMTSZ
 40
0.0
  9
$DIMTOL
 70
     0
  9
$DIMLIM
 70
     0
  9
$DIMTIH
 70
     0
  9
$DIMTOH
 70
     0
  9
$DIMSE1
 70
     0
  9
$DIMSE2
 70
     0
  9
$DIMTAD
 70
     1
  9
$DIMZIN
 70
     8
  9
$DIMBLK
  1

  9
$DIMASO
 70
     1
  9
$DIMSHO
 70
     1
  9
$DIMPOST
  1

  9
$DIMAPOST
  1

  9
$DIMALT
 70
     0
  9
$DIMALTD
 70
     4
  9
$DIMALTF
 40
0.0394
  9
$DIMLFAC
 40
1.0
  9
$DIMTOFL
 70
     1
  9
$DIMTVP
 40
0.0
  9
$DIMTIX
 70
     0
  9
$DIMSOXD
 70
     0
  9
$DIMSAH
 70
     0
  9
$DIMBLK1
  1

  9
$DIMBLK2
  1

  9
$DIMSTYLE
  2
STANDARD
  9
$DIMCLRD
 70
     0
  9
$DIMCLRE
 70
     0
  9
$DIMCLRT
 70
     0
  9
$DIMTFAC
 40
1.0
  9
$DIMGAP
 40
0.625
  9
$LUNITS
 70
     2
  9
$LUPREC
 70
     4
  9
$SKETCHINC
 40
1.0
  9
$FILLETRAD
 40
2.0
  9
$AUNITS
 70
     0
  9
$AUPREC
 70
     0
  9
$MENU
  1
acad
  9
$ELEVATION
 40
0.0
  9
$PELEVATION
 40
0.0
  9
$THICKNESS
 40
0.0
  9
$LIMCHECK
 70
     0
  9
$BLIPMODE
 70
     0
  9
$CHAMFERA
 40
2.0
  9
$CHAMFERB
 40
2.0
  9
$SKPOLY
 70
     0
  9
$TDCREATE
 40
2450983.3698842009
  9
$TDUPDATE
 40
2452236.5916315392
  9
$TDINDWG
 40
0.3513140741
  9
$TDUSRTIMER
 40
0.3513140741
  9
$USRTIMER
 70
     1
  9
$ANGBASE
 50
0.0
  9
$ANGDIR
 70
     0
  9
$PDMODE
 70
     0
  9
$PDSIZE
 40
0.0
  9
$PLINEWID
 40
0.0
  9
$COORDS
 70
     2
  9
$SPLFRAME
 70
     0
  9
$SPLINETYPE
 70
     6
  9
$SPLINESEGS
 70
     8
  9
$ATTDIA
 70
     0
  9
$ATTREQ
 70
     1
  9
$HANDLING
 70
-16383
  9
$HANDSEED
  5
25E
  9
$SURFTAB1
 70
     6
  9
$SURFTAB2
 70
     6
  9
$SURFTYPE
 70
     6
  9
$SURFU
 70
     6
  9
$SURFV
 70
     6
  9
$UCSNAME
  2

  9
$UCSORG
 10
0.0
 20
0.0
 30
0.0
  9
$UCSXDIR
 10
1.0
 20
0.0
 30
0.0
  9
$UCSYDIR
 10
0.0
 20
1.0
 30
0.0
  9
$PUCSNAME
  2

  9
$PUCSORG
 10
0.0
 20
0.0
 30
0.0
  9
$PUCSXDIR
 10
1.0
 20
0.0
 30
0.0
  9
$PUCSYDIR
 10
0.0
 20
1.0
 30
0.0
  9
$USERI1
 70
     0
  9
$USERI2
 70
     0
  9
$USERI3
 70
     0
  9
$USERI4
 70
     0
  9
$USERI5
 70
     0
  9
$USERR1
 40
0.0
  9
$USERR2
 40
0.0
  9
$USERR3
 40
0.0
  9
$USERR4
 40
0.0
  9
$USERR5
 40
0.0
  9
$WORLDVIEW
 70
     1
  9
$SHADEDGE
 70
     3
  9
$SHADEDIF
 70
    70
  9
$TILEMODE
 70
     1
  9
$MAXACTVP
 70
    48
  9
$PLIMCHECK
 70
     0
  9
$PEXTMIN
 10
1.0000000000000000E+020
 20
1.0000000000000000E+020
 30
1.0000000000000000E+020
  9
$PEXTMAX
 10
-1.0000000000000000E+020
 20
-1.0000000000000000E+020
 30
-1.0000000000000000E+020
  9
$PLIMMIN
 10
0.0
 20
0.0
  9
$PLIMMAX
 10
420.0
 20
297.0
  9
$UNITMODE
 70
     0
  9
$VISRETAIN
 70
     1
  9
$PLINEGEN
 70
     0
  9
$PSLTSCALE
 70
     1
  0
ENDSEC
  0
SECTION
  2
TABLES
  0
TABLE
  2
VPORT
 70
     2
  0
VPORT
  2
*ACTIVE
 70
     0
 10
0.0
 20
0.0
 11
1.0
 21
1.0
 12
135.1144418086792
 22
156.82862171050911
 13
0.0
 23
0.0
 14
0.25
 24
0.25
 15
10.0
 25
10.0
 16
0.0
 26
0.0
 36
1.0
 17
0.0
 27
0.0
 37
0.0
 40
692.61009439886789
 41
1.5573979591836731
 42
50.0
 43
0.0
 44
0.0
 50
0.0
 51
0.0
 71
     0
 72
   100
 73
     1
 74
     1
 75
     1
 76
     0
 77
     0
 78
     0
  0
ENDTAB
  0
TABLE
  2
LTYPE
 70
     2
  0
LTYPE
  2
CONTINUOUS
 70
     0
  3
Solid line
 72
    65
 73
     0
 40
0.0
  0
LTYPE
  2
CENTER2
 70
     0
  3
Center (.5x) ___ _ ___ _ ___ _ ___ _ ___ _ ___
 72
    65
 73
     4
 40
28.574999999999989
 49
19.050000000000001
 49
-3.1749999999999989
 49
3.1749999999999989
 49
-3.1749999999999989
  0
ENDTAB
  0
TABLE
  2
LAYER
 70
     1
  0
LAYER
  2
0
 70
     0
 62
     7
  6
CONTINUOUS
  0
ENDTAB
  0
TABLE
  2
STYLE
 70
     2
  0
STYLE
  2
STANDARD
 70
     0
 40
0.0
 41
1.0
 50
0.0
 71
     0
 42
2.5
  3
txt
  4

  0
ENDTAB
  0
TABLE
  2
VIEW
 70
     0
  0
ENDTAB
  0
TABLE
  2
UCS
 70
     0
  0
ENDTAB
  0
TABLE
  2
APPID
 70
     3
  0
APPID
  2
ACAD
 70
     0
  0
APPID
  2
CONTENTTABDATA
 70
     0
  0
APPID
  2
CONTENTCURRENTTAB
 70
     0
  0
ENDTAB
  0
TABLE
  2
DIMSTYLE
 70
     1
  0
DIMSTYLE
  2
STANDARD
 70
     0
  3

  4

  5

  6

  7

 40
1.0
 41
0.18
 42
0.0625
 43
0.38
 44
0.18
 45
0.0
 46
0.0
 47
0.0
 48
0.0
140
0.18
141
0.09
142
0.0
143
25.399999999999999
144
1.0
145
0.0
146
1.0
147
0.09
 71
     0
 72
     0
 73
     1
 74
     1
 75
     0
 76
     0
 77
     0
 78
     0
170
     0
171
     2
172
     0
173
     0
174
     0
175
     0
176
     0
177
     0
178
     0
  0
ENDTAB
  0
ENDSEC
  0
SECTION
  2
BLOCKS
  0
BLOCK
  8
0
  2
$MODEL_SPACE
 70
     0
 10
0.0
 20
0.0
 30
0.0
  3
$MODEL_SPACE
  1

  0
ENDBLK
  5
1FF
  8
0
  0
BLOCK
 67
     1
  8
0
  2
$PAPER_SPACE
 70
     0
 10
0.0
 20
0.0
 30
0.0
  3
$PAPER_SPACE
  1

  0
ENDBLK
  5
1FD
 67
     1
  8
0
  0
ENDSEC
  0
SECTION
  2
ENTITIES
  0
LINE
  5
3C
  8
0
 10
50.0
 20
50.0
 30
0.0
 11
80.5
 21
50.0
 31
0.0
  0
LINE
  5
3D
  8
0
 10
80.5
 20
50.0
 30
0.0
 11
80.5
 21
65.5
 31
0.0
  0
LINE
  5
40
  8
0
 10
109.4999999999999
 20
80.0
 30
0.0
 11
109.4999999999999
 21
104.0
 31
0.0
  0
LINE
  5
41
  8
0
 10
108.4999999999999
 20
79.0
 30
0.0
 11
93.740384615384613
 21
79.0
 31
0.0
  0
LINE
  5
46
  8
0
 10
108.4999999999999
 20
105.0
 30
0.0
 11
89.858238730063874
 21
105.0
 31
0.0
  0
LINE
  5
49
  8
0
 10
77.0
 20
50.0
 30
0.0
 11
77.0
 21
66.0
 31
0.0
  0
LINE
  5
4C
  8
0
 10
77.0
 20
66.0
 30
0.0
 11
102.4999999999999
 21
92.0
 31
0.0
  0
LINE
  5
4E
  8
0
 10
80.5
 20
65.5
 30
0.0
 11
100.07662763284689
 21
85.460483076628265
 31
0.0
  0
LINE
  5
4F
  8
0
 10
58.0
 20
50.0
 30
0.0
 11
58.0
 21
67.5
 31
0.0
  0
ARC
  5
52
  8
0
 10
119.45
 20
82.0
 30
0.0
 40
19.680002540650239
 50
149.4606488872879
 51
169.87259903018949
  0
LINE
  5
54
  8
0
 10
108.4999999999999
 20
79.0
 30
0.0
 11
109.4999999999999
 21
80.0
 31
0.0
  0
LINE
  5
55
  8
0
 10
109.4999999999999
 20
104.0
 30
0.0
 11
108.4999999999999
 21
105.0
 31
0.0
  0
LINE
  5
5B
  8
0
 10
80.5
 20
65.5
 30
0.0
 11
77.0
 21
66.0
 31
0.0
  0
ARC
  5
5D
  8
0
 10
150.0
 20
92.0
 30
0.0
 40
13.0
 50
0.0
 51
180.0
  0
LINE
  5
5E
  8
0
 10
135.0
 20
50.0
 30
0.0
 11
165.0
 21
50.0
 31
0.0
  0
LINE
  5
60
  8
0
 10
165.0
 20
50.0
 30
0.0
 11
163.0
 21
92.0
 31
0.0
  0
LINE
  5
61
  8
0
 10
135.0
 20
50.0
 30
0.0
 11
137.0
 21
92.0
 31
0.0
  0
LINE
  5
6A
  8
0
 10
156.49999999999989
 20
64.5
 30
0.0
 11
156.49999999999989
 21
50.0
 31
0.0
  0
LINE
  5
6D
  8
0
 10
143.5
 20
64.5
 30
0.0
 11
143.5
 21
50.0
 31
0.0
  0
LINE
  5
71
  8
0
 10
143.5
 20
64.5
 30
0.0
 11
156.49999999999989
 21
64.5
 31
0.0
  0
LINE
  5
91
  8
0
 10
50.473835327713481
 20
63.741224503691207
 30
0.0
 11
50.0
 21
50.0
 31
0.0
  0
LINE
  5
92
  8
0
 10
88.408686743838956
 20
104.3779691720903
 30
0.0
 11
51.023095340195731
 21
65.050269124102016
 31
0.0
  0
LINE
  5
94
  8
0
 10
58.0
 20
67.5
 30
0.0
 11
55.253086419753089
 21
69.5
 31
0.0
  0
LINE
  5
95
  8
0
 10
156.49999999999989
 20
64.5
 30
0.0
 11
160.9662574053404
 21
69.5
 31
0.0
  0
LINE
  5
96
  8
0
 10
160.9662574053404
 20
69.5
 30
0.0
 11
164.1666666666666
 21
67.5
 31
0.0
  0
LINE
  5
97
  8
0
 10
143.5
 20
64.5
 30
0.0
 11
139.03374259465949
 21
69.5
 31
0.0
  0
LINE
  5
99
  8
0
 10
139.03374259465949
 20
69.5
 30
0.0
 11
135.83333333333329
 21
67.5
 31
0.0
  0
LINE
  5
9A
  8
0
 10
81.290123456790056
 20
91.999999999999943
 30
0.0
 11
57.999999999999993
 21
67.5
 31
0.0
  0
ARC
  5
9C
  8
0
 10
52.472647326420663
 20
63.672299952011649
 30
0.0
 40
2.0
 50
136.45021629093341
 51
178.02506598911799
  0
ARC
  5
9D
  8
0
 10
89.858238730063874
 20
103.0
 30
0.0
 40
2.0
 50
90.000000000000057
 51
136.45021629093341
  0
ARC
  5
9E
  8
0
 10
89.858238730063874
 20
103.0
 30
0.0
 40
2.0
 50
90.0
 51
136.45021629093341
  0
ARC
  5
9F
  8
0
 10
-50.607208130095202
 20
188.25521853397669
 30
0.0
 40
163.28494472781131
 50
323.87901106174598
 51
329.3443707213296
  0
POLYLINE
  5
A6
  8
0
 66
     1
 10
0.0
 20
0.0
 30
0.0
 70
   129
  0
VERTEX
  5
204
  8
0
 10
150.0
 20
70.5
 30
0.0
  0
VERTEX
  5
205
  8
0
 10
151.46669714379311
 20
70.647768103713872
 30
0.0
  0
VERTEX
  5
206
  8
0
 10
152.8803840313675
 20
71.085731690581241
 30
0.0
  0
VERTEX
  5
207
  8
0
 10
154.18996633528079
 20
71.798061615469706
 30
0.0
  0
VERTEX
  5
208
  8
0
 10
155.34811233898631
 20
72.759012418936308
 30
0.0
  0
VERTEX
  5
209
  8
0
 10
156.31296362839001
 20
73.933852835210843
 30
0.0
  0
VERTEX
  5
20A
  8
0
 10
157.0496479639975
 20
75.280121070632305
 30
0.0
  0
VERTEX
  5
20B
  8
0
 10
157.53153965450741
 20
76.749159483504897
 30
0.0
  0
VERTEX
  5
20C
  8
0
 10
157.74122187866831
 20
78.287873198045148
 30
0.0
  0
VERTEX
  5
20D
  8
0
 10
157.67111617457721
 20
79.840649091530096
 30
0.0
  0
VERTEX
  5
20E
  8
0
 10
157.32375634503859
 20
81.351365797451066
 30
0.0
  0
VERTEX
  5
20F
  8
0
 10
156.71169687932931
 20
82.765422077922096
 30
0.0
  0
VERTEX
  5
210
  8
0
 10
155.85705920124551
 20
84.031710254679226
 30
0.0
  0
VERTEX
  5
211
  8
0
 10
154.7907321432096
 20
85.104463373732841
 30
0.0
  0
VERTEX
  5
212
  8
0
 10
153.55125554338741
 20
85.944909342329311
 30
0.0
  0
VERTEX
  5
213
  8
0
 10
152.18342731552099
 20
86.522672253402973
 30
0.0
  0
VERTEX
  5
214
  8
0
 10
150.73668433560741
 20
86.816870250001031
 30
0.0
  0
VERTEX
  5
215
  8
0
 10
149.26331566439251
 20
86.816870250001031
 30
0.0
  0
VERTEX
  5
216
  8
0
 10
147.8165726844789
 20
86.522672253402973
 30
0.0
  0
VERTEX
  5
217
  8
0
 10
146.4487444566125
 20
85.944909342329311
 30
0.0
  0
VERTEX
  5
218
  8
0
 10
145.20926785679029
 20
85.104463373732841
 30
0.0
  0
VERTEX
  5
219
  8
0
 10
144.14294079875441
 20
84.031710254679254
 30
0.0
  0
VERTEX
  5
21A
  8
0
 10
143.28830312067061
 20
82.765422077922096
 30
0.0
  0
VERTEX
  5
21B
  8
0
 10
142.6762436549613
 20
81.351365797451066
 30
0.0
  0
VERTEX
  5
21C
  8
0
 10
142.32888382542271
 20
79.840649091530111
 30
0.0
  0
VERTEX
  5
21D
  8
0
 10
142.25877812133169
 20
78.287873198045162
 30
0.0
  0
VERTEX
  5
21E
  8
0
 10
142.4684603454925
 20
76.749159483504911
 30
0.0
  0
VERTEX
  5
21F
  8
0
 10
142.95035203600241
 20
75.280121070632319
 30
0.0
  0
VERTEX
  5
220
  8
0
 10
143.68703637160991
 20
73.933852835210843
 30
0.0
  0
VERTEX
  5
221
  8
0
 10
144.6518876610136
 20
72.759012418936308
 30
0.0
  0
VERTEX
  5
222
  8
0
 10
145.8100336647191
 20
71.79806161546972
 30
0.0
  0
VERTEX
  5
223
  8
0
 10
147.11961596863239
 20
71.085731690581241
 30
0.0
  0
VERTEX
  5
224
  8
0
 10
148.5333028562068
 20
70.647768103713872
 30
0.0
  0
SEQEND
  5
225
  8
0
  0
LINE
  5
A8
  8
0
 10
108.4999999999999
 20
79.0
 30
0.0
 11
108.4999999999999
 21
105.0
 31
0.0
  0
LINE
  5
AC
  8
0
 10
150.75
 20
80.5
 30
0.0
 11
150.75
 21
70.538379629067066
 31
0.0
  0
LINE
  5
AD
  8
0
 10
149.24999999999989
 20
80.5
 30
0.0
 11
149.24999999999989
 21
70.538379629067066
 31
0.0
  0
ARC
  5
AE
  8
0
 10
150.0
 20
80.5
 30
0.0
 40
0.75
 50
0.0
 51
180.0
  0
LINE
  5
B0
  8
0
 10
109.4999999999999
 20
12.0
 30
0.0
 11
109.4999999999999
 21
-12.0
 31
0.0
  0
LINE
  5
B1
  8
0
 10
50.0
 20
6.5
 30
0.0
 11
50.0
 21
-6.5
 31
0.0
  0
LINE
  5
B3
  8
0
 10
50.499999999999993
 20
6.5
 30
0.0
 11
50.5
 21
-6.5
 31
0.0
  0
LINE
  5
BA
  8
0
 10
50.0
 20
6.5
 30
0.0
 11
58.0
 21
15.0
 31
0.0
  0
LINE
  5
BB
  8
0
 10
50.499999999999993
 20
6.5
 30
0.0
 11
58.0
 21
15.0
 31
0.0
  0
LINE
  5
BC
  8
0
 10
81.290123456790127
 20
13.0
 30
0.0
 11
108.4999999999999
 21
13.0
 31
0.0
  0
LINE
  5
C0
  8
0
 10
108.4999999999999
 20
12.999999999999989
 30
0.0
 11
108.5
 21
-13.0
 31
0.0
  0
LINE
  5
C1
  8
0
 10
109.4999999999999
 20
12.0
 30
0.0
 11
108.4999999999999
 21
13.0
 31
0.0
  0
ARC
  5
CF
  8
0
 10
78.510345070870343
 20
0.0
 30
0.0
 40
9.8983416729685931
 50
286.3099113448647
 51
73.690088655135227
  0
LINE
  5
D0
  8
0
 10
58.0
 20
15.0
 30
0.0
 11
81.290123456790127
 21
13.0
 31
0.0
  0
LINE
  5
D1
  8
0
 10
81.290123456790127
 20
-13.0
 30
0.0
 11
108.4999999999999
 21
-13.0
 31
0.0
  0
ARC
  5
D2
  8
0
 10
75.71203553341357
 20
0.0
 30
0.0
 40
14.146203196650299
 50
293.22338178307558
 51
66.776618216924291
  0
LINE
  5
D4
  8
0
 10
50.0
 20
6.5
 30
0.0
 11
50.5
 21
6.5
 31
0.0
  0
POLYLINE
  5
DC
  8
0
 66
     1
 10
0.0
 20
0.0
 30
0.0
 70
   128
  0
VERTEX
  5
226
  8
0
 10
159.46743245777409
 20
93.024053289604211
 30
0.0
  0
VERTEX
  5
227
  8
0
 10
159.15880009468901
 20
95.287547968572397
 30
0.0
  0
VERTEX
  5
228
  8
0
 10
158.5342351505185
 20
97.43763876227014
 30
0.0
  0
VERTEX
  5
229
  8
0
 10
157.61528197745139
 20
99.4001583423358
 30
0.0
  0
VERTEX
  5
22A
  8
0
 10
156.43363984229811
 20
101.1074096447489
 30
0.0
  0
VERTEX
  5
22B
  8
0
 10
155.03006946107129
 20
102.50050107836699
 30
0.0
  0
VERTEX
  5
22C
  8
0
 10
153.4529869591033
 20
103.5313779888947
 30
0.0
  0
VERTEX
  5
22D
  8
0
 10
151.7567937580082
 20
104.16448030298631
 30
0.0
  0
VERTEX
  5
22E
  8
0
 10
149.99999999999901
 20
104.3779691720903
 30
0.0
  0
VERTEX
  5
22F
  8
0
 10
148.24320624198981
 20
104.16448030298579
 30
0.0
  0
VERTEX
  5
230
  8
0
 10
146.5470130408948
 20
103.53137798889379
 30
0.0
  0
VERTEX
  5
231
  8
0
 10
144.96993053892689
 20
102.5005010783657
 30
0.0
  0
VERTEX
  5
232
  8
0
 10
143.56636015770039
 20
101.10740964474719
 30
0.0
  0
VERTEX
  5
233
  8
0
 10
142.3847180225473
 20
99.400158342333782
 30
0.0
  0
VERTEX
  5
234
  8
0
 10
141.46576484948059
 20
97.437638762267866
 30
0.0
  0
VERTEX
  5
235
  8
0
 10
140.84119990531039
 20
95.287547968569953
 30
0.0
  0
VERTEX
  5
236
  8
0
 10
140.53256754222571
 20
93.024053289601667
 30
0.0
  0
SEQEND
  5
237
  8
0
  0
LINE
  5
DD
  8
0
 10
160.9662574053404
 20
69.5
 30
0.0
 11
159.46743245777421
 21
93.024053289601738
 31
0.0
  0
LINE
  5
DE
  8
0
 10
139.03374259465949
 20
69.5
 30
0.0
 11
140.53256754222571
 21
93.024053289601738
 31
0.0
  0
LINE
  5
E2
  8
0
 10
55.253086419753068
 20
11.886831275720141
 30
0.0
 11
81.290123456790113
 21
9.5000000000000036
 31
0.0
  0
LINE
  5
E3
  8
0
 10
109.4999999999999
 20
-12.0
 30
0.0
 11
108.4999999999999
 21
-13.0
 31
0.0
  0
LINE
  5
E5
  8
0
 10
81.290123456790127
 20
-13.0
 30
0.0
 11
108.4999999999999
 21
-13.0
 31
0.0
  0
LINE
  5
E6
  8
0
 10
55.253086419753068
 20
-11.886831275720141
 30
0.0
 11
81.290123456790113
 21
-9.5000000000000036
 31
0.0
  0
LINE
  5
E7
  8
0
 10
58.0
 20
-15.0
 30
0.0
 11
81.290123456790127
 21
-13.0
 31
0.0
  0
LINE
  5
E8
  8
0
 10
50.499999999999993
 20
-6.5
 30
0.0
 11
58.0
 21
-15.0
 31
0.0
  0
LINE
  5
E9
  8
0
 10
50.0
 20
-6.5
 30
0.0
 11
58.0
 21
-15.0
 31
0.0
  0
LINE
  5
EA
  8
0
 10
50.0
 20
-6.5
 30
0.0
 11
50.5
 21
-6.5
 31
0.0
  0
LINE
  5
ED
  8
0
 10
58.0
 20
15.0
 30
0.0
 11
77.0
 21
15.0
 31
0.0
  0
LINE
  5
EF
  8
0
 10
77.0
 20
15.0
 30
0.0
 11
79.115463917525773
 21
13.186745213549329
 31
0.0
  0
LINE
  5
F0
  8
0
 10
77.0
 20
-15.0
 30
0.0
 11
79.115463917525773
 21
-13.186745213549329
 31
0.0
  0
LINE
  5
F1
  8
0
 10
58.0
 20
-15.0
 30
0.0
 11
77.0
 21
-15.0
 31
0.0
  0
CIRCLE
  5
F7
  8
0
 10
63.976851851851833
 20
0.0
 30
0.0
 40
7.7731481481481381
  0
CIRCLE
  5
F8
  8
0
 10
63.976851851851833
 20
0.0
 30
0.0
 40
5.0
  0
LINE
  5
FB
  8
0
 10
70.75
 20
0.75
 30
0.0
 11
71.713733144275722
 21
0.75
 31
0.0
  0
LINE
  5
FC
  8
0
 10
71.713733144275722
 20
-0.75
 30
0.0
 11
70.75
 21
-0.75
 31
0.0
  0
LINE
  5
FD
  8
0
 10
70.75
 20
0.75
 30
0.0
 11
70.75
 21
-0.75
 31
0.0
  0
LINE
  5
FE
  8
0
 10
70.5
 20
3.766141339297143
 30
0.0
 11
70.5
 21
-3.7661413392971519
 31
0.0
  0
LINE
  5
FF
  8
0
 10
63.976851851851841
 20
7.5322826785942976
 30
0.0
 11
70.5
 21
3.766141339297147
 31
0.0
  0
LINE
  5
100
  8
0
 10
57.45370370370366
 20
3.766141339297143
 30
0.0
 11
63.976851851851812
 21
7.5322826785943011
 31
0.0
  0
LINE
  5
101
  8
0
 10
57.453703703703667
 20
-3.7661413392971488
 30
0.0
 11
57.45370370370366
 21
3.766141339297143
 31
0.0
  0
LINE
  5
102
  8
0
 10
63.976851851851841
 20
-7.5322826785943029
 30
0.0
 11
57.453703703703667
 21
-3.7661413392971488
 31
0.0
  0
LINE
  5
103
  8
0
 10
70.5
 20
-3.766141339297151
 30
0.0
 11
63.976851851851812
 21
-7.5322826785942976
 31
0.0
  0
LINE
  5
108
  8
0
  6
CENTER2
 10
74.75
 20
0.0
 30
0.0
 11
53.25
 21
0.0
 31
0.0
  0
LINE
  5
109
  8
0
  6
CENTER2
 10
64.0
 20
10.749999999999989
 30
0.0
 11
64.0
 21
-10.749999999999989
 31
0.0
  0
LINE
  5
110
  8
0
 10
50.0
 20
250.0
 30
0.0
 11
90.0
 21
250.0
 31
0.0
  0
LINE
  5
111
  8
0
 10
90.0
 20
250.0
 30
0.0
 11
90.0
 21
270.5
 31
0.0
  0
LINE
  5
112
  8
0
 10
128.49999999999989
 20
293.5
 30
0.0
 11
128.49999999999989
 21
326.5
 31
0.0
  0
LINE
  5
113
  8
0
 10
126.5
 20
328.5
 30
0.0
 11
108.843422409577
 21
328.5
 31
0.0
  0
LINE
  5
115
  8
0
 10
126.5
 20
291.5
 30
0.0
 11
110.9999999999999
 21
291.5
 31
0.0
  0
LINE
  5
117
  8
0
 10
50.0
 20
250.0
 30
0.0
 11
50.0
 21
269.0
 31
0.0
  0
LINE
  5
118
  8
0
 10
126.5
 20
291.5
 30
0.0
 11
128.49999999999989
 21
293.5
 31
0.0
  0
LINE
  5
119
  8
0
 10
128.49999999999989
 20
326.5
 30
0.0
 11
126.5
 21
328.5
 31
0.0
  0
LINE
  5
11B
  8
0
 10
107.4112717508515
 20
327.89604602027021
 30
0.0
 11
50.0
 21
269.0
 31
0.0
  0
LINE
  5
11C
  8
0
 10
85.0
 20
250.0
 30
0.0
 11
85.0
 21
272.5
 31
0.0
  0
LINE
  5
11D
  8
0
 10
85.0
 20
272.5
 30
0.0
 11
90.0
 21
270.5
 31
0.0
  0
LINE
  5
11E
  8
0
 10
85.0
 20
272.5
 30
0.0
 11
122.5
 21
310.0
 31
0.0
  0
LINE
  5
11F
  8
0
 10
90.0
 20
270.5
 30
0.0
 11
116.7399272474288
 21
297.2399272474288
 31
0.0
  0
ARC
  5
120
  8
0
 10
180.3546511627907
 20
276.20348837209298
 30
0.0
 40
67.002722775895094
 50
149.708133884803
 51
161.7017208308456
  0
LINE
  5
121
  8
0
 10
63.0
 20
250.0
 30
0.0
 11
63.0
 21
276.5
 31
0.0
  0
LINE
  5
122
  8
0
 10
95.655462184874068
 20
310.00000000000011
 30
0.0
 11
63.0
 21
276.5
 31
0.0
  0
ARC
  5
123
  8
0
 10
108.843422409577
 20
326.5
 30
0.0
 40
2.0
 50
90.0
 51
135.7313957530975
  0
ARC
  5
124
  8
0
 10
-53.238999495520531
 20
430.09191274398921
 30
0.0
 40
191.28938346286861
 50
321.1118351368379
 51
327.92085659544301
  0
LINE
  5
125
  8
0
 10
126.5
 20
291.5
 30
0.0
 11
126.5
 21
328.5
 31
0.0
  0
LINE
  5
126
  8
0
 10
58.598179453836131
 20
277.82054616384909
 30
0.0
 11
63.0
 21
276.5
 31
0.0
  0
LINE
  5
127
  8
0
 10
179.74999999999989
 20
249.99999999999989
 30
0.0
 11
220.24999999999989
 21
250.0
 31
0.0
  0
ARC
  5
12A
  8
0
 10
200.0
 20
310.0
 30
0.0
 40
18.5
 50
1.6632136847557939
 51
178.33678631524421
  0
LINE
  5
12B
  8
0
 10
220.25
 20
250.0
 30
0.0
 11
218.49220597005069
 21
310.53695284822538
 31
0.0
  0
LINE
  5
12C
  8
0
 10
179.75
 20
250.0
 30
0.0
 11
181.5077940299492
 21
310.53695284822538
 31
0.0
  0
LINE
  5
12D
  8
0
 10
192.0
 20
269.0
 30
0.0
 11
208.0
 21
269.0
 31
0.0
  0
LINE
  5
12E
  8
0
 10
208.0
 20
250.0
 30
0.0
 11
208.0
 21
269.0
 31
0.0
  0
LINE
  5
131
  8
0
 10
208.0
 20
269.0
 30
0.0
 11
215.5
 21
277.82054616384909
 31
0.0
  0
LINE
  5
133
  8
0
 10
215.5
 20
277.82054616384909
 30
0.0
 11
219.48052714743599
 21
276.5
 31
0.0
  0
ARC
  5
135
  8
0
 10
200.0
 20
313.39604602027021
 30
0.0
 40
14.5
 50
1.601003669802129
 51
178.3989963301978
  0
LINE
  5
136
  8
0
 10
215.5
 20
277.82054616384909
 30
0.0
 11
214.49433957372401
 21
313.8011636841369
 31
0.0
  0
LINE
  5
137
  8
0
 10
192.0
 20
269.0
 30
0.0
 11
184.49999999999989
 21
277.82054616384909
 31
0.0
  0
LINE
  5
138
  8
0
 10
192.0
 20
250.0
 30
0.0
 11
192.0
 21
269.0
 31
0.0
  0
LINE
  5
139
  8
0
 10
184.49999999999989
 20
277.82054616384909
 30
0.0
 11
180.51947285256389
 21
276.5
 31
0.0
  0
LINE
  5
13A
  8
0
 10
184.49999999999989
 20
277.82054616384909
 30
0.0
 11
185.50566042627591
 21
313.8011636841369
 31
0.0
  0
POLYLINE
  5
144
  8
0
 66
     1
 10
0.0
 20
0.0
 30
0.0
 70
   129
  0
VERTEX
  5
238
  8
0
 10
200.0
 20
297.46767241379308
 30
0.0
  0
VERTEX
  5
239
  8
0
 10
198.5333028562068
 20
297.32399776767699
 30
0.0
  0
VERTEX
  5
23A
  8
0
 10
197.11961596863239
 20
296.89816660537991
 30
0.0
  0
VERTEX
  5
23B
  8
0
 10
195.8100336647191
 20
296.20556957459962
 30
0.0
  0
VERTEX
  5
23C
  8
0
 10
194.6518876610136
 20
295.27123893657239
 30
0.0
  0
VERTEX
  5
23D
  8
0
 10
193.68703637160991
 20
294.12894383493131
 30
0.0
  0
VERTEX
  5
23E
  8
0
 10
192.95035203600241
 20
292.81996979087057
 30
0.0
  0
VERTEX
  5
23F
  8
0
 10
192.4684603454925
 20
291.3916265368411
 30
0.0
  0
VERTEX
  5
240
  8
0
 10
192.25877812133169
 20
289.89553811955551
 30
0.0
  0
VERTEX
  5
241
  8
0
 10
192.32888382542271
 20
288.38577707243502
 30
0.0
  0
VERTEX
  5
242
  8
0
 10
192.6762436549613
 20
286.91691009336643
 30
0.0
  0
VERTEX
  5
243
  8
0
 10
193.28830312067061
 20
285.5420258620689
 30
0.0
  0
VERTEX
  5
244
  8
0
 10
194.14294079875449
 20
284.31081627688752
 30
0.0
  0
VERTEX
  5
245
  8
0
 10
195.20926785679029
 20
283.267780460116
 30
0.0
  0
VERTEX
  5
246
  8
0
 10
196.4487444566125
 20
282.4506164437758
 30
0.0
  0
VERTEX
  5
247
  8
0
 10
197.8165726844789
 20
281.88885866451739
 30
0.0
  0
VERTEX
  5
248
  8
0
 10
199.26331566439251
 20
281.602810512129
 30
0.0
  0
VERTEX
  5
249
  8
0
 10
200.73668433560741
 20
281.602810512129
 30
0.0
  0
VERTEX
  5
24A
  8
0
 10
202.18342731552099
 20
281.88885866451739
 30
0.0
  0
VERTEX
  5
24B
  8
0
 10
203.55125554338741
 20
282.4506164437758
 30
0.0
  0
VERTEX
  5
24C
  8
0
 10
204.7907321432096
 20
283.267780460116
 30
0.0
  0
VERTEX
  5
24D
  8
0
 10
205.85705920124551
 20
284.31081627688752
 30
0.0
  0
VERTEX
  5
24E
  8
0
 10
206.71169687932931
 20
285.5420258620689
 30
0.0
  0
VERTEX
  5
24F
  8
0
 10
207.32375634503859
 20
286.91691009336643
 30
0.0
  0
VERTEX
  5
250
  8
0
 10
207.67111617457721
 20
288.38577707243502
 30
0.0
  0
VERTEX
  5
251
  8
0
 10
207.74122187866831
 20
289.89553811955551
 30
0.0
  0
VERTEX
  5
252
  8
0
 10
207.53153965450741
 20
291.3916265368411
 30
0.0
  0
VERTEX
  5
253
  8
0
 10
207.0496479639975
 20
292.81996979087057
 30
0.0
  0
VERTEX
  5
254
  8
0
 10
206.31296362839009
 20
294.12894383493131
 30
0.0
  0
VERTEX
  5
255
  8
0
 10
205.34811233898631
 20
295.27123893657239
 30
0.0
  0
VERTEX
  5
256
  8
0
 10
204.18996633528079
 20
296.20556957459962
 30
0.0
  0
VERTEX
  5
257
  8
0
 10
202.8803840313675
 20
296.89816660537991
 30
0.0
  0
VERTEX
  5
258
  8
0
 10
201.46669714379311
 20
297.32399776767699
 30
0.0
  0
SEQEND
  5
259
  8
0
  0
LINE
  5
145
  8
0
 10
201.0
 20
281.63327279429387
 30
0.0
 11
201.0
 21
290.0
 31
0.0
  0
LINE
  5
146
  8
0
 10
199.0
 20
281.63327279429387
 30
0.0
 11
199.0
 21
290.0
 31
0.0
  0
ARC
  5
148
  8
0
 10
200.0
 20
290.0
 30
0.0
 40
1.0
 50
0.0
 51
180.0
  0
LINE
  5
14B
  8
0
 10
63.0
 20
210.0
 30
0.0
 11
85.0
 21
210.0
 31
0.0
  0
LINE
  5
14E
  8
0
 10
50.0
 20
198.0
 30
0.0
 11
50.0
 21
182.0
 31
0.0
  0
LINE
  5
151
  8
0
 10
50.0
 20
198.0
 30
0.0
 11
63.0
 21
210.0
 31
0.0
  0
LINE
  5
152
  8
0
 10
50.0
 20
182.0
 30
0.0
 11
63.0
 21
170.0
 31
0.0
  0
LINE
  5
153
  8
0
 10
128.49999999999989
 20
206.49999999999989
 30
0.0
 11
128.49999999999989
 21
173.5
 31
0.0
  0
LINE
  5
154
  8
0
 10
126.5
 20
208.49999999999989
 30
0.0
 11
95.655462184874324
 21
208.49999999999989
 31
0.0
  0
LINE
  5
155
  8
0
 10
126.5
 20
171.5
 30
0.0
 11
95.655462184874324
 21
171.5
 31
0.0
  0
LINE
  5
158
  8
0
 10
95.655462184874324
 20
208.49999999999989
 30
0.0
 11
63.0
 21
210.0
 31
0.0
  0
LINE
  5
159
  8
0
 10
95.655462184874324
 20
171.5
 30
0.0
 11
63.0
 21
170.0
 31
0.0
  0
LINE
  5
15D
  8
0
 10
85.0
 20
210.0
 30
0.0
 11
86.340135822270781
 21
208.9278913421833
 31
0.0
  0
LINE
  5
15E
  8
0
 10
85.0
 20
169.99999999999989
 30
0.0
 11
86.340135822270739
 21
171.07210865781661
 31
0.0
  0
LINE
  5
15F
  8
0
 10
63.0
 20
170.0
 30
0.0
 11
85.0
 21
169.99999999999989
 31
0.0
  0
LINE
  5
160
  8
0
 10
128.49999999999989
 20
206.49999999999989
 30
0.0
 11
126.5
 21
208.49999999999989
 31
0.0
  0
LINE
  5
161
  8
0
 10
128.49999999999989
 20
173.5
 30
0.0
 11
126.5
 21
171.5
 31
0.0
  0
ARC
  5
164
  8
0
 10
89.273591818130356
 20
190.0
 30
0.0
 40
19.569830591446738
 50
289.03269173228239
 51
70.967308267717613
  0
ARC
  5
169
  8
0
 10
92.911271750851597
 20
190.0
 30
0.0
 40
14.5
 50
272.37691376124661
 51
87.623086238753316
  0
LINE
  5
16A
  8
0
 10
58.598179453836153
 20
205.9367810343102
 30
0.0
 11
93.512631307922774
 21
204.48752451880989
 31
0.0
  0
LINE
  5
16B
  8
0
 10
58.598179453836153
 20
174.06321896568971
 30
0.0
 11
93.51263130792276
 21
175.51247548118999
 31
0.0
  0
LINE
  5
16C
  8
0
  6
CENTER2
 10
70.023148148148167
 20
200.74999999999989
 30
0.0
 11
70.023148148148167
 21
179.24999999999989
 31
0.0
  0
LINE
  5
16D
  8
0
  6
CENTER2
 10
80.773148148148167
 20
190.0
 30
0.0
 11
59.273148148148167
 21
190.0
 31
0.0
  0
CIRCLE
  5
16E
  8
0
 10
70.0
 20
190.0
 30
0.0
 40
5.0
  0
LINE
  5
16F
  8
0
 10
70.0
 20
182.46771732140559
 30
0.0
 11
63.476851851851841
 21
186.23385866070279
 31
0.0
  0
CIRCLE
  5
170
  8
0
 10
70.0
 20
190.0
 30
0.0
 40
7.7731481481481381
  0
LINE
  5
171
  8
0
 10
76.523148148148167
 20
186.23385866070279
 30
0.0
 11
69.999999999999986
 21
182.46771732140559
 31
0.0
  0
LINE
  5
172
  8
0
 10
63.476851851851819
 20
193.76614133929709
 30
0.0
 11
69.999999999999986
 21
197.5322826785943
 31
0.0
  0
LINE
  5
173
  8
0
 10
63.476851851851841
 20
186.23385866070279
 30
0.0
 11
63.476851851851819
 21
193.76614133929709
 31
0.0
  0
LINE
  5
174
  8
0
 10
70.0
 20
197.5322826785943
 30
0.0
 11
76.523148148148167
 21
193.76614133929709
 31
0.0
  0
LINE
  5
175
  8
0
 10
76.523148148148167
 20
193.76614133929709
 30
0.0
 11
76.523148148148167
 21
186.23385866070279
 31
0.0
  0
LINE
  5
176
  8
0
 10
76.773148148148167
 20
190.74999999999989
 30
0.0
 11
76.773148148148167
 21
189.25
 31
0.0
  0
LINE
  5
177
  8
0
 10
77.736881292423888
 20
189.25
 30
0.0
 11
76.773148148148167
 21
189.25
 31
0.0
  0
LINE
  5
178
  8
0
 10
76.773148148148167
 20
190.74999999999989
 30
0.0
 11
77.736881292423888
 21
190.74999999999989
 31
0.0
  0
ENDSEC
  0
EOF
