  0
SECTION
  2
HEADER
  9
$ACADVER
  1
AC1009
  9
$INSBASE
 10
0.0
 20
0.0
 30
0.0
  9
$EXTMIN
 10
95.829163687104824
 20
34.988251483287051
 30
-0.0015258207003583
  9
$EXTMAX
 10
257.00775225298457
 20
305.00930857147239
 30
0.0000000349246037
  9
$LIMMIN
 10
0.0
 20
0.0
  9
$LIMMAX
 10
420.0
 20
297.0
  9
$ORTHOMODE
 70
     0
  9
$REGENMODE
 70
     1
  9
$FILLMODE
 70
     1
  9
$QTEXTMODE
 70
     0
  9
$MIRRTEXT
 70
     1
  9
$DRAGMODE
 70
     2
  9
$LTSCALE
 40
0.25
  9
$OSMODE
 70
    40
  9
$ATTMODE
 70
     1
  9
$TEXTSIZE
 40
2.5
  9
$TRACEWID
 40
1.0
  9
$TEXTSTYLE
  7
STANDARD
  9
$CLAYER
  8
0
  9
$CELTYPE
  6
BYLAYER
  9
$CECOLOR
 62
   256
  9
$DIMSCALE
 40
1.0
  9
$DIMASZ
 40
2.5
  9
$DIMEXO
 40
0.625
  9
$DIMDLI
 40
3.75
  9
$DIMRND
 40
0.0
  9
$DIMDLE
 40
0.0
  9
$DIMEXE
 40
1.25
  9
$DIMTP
 40
0.0
  9
$DIMTM
 40
0.0
  9
$DIMTXT
 40
2.5
  9
$DIMCEN
 40
2.5
  9
$DIMTSZ
 40
0.0
  9
$DIMTOL
 70
     0
  9
$DIMLIM
 70
     0
  9
$DIMTIH
 70
     0
  9
$DIMTOH
 70
     0
  9
$DIMSE1
 70
     0
  9
$DIMSE2
 70
     0
  9
$DIMTAD
 70
     1
  9
$DIMZIN
 70
     8
  9
$DIMBLK
  1

  9
$DIMASO
 70
     1
  9
$DIMSHO
 70
     1
  9
$DIMPOST
  1

  9
$DIMAPOST
  1

  9
$DIMALT
 70
     0
  9
$DIMALTD
 70
     4
  9
$DIMALTF
 40
0.0394
  9
$DIMLFAC
 40
1.0
  9
$DIMTOFL
 70
     1
  9
$DIMTVP
 40
0.0
  9
$DIMTIX
 70
     0
  9
$DIMSOXD
 70
     0
  9
$DIMSAH
 70
     0
  9
$DIMBLK1
  1

  9
$DIMBLK2
  1

  9
$DIMSTYLE
  2
STANDARD
  9
$DIMCLRD
 70
     0
  9
$DIMCLRE
 70
     0
  9
$DIMCLRT
 70
     0
  9
$DIMTFAC
 40
1.0
  9
$DIMGAP
 40
0.625
  9
$LUNITS
 70
     2
  9
$LUPREC
 70
     4
  9
$SKETCHINC
 40
1.0
  9
$FILLETRAD
 40
12.5
  9
$AUNITS
 70
     0
  9
$AUPREC
 70
     0
  9
$MENU
  1
acad
  9
$ELEVATION
 40
0.0
  9
$PELEVATION
 40
0.0
  9
$THICKNESS
 40
0.0
  9
$LIMCHECK
 70
     0
  9
$BLIPMODE
 70
     0
  9
$CHAMFERA
 40
10.0
  9
$CHAMFERB
 40
10.0
  9
$SKPOLY
 70
     0
  9
$TDCREATE
 40
2450981.40772853
  9
$TDUPDATE
 40
2452236.5899266549
  9
$TDINDWG
 40
0.0679772569
  9
$TDUSRTIMER
 40
0.0679772569
  9
$USRTIMER
 70
     1
  9
$ANGBASE
 50
0.0
  9
$ANGDIR
 70
     0
  9
$PDMODE
 70
     0
  9
$PDSIZE
 40
0.0
  9
$PLINEWID
 40
0.0
  9
$COORDS
 70
     2
  9
$SPLFRAME
 70
     0
  9
$SPLINETYPE
 70
     6
  9
$SPLINESEGS
 70
     8
  9
$ATTDIA
 70
     0
  9
$ATTREQ
 70
     1
  9
$HANDLING
 70
-16383
  9
$HANDSEED
  5
330
  9
$SURFTAB1
 70
     6
  9
$SURFTAB2
 70
     6
  9
$SURFTYPE
 70
     6
  9
$SURFU
 70
     6
  9
$SURFV
 70
     6
  9
$UCSNAME
  2

  9
$UCSORG
 10
0.0
 20
0.0
 30
0.0
  9
$UCSXDIR
 10
1.0
 20
0.0
 30
0.0
  9
$UCSYDIR
 10
0.0
 20
1.0
 30
0.0
  9
$PUCSNAME
  2

  9
$PUCSORG
 10
0.0
 20
0.0
 30
0.0
  9
$PUCSXDIR
 10
1.0
 20
0.0
 30
0.0
  9
$PUCSYDIR
 10
0.0
 20
1.0
 30
0.0
  9
$USERI1
 70
     0
  9
$USERI2
 70
     0
  9
$USERI3
 70
     0
  9
$USERI4
 70
     0
  9
$USERI5
 70
     0
  9
$USERR1
 40
0.0
  9
$USERR2
 40
0.0
  9
$USERR3
 40
0.0
  9
$USERR4
 40
0.0
  9
$USERR5
 40
0.0
  9
$WORLDVIEW
 70
     1
  9
$SHADEDGE
 70
     3
  9
$SHADEDIF
 70
    70
  9
$TILEMODE
 70
     1
  9
$MAXACTVP
 70
    48
  9
$PLIMCHECK
 70
     0
  9
$PEXTMIN
 10
1.0000000000000000E+020
 20
1.0000000000000000E+020
 30
1.0000000000000000E+020
  9
$PEXTMAX
 10
-1.0000000000000000E+020
 20
-1.0000000000000000E+020
 30
-1.0000000000000000E+020
  9
$PLIMMIN
 10
0.0
 20
0.0
  9
$PLIMMAX
 10
420.0
 20
297.0
  9
$UNITMODE
 70
     0
  9
$VISRETAIN
 70
     1
  9
$PLINEGEN
 70
     0
  9
$PSLTSCALE
 70
     1
  0
ENDSEC
  0
SECTION
  2
TABLES
  0
TABLE
  2
VPORT
 70
     2
  0
VPORT
  2
*ACTIVE
 70
     0
 10
0.0
 20
0.0
 11
1.0
 21
1.0
 12
176.4184579700447
 22
169.99878002737969
 13
0.0
 23
0.0
 14
0.25
 24
0.25
 15
10.0
 25
10.0
 16
0.0
 26
0.0
 36
1.0
 17
0.0
 27
0.0
 37
0.0
 40
544.1698246031965
 41
1.5573979591836731
 42
50.0
 43
0.0
 44
0.0
 50
0.0
 51
0.0
 71
     0
 72
   100
 73
     1
 74
     1
 75
     0
 76
     0
 77
     0
 78
     0
  0
ENDTAB
  0
TABLE
  2
LTYPE
 70
     5
  0
LTYPE
  2
CONTINUOUS
 70
     0
  3
Solid line
 72
    65
 73
     0
 40
0.0
  0
LTYPE
  2
CENTER2
 70
     0
  3
Center (.5x) ___ _ ___ _ ___ _ ___ _ ___ _ ___
 72
    65
 73
     4
 40
28.574999999999989
 49
19.050000000000001
 49
-3.1749999999999989
 49
3.1749999999999989
 49
-3.1749999999999989
  0
LTYPE
  2
ACAD_ISO02W100
 70
     0
  3
ISO dash __ __ __ __ __ __ __ __ __ __ __ __ __
 72
    65
 73
     2
 40
15.0
 49
12.0
 49
-3.0
  0
ENDTAB
  0
TABLE
  2
LAYER
 70
     1
  0
LAYER
  2
0
 70
     0
 62
     7
  6
CONTINUOUS
  0
ENDTAB
  0
TABLE
  2
STYLE
 70
     2
  0
STYLE
  2
STANDARD
 70
     0
 40
0.0
 41
1.0
 50
0.0
 71
     0
 42
2.5
  3
txt
  4

  0
ENDTAB
  0
TABLE
  2
VIEW
 70
     0
  0
ENDTAB
  0
TABLE
  2
UCS
 70
     0
  0
ENDTAB
  0
TABLE
  2
APPID
 70
     3
  0
APPID
  2
ACAD
 70
     0
  0
APPID
  2
CONTENTTABDATA
 70
     0
  0
APPID
  2
CONTENTCURRENTTAB
 70
     0
  0
ENDTAB
  0
TABLE
  2
DIMSTYLE
 70
     1
  0
DIMSTYLE
  2
STANDARD
 70
     0
  3

  4

  5

  6

  7

 40
1.0
 41
0.18
 42
0.0625
 43
0.38
 44
0.18
 45
0.0
 46
0.0
 47
0.0
 48
0.0
140
0.18
141
0.09
142
0.0
143
25.399999999999999
144
1.0
145
0.0
146
1.0
147
0.09
 71
     0
 72
     0
 73
     1
 74
     1
 75
     0
 76
     0
 77
     0
 78
     0
170
     0
171
     2
172
     0
173
     0
174
     0
175
     0
176
     0
177
     0
178
     0
  0
ENDTAB
  0
ENDSEC
  0
SECTION
  2
BLOCKS
  0
BLOCK
  8
0
  2
$MODEL_SPACE
 70
     0
 10
0.0
 20
0.0
 30
0.0
  3
$MODEL_SPACE
  1

  0
ENDBLK
  5
243
  8
0
  0
BLOCK
 67
     1
  8
0
  2
$PAPER_SPACE
 70
     0
 10
0.0
 20
0.0
 30
0.0
  3
$PAPER_SPACE
  1

  0
ENDBLK
  5
241
 67
     1
  8
0
  0
BLOCK
  8
0
  2
*X0
 70
     1
 10
0.0
 20
0.0
 30
0.0
  3
*X0
  1

  0
LINE
  5
F0
  8
0
 62
     0
 10
160.78628624449729
 20
291.0
 30
0.0
 11
164.5
 21
294.71371375550262
 31
0.0
  0
LINE
  5
F1
  8
0
 62
     0
 10
156.29615818396269
 20
291.0
 30
0.0
 11
164.5
 21
299.2038418160372
 31
0.0
  0
LINE
  5
F2
  8
0
 62
     0
 10
151.80603012342809
 20
291.0
 30
0.0
 11
160.80603012342809
 21
300.0
 31
0.0
  0
LINE
  5
F3
  8
0
 62
     0
 10
147.31590206289351
 20
291.0
 30
0.0
 11
156.31590206289351
 21
300.0
 31
0.0
  0
LINE
  5
F4
  8
0
 62
     0
 10
142.825774002359
 20
291.0
 30
0.0
 11
151.825774002359
 21
300.0
 31
0.0
  0
LINE
  5
F5
  8
0
 62
     0
 10
138.33564594182431
 20
291.0
 30
0.0
 11
147.3356459418244
 21
300.0
 31
0.0
  0
LINE
  5
F6
  8
0
 62
     0
 10
108.0
 20
260.6643540581756
 30
0.0
 11
108.9999999999999
 21
261.66435405817549
 31
0.0
  0
LINE
  5
F7
  8
0
 62
     0
 10
133.84551788128979
 20
291.0
 30
0.0
 11
142.84551788128979
 21
300.0
 31
0.0
  0
LINE
  5
F8
  8
0
 62
     0
 10
107.9999999999999
 20
265.15448211871012
 30
0.0
 11
108.9999999999999
 21
266.15448211871012
 31
0.0
  0
LINE
  5
F9
  8
0
 62
     0
 10
107.9335932535394
 20
269.57820343278411
 30
0.0
 11
108.9999999999999
 21
270.64461017924469
 31
0.0
  0
LINE
  5
FA
  8
0
 62
     0
 10
129.35538982075531
 20
291.0
 30
0.0
 11
138.35538982075531
 21
300.0
 31
0.0
  0
LINE
  5
FB
  8
0
 62
     0
 10
100.0
 20
261.64461017924469
 30
0.0
 11
101.0
 21
262.64461017924469
 31
0.0
  0
LINE
  5
FC
  8
0
 62
     0
 10
104.983140796706
 20
271.11787903648519
 30
0.0
 11
109.0
 21
275.13473823977932
 31
0.0
  0
LINE
  5
FD
  8
0
 62
     0
 10
124.8652617602207
 20
291.0
 30
0.0
 11
133.8652617602207
 21
300.0
 31
0.0
  0
LINE
  5
FE
  8
0
 62
     0
 10
100.0
 20
266.13473823977921
 30
0.0
 11
100.9999999999999
 21
267.13473823977921
 31
0.0
  0
LINE
  5
FF
  8
0
 62
     0
 10
120.3192410746755
 20
290.94410737498941
 30
0.0
 11
129.3751336996861
 21
300.0
 31
0.0
  0
LINE
  5
100
  8
0
 62
     0
 10
99.999999999999986
 20
270.62486630031378
 30
0.0
 11
109.0558926250105
 21
279.68075892532443
 31
0.0
  0
LINE
  5
101
  8
0
 62
     0
 10
99.999999999999986
 20
275.11499436084841
 30
0.0
 11
124.8850056391515
 21
300.0
 31
0.0
  0
LINE
  5
102
  8
0
 62
     0
 10
100.0
 20
279.60512242138299
 30
0.0
 11
120.3948775786169
 21
300.0
 31
0.0
  0
LINE
  5
103
  8
0
 62
     0
 10
100.5459771155567
 20
284.64122759747431
 30
0.0
 11
115.3587724025256
 21
299.45402288444319
 31
0.0
  0
ENDBLK
  5
105
  8
0
  0
BLOCK
  8
0
  2
*X1
 70
     1
 10
0.0
 20
0.0
 30
0.0
  3
*X1
  1

  0
LINE
  5
107
  8
0
 62
     0
 10
150.58884745518881
 20
191.0
 30
0.0
 11
154.49999999999989
 21
194.9111525448111
 31
0.0
  0
LINE
  5
108
  8
0
 62
     0
 10
146.09871939465421
 20
191.0
 30
0.0
 11
154.49999999999989
 21
199.40128060534559
 31
0.0
  0
LINE
  5
109
  8
0
 62
     0
 10
141.60859133411961
 20
191.0
 30
0.0
 11
150.60859133411969
 21
200.0
 31
0.0
  0
LINE
  5
10A
  8
0
 62
     0
 10
137.11846327358509
 20
191.0
 30
0.0
 11
146.11846327358509
 21
200.0
 31
0.0
  0
LINE
  5
10B
  8
0
 62
     0
 10
107.9999999999999
 20
161.88153672641479
 30
0.0
 11
108.9999999999999
 21
162.88153672641479
 31
0.0
  0
LINE
  5
10C
  8
0
 62
     0
 10
132.62833521305049
 20
191.0
 30
0.0
 11
141.62833521305049
 21
200.0
 31
0.0
  0
LINE
  5
10D
  8
0
 62
     0
 10
107.9999999999999
 20
166.3716647869494
 30
0.0
 11
108.9999999999999
 21
167.3716647869494
 31
0.0
  0
LINE
  5
10E
  8
0
 62
     0
 10
107.3099862651393
 20
170.1717791126234
 30
0.0
 11
109.0
 21
171.861792847484
 31
0.0
  0
LINE
  5
10F
  8
0
 62
     0
 10
128.13820715251589
 20
191.0
 30
0.0
 11
137.13820715251589
 21
199.99999999999989
 31
0.0
  0
LINE
  5
110
  8
0
 62
     0
 10
100.0
 20
162.861792847484
 30
0.0
 11
100.9999999999999
 21
163.861792847484
 31
0.0
  0
LINE
  5
111
  8
0
 62
     0
 10
103.7252156326965
 20
171.07713654071509
 30
0.0
 11
108.9999999999999
 21
176.3519209080186
 31
0.0
  0
LINE
  5
112
  8
0
 62
     0
 10
123.6480790919813
 20
191.0
 30
0.0
 11
132.64807909198129
 21
200.0
 31
0.0
  0
LINE
  5
113
  8
0
 62
     0
 10
100.0
 20
167.3519209080186
 30
0.0
 11
100.9999999999999
 21
168.3519209080186
 31
0.0
  0
LINE
  5
114
  8
0
 62
     0
 10
118.8803706883547
 20
190.72241965690779
 30
0.0
 11
128.15795103144669
 21
199.99999999999989
 31
0.0
  0
LINE
  5
115
  8
0
 62
     0
 10
99.999999999999986
 20
171.8420489685532
 30
0.0
 11
109.277580343092
 21
181.1196293116453
 31
0.0
  0
LINE
  5
116
  8
0
 62
     0
 10
100.0
 20
176.33217702908769
 30
0.0
 11
123.6678229709122
 21
199.99999999999989
 31
0.0
  0
LINE
  5
117
  8
0
 62
     0
 10
100.0176457182765
 20
180.8399508078989
 30
0.0
 11
119.160049192101
 21
199.98235428172339
 31
0.0
  0
LINE
  5
118
  8
0
 62
     0
 10
101.0334599780046
 20
186.34589312816149
 30
0.0
 11
113.65410687183839
 21
198.96654002199531
 31
0.0
  0
ENDBLK
  5
11A
  8
0
  0
BLOCK
  8
0
  2
*X2
 70
     1
 10
0.0
 20
0.0
 30
0.0
  3
*X2
  1

  0
LINE
  5
11C
  8
0
 62
     0
 10
144.88153672641491
 20
91.0
 30
0.0
 11
148.5
 21
94.618463273585064
 31
0.0
  0
LINE
  5
11D
  8
0
 62
     0
 10
140.39140866588031
 20
91.0
 30
0.0
 11
148.5
 21
99.108591334119637
 31
0.0
  0
LINE
  5
11E
  8
0
 62
     0
 10
135.9012806053457
 20
91.0
 30
0.0
 11
144.9012806053457
 21
100.0
 31
0.0
  0
LINE
  5
11F
  8
0
 62
     0
 10
107.9999999999999
 20
63.098719394654211
 30
0.0
 11
109.0
 21
64.098719394654225
 31
0.0
  0
LINE
  5
120
  8
0
 62
     0
 10
108.0
 20
67.588847455188798
 30
0.0
 11
109.0
 21
68.588847455188798
 31
0.0
  0
LINE
  5
121
  8
0
 62
     0
 10
131.4111525448111
 20
91.0
 30
0.0
 11
140.4111525448111
 21
100.0
 31
0.0
  0
LINE
  5
122
  8
0
 62
     0
 10
100.4111525448112
 20
60.000000000000007
 30
0.0
 11
101.0
 21
60.588847455188798
 31
0.0
  0
LINE
  5
123
  8
0
 62
     0
 10
106.5675495577358
 20
70.646525073459244
 30
0.0
 11
109.0
 21
73.078975515723371
 31
0.0
  0
LINE
  5
124
  8
0
 62
     0
 10
126.9210244842766
 20
90.999999999999986
 30
0.0
 11
135.92102448427659
 21
100.0
 31
0.0
  0
LINE
  5
125
  8
0
 62
     0
 10
100.0
 20
64.078975515723371
 30
0.0
 11
101.0
 21
65.078975515723371
 31
0.0
  0
LINE
  5
126
  8
0
 62
     0
 10
122.430896423742
 20
91.0
 30
0.0
 11
131.43089642374201
 21
100.0
 31
0.0
  0
LINE
  5
127
  8
0
 62
     0
 10
100.0
 20
68.569103576257945
 30
0.0
 11
109.0
 21
77.569103576257959
 31
0.0
  0
LINE
  5
128
  8
0
 62
     0
 10
117.16501133585901
 20
90.224242972651524
 30
0.0
 11
126.9407683632074
 21
100.0
 31
0.0
  0
LINE
  5
129
  8
0
 62
     0
 10
100.0
 20
73.059231636792518
 30
0.0
 11
109.7757570273484
 21
82.834988664140965
 31
0.0
  0
LINE
  5
12A
  8
0
 62
     0
 10
100.0
 20
77.549359697327091
 30
0.0
 11
122.4506403026728
 21
100.0
 31
0.0
  0
LINE
  5
12B
  8
0
 62
     0
 10
100.1165523329923
 20
82.156040090854077
 30
0.0
 11
117.84395990914589
 21
99.883447667007616
 31
0.0
  0
LINE
  5
12C
  8
0
 62
     0
 10
101.8316351030556
 20
88.361250921451912
 30
0.0
 11
111.638749078548
 21
98.168364896944382
 31
0.0
  0
ENDBLK
  5
12E
  8
0
  0
ENDSEC
  0
SECTION
  2
ENTITIES
  0
LINE
  5
3C
  8
0
 10
120.0
 20
100.0
 30
0.0
 11
177.0
 21
100.0
 31
0.0
  0
LINE
  5
3D
  8
0
 10
197.0
 20
80.0
 30
0.0
 11
197.0
 21
60.0
 31
0.0
  0
LINE
  5
3E
  8
0
 10
225.0
 20
60.0
 30
0.0
 11
215.0
 21
60.0
 31
0.0
  0
LINE
  5
3F
  8
0
 10
188.0
 20
60.0
 30
0.0
 11
188.0
 21
78.5
 31
0.0
  0
LINE
  5
40
  8
0
 10
175.5
 20
91.0
 30
0.0
 11
121.5
 21
91.0
 31
0.0
  0
LINE
  5
41
  8
0
 10
109.0
 20
78.5
 30
0.0
 11
109.0
 21
60.0
 31
0.0
  0
LINE
  5
42
  8
0
 10
109.0
 20
60.0
 30
0.0
 11
100.0
 21
60.0
 31
0.0
  0
LINE
  5
43
  8
0
 10
100.0
 20
60.0
 30
0.0
 11
100.0
 21
80.0
 31
0.0
  0
ARC
  5
44
  8
0
 10
120.0
 20
80.0
 30
0.0
 40
20.0
 50
90.0
 51
180.0
  0
ARC
  5
45
  8
0
 10
177.0
 20
80.0
 30
0.0
 40
20.0
 50
0.0
 51
90.0
  0
ARC
  5
46
  8
0
 10
121.5
 20
78.5
 30
0.0
 40
12.5
 50
90.0
 51
180.0
  0
ARC
  5
47
  8
0
 10
175.5
 20
78.5
 30
0.0
 40
12.5
 50
0.0
 51
90.0
  0
LINE
  5
49
  8
0
 10
108.0
 20
60.0
 30
0.0
 11
108.0
 21
69.5
 31
0.0
  0
LINE
  5
4A
  8
0
 10
101.0
 20
60.0
 30
0.0
 11
101.0
 21
69.5
 31
0.0
  0
LINE
  5
4B
  8
0
 10
106.4999999999999
 20
60.0
 30
0.0
 11
106.4999999999999
 21
68.5
 31
0.0
  0
LINE
  5
4C
  8
0
 10
106.4999999999999
 20
68.5
 30
0.0
 11
104.4999999999999
 21
69.5
 31
0.0
  0
LINE
  5
4D
  8
0
 10
104.4999999999999
 20
69.5
 30
0.0
 11
102.4999999999999
 21
68.5
 31
0.0
  0
LINE
  5
4E
  8
0
 10
102.4999999999999
 20
68.5
 30
0.0
 11
106.4999999999999
 21
68.5
 31
0.0
  0
LINE
  5
4F
  8
0
 10
102.4999999999999
 20
68.5
 30
0.0
 11
102.4999999999999
 21
60.0
 31
0.0
  0
LINE
  5
50
  8
0
 10
106.75
 20
60.0
 30
0.0
 11
106.75
 21
67.5
 31
0.0
  0
LINE
  5
51
  8
0
 10
106.75
 20
67.5
 30
0.0
 11
102.2499999999999
 21
67.5
 31
0.0
  0
LINE
  5
52
  8
0
 10
102.2499999999999
 20
67.5
 30
0.0
 11
102.2499999999999
 21
60.0
 31
0.0
  0
ARC
  5
53
  8
0
 10
104.4999999999999
 20
66.595257994603173
 30
0.0
 40
4.5483542208052228
 50
39.690172361922372
 51
140.30982763807751
  0
LINE
  5
5A
  8
0
 10
225.0
 20
60.0
 30
0.0
 11
225.0
 21
95.500000000001876
 31
0.0
  0
LINE
  5
5C
  8
0
 10
215.0
 20
60.0
 30
0.0
 11
215.0
 21
95.499999999999076
 31
0.0
  0
LINE
  5
5D
  8
0
 10
197.0
 20
60.0
 30
0.0
 11
188.0
 21
60.0
 31
0.0
  0
POLYLINE
  5
60
  8
0
 66
     1
 10
0.0
 20
0.0
 30
0.0
 70
   128
  0
VERTEX
  5
248
  8
0
 10
225.0
 20
95.5
 30
0.0
  0
VERTEX
  5
249
  8
0
 10
224.91486549841949
 20
96.326872830174565
 30
0.0
  0
VERTEX
  5
24A
  8
0
 10
224.66236114702181
 20
97.125587497842204
 30
0.0
  0
VERTEX
  5
24B
  8
0
 10
224.251085678648
 20
97.868944732948108
 30
0.0
  0
VERTEX
  5
24C
  8
0
 10
223.69504458610331
 20
98.531630396409525
 30
0.0
  0
VERTEX
  5
24D
  8
0
 10
223.01317318189621
 20
99.091077522761083
 30
0.0
  0
VERTEX
  5
24E
  8
0
 10
222.22869177888259
 20
99.528234811097775
 30
0.0
  0
VERTEX
  5
24F
  8
0
 10
221.3683149503604
 20
99.828215394277692
 30
0.0
  0
VERTEX
  5
250
  8
0
 10
220.46134179731649
 20
99.980803793327652
 30
0.0
  0
VERTEX
  5
251
  8
0
 10
219.53865820268339
 20
99.980803793327652
 30
0.0
  0
VERTEX
  5
252
  8
0
 10
218.63168504963949
 20
99.828215394277692
 30
0.0
  0
VERTEX
  5
253
  8
0
 10
217.77130822111729
 20
99.528234811097775
 30
0.0
  0
VERTEX
  5
254
  8
0
 10
216.98682681810371
 20
99.091077522761083
 30
0.0
  0
VERTEX
  5
255
  8
0
 10
216.30495541389669
 20
98.531630396409525
 30
0.0
  0
VERTEX
  5
256
  8
0
 10
215.74891432135189
 20
97.868944732948108
 30
0.0
  0
VERTEX
  5
257
  8
0
 10
215.33763885297819
 20
97.125587497842204
 30
0.0
  0
VERTEX
  5
258
  8
0
 10
215.08513450158051
 20
96.326872830174565
 30
0.0
  0
VERTEX
  5
259
  8
0
 10
215.0
 20
95.5
 30
0.0
  0
SEQEND
  5
25A
  8
0
  0
POLYLINE
  5
62
  8
0
 66
     1
 10
0.0
 20
0.0
 30
0.0
 70
   128
  0
VERTEX
  5
25B
  8
0
 10
192.5
 20
35.0
 30
0.0
  0
VERTEX
  5
25C
  8
0
 10
193.32687283017449
 20
35.085134501580491
 30
0.0
  0
VERTEX
  5
25D
  8
0
 10
194.1255874978421
 20
35.337638852978223
 30
0.0
  0
VERTEX
  5
25E
  8
0
 10
194.86894473294811
 20
35.748914321351933
 30
0.0
  0
VERTEX
  5
25F
  8
0
 10
195.53163039640941
 20
36.3049554138967
 30
0.0
  0
VERTEX
  5
260
  8
0
 10
196.091077522761
 20
36.986826818103722
 30
0.0
  0
VERTEX
  5
261
  8
0
 10
196.52823481109769
 20
37.771308221117309
 30
0.0
  0
VERTEX
  5
262
  8
0
 10
196.82821539427769
 20
38.631685049639579
 30
0.0
  0
VERTEX
  5
263
  8
0
 10
196.9808037933276
 20
39.538658202683493
 30
0.0
  0
VERTEX
  5
264
  8
0
 10
196.9808037933276
 20
40.461341797316507
 30
0.0
  0
VERTEX
  5
265
  8
0
 10
196.82821539427769
 20
41.368314950360407
 30
0.0
  0
VERTEX
  5
266
  8
0
 10
196.52823481109769
 20
42.228691778882691
 30
0.0
  0
VERTEX
  5
267
  8
0
 10
196.091077522761
 20
43.013173181896278
 30
0.0
  0
VERTEX
  5
268
  8
0
 10
195.53163039640941
 20
43.695044586103293
 30
0.0
  0
VERTEX
  5
269
  8
0
 10
194.86894473294811
 20
44.251085678648067
 30
0.0
  0
VERTEX
  5
26A
  8
0
 10
194.1255874978421
 20
44.662361147021777
 30
0.0
  0
VERTEX
  5
26B
  8
0
 10
193.32687283017449
 20
44.914865498419502
 30
0.0
  0
VERTEX
  5
26C
  8
0
 10
192.5
 20
45.0
 30
0.0
  0
SEQEND
  5
26D
  8
0
  0
POLYLINE
  5
64
  8
0
 66
     1
 10
0.0
 20
0.0
 30
0.0
 70
   128
  0
VERTEX
  5
26E
  8
0
 10
104.4999999999999
 20
45.0
 30
0.0
  0
VERTEX
  5
26F
  8
0
 10
103.67312716982541
 20
44.914865498419502
 30
0.0
  0
VERTEX
  5
270
  8
0
 10
102.8744125021578
 20
44.66236114702177
 30
0.0
  0
VERTEX
  5
271
  8
0
 10
102.13105526705191
 20
44.25108567864806
 30
0.0
  0
VERTEX
  5
272
  8
0
 10
101.4683696035904
 20
43.695044586103293
 30
0.0
  0
VERTEX
  5
273
  8
0
 10
100.9089224772389
 20
43.013173181896271
 30
0.0
  0
VERTEX
  5
274
  8
0
 10
100.4717651889022
 20
42.228691778882691
 30
0.0
  0
VERTEX
  5
275
  8
0
 10
100.17178460572229
 20
41.368314950360407
 30
0.0
  0
VERTEX
  5
276
  8
0
 10
100.01919620667231
 20
40.461341797316507
 30
0.0
  0
VERTEX
  5
277
  8
0
 10
100.01919620667231
 20
39.538658202683479
 30
0.0
  0
VERTEX
  5
278
  8
0
 10
100.17178460572229
 20
38.631685049639579
 30
0.0
  0
VERTEX
  5
279
  8
0
 10
100.4717651889022
 20
37.771308221117309
 30
0.0
  0
VERTEX
  5
27A
  8
0
 10
100.9089224772389
 20
36.986826818103708
 30
0.0
  0
VERTEX
  5
27B
  8
0
 10
101.4683696035904
 20
36.3049554138967
 30
0.0
  0
VERTEX
  5
27C
  8
0
 10
102.13105526705181
 20
35.748914321351933
 30
0.0
  0
VERTEX
  5
27D
  8
0
 10
102.8744125021578
 20
35.337638852978223
 30
0.0
  0
VERTEX
  5
27E
  8
0
 10
103.67312716982541
 20
35.085134501580491
 30
0.0
  0
VERTEX
  5
27F
  8
0
 10
104.4999999999999
 20
35.0
 30
0.0
  0
SEQEND
  5
280
  8
0
  0
LINE
  5
65
  8
0
 10
192.4999999999981
 20
45.0
 30
0.0
 11
104.4999999999981
 21
45.0
 31
0.0
  0
LINE
  5
66
  8
0
 10
192.50000000000091
 20
35.0
 30
0.0
 11
104.5000000000009
 21
35.0
 31
0.0
  0
POLYLINE
  5
67
  8
0
  6
ACAD_ISO02W100
 66
     1
 10
0.0
 20
0.0
 30
0.0
 70
   128
210
0.0
220
0.0
230
-1.0
  0
VERTEX
  5
281
  8
0
  6
ACAD_ISO02W100
 10
-225.0
 20
95.5
 30
0.0
  0
VERTEX
  5
282
  8
0
  6
ACAD_ISO02W100
 10
-224.91486549841949
 20
94.673127169825435
 30
0.0
  0
VERTEX
  5
283
  8
0
  6
ACAD_ISO02W100
 10
-224.66236114702181
 20
93.87441250215781
 30
0.0
  0
VERTEX
  5
284
  8
0
  6
ACAD_ISO02W100
 10
-224.251085678648
 20
93.131055267051892
 30
0.0
  0
VERTEX
  5
285
  8
0
  6
ACAD_ISO02W100
 10
-223.69504458610331
 20
92.468369603590489
 30
0.0
  0
VERTEX
  5
286
  8
0
  6
ACAD_ISO02W100
 10
-223.01317318189621
 20
91.908922477238917
 30
0.0
  0
VERTEX
  5
287
  8
0
  6
ACAD_ISO02W100
 10
-222.22869177888259
 20
91.471765188902225
 30
0.0
  0
VERTEX
  5
288
  8
0
  6
ACAD_ISO02W100
 10
-221.3683149503604
 20
91.171784605722308
 30
0.0
  0
VERTEX
  5
289
  8
0
  6
ACAD_ISO02W100
 10
-220.46134179731649
 20
91.019196206672348
 30
0.0
  0
VERTEX
  5
28A
  8
0
  6
ACAD_ISO02W100
 10
-219.53865820268339
 20
91.019196206672348
 30
0.0
  0
VERTEX
  5
28B
  8
0
  6
ACAD_ISO02W100
 10
-218.63168504963949
 20
91.171784605722308
 30
0.0
  0
VERTEX
  5
28C
  8
0
  6
ACAD_ISO02W100
 10
-217.77130822111729
 20
91.471765188902225
 30
0.0
  0
VERTEX
  5
28D
  8
0
  6
ACAD_ISO02W100
 10
-216.98682681810371
 20
91.908922477238917
 30
0.0
  0
VERTEX
  5
28E
  8
0
  6
ACAD_ISO02W100
 10
-216.30495541389669
 20
92.468369603590489
 30
0.0
  0
VERTEX
  5
28F
  8
0
  6
ACAD_ISO02W100
 10
-215.74891432135189
 20
93.131055267051892
 30
0.0
  0
VERTEX
  5
290
  8
0
  6
ACAD_ISO02W100
 10
-215.33763885297819
 20
93.87441250215781
 30
0.0
  0
VERTEX
  5
291
  8
0
  6
ACAD_ISO02W100
 10
-215.08513450158051
 20
94.673127169825435
 30
0.0
  0
VERTEX
  5
292
  8
0
  6
ACAD_ISO02W100
 10
-215.0
 20
95.5
 30
0.0
  0
SEQEND
  5
293
  8
0
  6
ACAD_ISO02W100
  0
LINE
  5
6F
  8
0
  6
CENTER2
 10
148.5
 20
105.0
 30
0.0
 11
148.5
 21
86.0
 31
0.0
  0
LINE
  5
72
  8
0
  6
CENTER2
 10
104.4999999999999
 20
57.5
 30
0.0
 11
104.4999999999999
 21
73.5
 31
0.0
  0
LINE
  5
74
  8
0
  6
CENTER2
 10
192.5
 20
57.5
 30
0.0
 11
192.5
 21
73.5
 31
0.0
  0
LINE
  5
75
  8
0
 10
204.50000000000091
 20
135.0
 30
0.0
 11
104.5000000000009
 21
135.0
 31
0.0
  0
LINE
  5
76
  8
0
 10
204.4999999999981
 20
145.0
 30
0.0
 11
104.4999999999981
 21
145.0
 31
0.0
  0
POLYLINE
  5
77
  8
0
 66
     1
 10
0.0
 20
0.0
 30
0.0
 70
   128
  0
VERTEX
  5
294
  8
0
 10
104.4999999999999
 20
145.0
 30
0.0
  0
VERTEX
  5
295
  8
0
 10
103.67312716982541
 20
144.91486549841949
 30
0.0
  0
VERTEX
  5
296
  8
0
 10
102.8744125021578
 20
144.6623611470217
 30
0.0
  0
VERTEX
  5
297
  8
0
 10
102.13105526705191
 20
144.251085678648
 30
0.0
  0
VERTEX
  5
298
  8
0
 10
101.4683696035904
 20
143.69504458610331
 30
0.0
  0
VERTEX
  5
299
  8
0
 10
100.9089224772389
 20
143.01317318189629
 30
0.0
  0
VERTEX
  5
29A
  8
0
 10
100.4717651889022
 20
142.22869177888259
 30
0.0
  0
VERTEX
  5
29B
  8
0
 10
100.17178460572229
 20
141.36831495036029
 30
0.0
  0
VERTEX
  5
29C
  8
0
 10
100.01919620667231
 20
140.46134179731649
 30
0.0
  0
VERTEX
  5
29D
  8
0
 10
100.01919620667231
 20
139.53865820268339
 30
0.0
  0
VERTEX
  5
29E
  8
0
 10
100.17178460572229
 20
138.63168504963949
 30
0.0
  0
VERTEX
  5
29F
  8
0
 10
100.4717651889022
 20
137.77130822111721
 30
0.0
  0
VERTEX
  5
2A0
  8
0
 10
100.9089224772389
 20
136.98682681810371
 30
0.0
  0
VERTEX
  5
2A1
  8
0
 10
101.4683696035904
 20
136.30495541389661
 30
0.0
  0
VERTEX
  5
2A2
  8
0
 10
102.13105526705181
 20
135.74891432135189
 30
0.0
  0
VERTEX
  5
2A3
  8
0
 10
102.8744125021578
 20
135.33763885297819
 30
0.0
  0
VERTEX
  5
2A4
  8
0
 10
103.67312716982541
 20
135.0851345015804
 30
0.0
  0
VERTEX
  5
2A5
  8
0
 10
104.4999999999999
 20
135.0
 30
0.0
  0
SEQEND
  5
2A6
  8
0
  0
POLYLINE
  5
78
  8
0
 66
     1
 10
0.0
 20
0.0
 30
0.0
 70
   128
  0
VERTEX
  5
2A7
  8
0
 10
204.49999999999989
 20
135.0
 30
0.0
  0
VERTEX
  5
2A8
  8
0
 10
205.32687283017449
 20
135.0851345015804
 30
0.0
  0
VERTEX
  5
2A9
  8
0
 10
206.1255874978421
 20
135.33763885297819
 30
0.0
  0
VERTEX
  5
2AA
  8
0
 10
206.86894473294811
 20
135.74891432135189
 30
0.0
  0
VERTEX
  5
2AB
  8
0
 10
207.5316303964095
 20
136.30495541389661
 30
0.0
  0
VERTEX
  5
2AC
  8
0
 10
208.091077522761
 20
136.98682681810371
 30
0.0
  0
VERTEX
  5
2AD
  8
0
 10
208.52823481109769
 20
137.77130822111729
 30
0.0
  0
VERTEX
  5
2AE
  8
0
 10
208.82821539427769
 20
138.6316850496396
 30
0.0
  0
VERTEX
  5
2AF
  8
0
 10
208.9808037933276
 20
139.53865820268339
 30
0.0
  0
VERTEX
  5
2B0
  8
0
 10
208.9808037933276
 20
140.46134179731649
 30
0.0
  0
VERTEX
  5
2B1
  8
0
 10
208.82821539427769
 20
141.3683149503604
 30
0.0
  0
VERTEX
  5
2B2
  8
0
 10
208.52823481109769
 20
142.22869177888271
 30
0.0
  0
VERTEX
  5
2B3
  8
0
 10
208.091077522761
 20
143.01317318189629
 30
0.0
  0
VERTEX
  5
2B4
  8
0
 10
207.5316303964095
 20
143.69504458610331
 30
0.0
  0
VERTEX
  5
2B5
  8
0
 10
206.86894473294811
 20
144.251085678648
 30
0.0
  0
VERTEX
  5
2B6
  8
0
 10
206.1255874978421
 20
144.6623611470217
 30
0.0
  0
VERTEX
  5
2B7
  8
0
 10
205.32687283017449
 20
144.91486549841949
 30
0.0
  0
VERTEX
  5
2B8
  8
0
 10
204.49999999999989
 20
145.0
 30
0.0
  0
SEQEND
  5
2B9
  8
0
  0
LINE
  5
79
  8
0
 10
237.0
 20
160.0
 30
0.0
 11
237.0
 21
195.50000000000179
 31
0.0
  0
LINE
  5
7A
  8
0
 10
227.0
 20
160.0
 30
0.0
 11
227.0
 21
195.49999999999909
 31
0.0
  0
LINE
  5
7B
  8
0
 10
237.0
 20
160.0
 30
0.0
 11
227.0
 21
160.0
 31
0.0
  0
POLYLINE
  5
7C
  8
0
 66
     1
 10
0.0
 20
0.0
 30
0.0
 70
   128
  0
VERTEX
  5
2BA
  8
0
 10
237.0
 20
195.5
 30
0.0
  0
VERTEX
  5
2BB
  8
0
 10
236.91486549841949
 20
196.32687283017449
 30
0.0
  0
VERTEX
  5
2BC
  8
0
 10
236.6623611470217
 20
197.1255874978421
 30
0.0
  0
VERTEX
  5
2BD
  8
0
 10
236.251085678648
 20
197.86894473294811
 30
0.0
  0
VERTEX
  5
2BE
  8
0
 10
235.69504458610331
 20
198.5316303964095
 30
0.0
  0
VERTEX
  5
2BF
  8
0
 10
235.01317318189621
 20
199.09107752276111
 30
0.0
  0
VERTEX
  5
2C0
  8
0
 10
234.22869177888259
 20
199.52823481109769
 30
0.0
  0
VERTEX
  5
2C1
  8
0
 10
233.36831495036029
 20
199.82821539427761
 30
0.0
  0
VERTEX
  5
2C2
  8
0
 10
232.46134179731649
 20
199.9808037933276
 30
0.0
  0
VERTEX
  5
2C3
  8
0
 10
231.53865820268339
 20
199.9808037933276
 30
0.0
  0
VERTEX
  5
2C4
  8
0
 10
230.63168504963949
 20
199.82821539427761
 30
0.0
  0
VERTEX
  5
2C5
  8
0
 10
229.77130822111721
 20
199.52823481109769
 30
0.0
  0
VERTEX
  5
2C6
  8
0
 10
228.98682681810371
 20
199.09107752276111
 30
0.0
  0
VERTEX
  5
2C7
  8
0
 10
228.30495541389661
 20
198.5316303964095
 30
0.0
  0
VERTEX
  5
2C8
  8
0
 10
227.74891432135189
 20
197.86894473294811
 30
0.0
  0
VERTEX
  5
2C9
  8
0
 10
227.33763885297819
 20
197.1255874978421
 30
0.0
  0
VERTEX
  5
2CA
  8
0
 10
227.0851345015804
 20
196.32687283017449
 30
0.0
  0
VERTEX
  5
2CB
  8
0
 10
227.0
 20
195.5
 30
0.0
  0
SEQEND
  5
2CC
  8
0
  0
POLYLINE
  5
7D
  8
0
  6
ACAD_ISO02W100
 66
     1
 10
0.0
 20
0.0
 30
0.0
 70
   128
210
0.0
220
0.0
230
-1.0
  0
VERTEX
  5
2CD
  8
0
  6
ACAD_ISO02W100
 10
-237.0
 20
195.5
 30
0.0
  0
VERTEX
  5
2CE
  8
0
  6
ACAD_ISO02W100
 10
-236.91486549841949
 20
194.67312716982539
 30
0.0
  0
VERTEX
  5
2CF
  8
0
  6
ACAD_ISO02W100
 10
-236.6623611470217
 20
193.87441250215781
 30
0.0
  0
VERTEX
  5
2D0
  8
0
  6
ACAD_ISO02W100
 10
-236.251085678648
 20
193.13105526705181
 30
0.0
  0
VERTEX
  5
2D1
  8
0
  6
ACAD_ISO02W100
 10
-235.69504458610331
 20
192.4683696035905
 30
0.0
  0
VERTEX
  5
2D2
  8
0
  6
ACAD_ISO02W100
 10
-235.01317318189621
 20
191.90892247723889
 30
0.0
  0
VERTEX
  5
2D3
  8
0
  6
ACAD_ISO02W100
 10
-234.22869177888259
 20
191.4717651889022
 30
0.0
  0
VERTEX
  5
2D4
  8
0
  6
ACAD_ISO02W100
 10
-233.36831495036029
 20
191.17178460572231
 30
0.0
  0
VERTEX
  5
2D5
  8
0
  6
ACAD_ISO02W100
 10
-232.46134179731649
 20
191.01919620667229
 30
0.0
  0
VERTEX
  5
2D6
  8
0
  6
ACAD_ISO02W100
 10
-231.53865820268339
 20
191.01919620667229
 30
0.0
  0
VERTEX
  5
2D7
  8
0
  6
ACAD_ISO02W100
 10
-230.63168504963949
 20
191.17178460572231
 30
0.0
  0
VERTEX
  5
2D8
  8
0
  6
ACAD_ISO02W100
 10
-229.77130822111721
 20
191.4717651889022
 30
0.0
  0
VERTEX
  5
2D9
  8
0
  6
ACAD_ISO02W100
 10
-228.98682681810371
 20
191.90892247723889
 30
0.0
  0
VERTEX
  5
2DA
  8
0
  6
ACAD_ISO02W100
 10
-228.30495541389661
 20
192.4683696035905
 30
0.0
  0
VERTEX
  5
2DB
  8
0
  6
ACAD_ISO02W100
 10
-227.74891432135189
 20
193.13105526705181
 30
0.0
  0
VERTEX
  5
2DC
  8
0
  6
ACAD_ISO02W100
 10
-227.33763885297819
 20
193.87441250215781
 30
0.0
  0
VERTEX
  5
2DD
  8
0
  6
ACAD_ISO02W100
 10
-227.0851345015804
 20
194.67312716982539
 30
0.0
  0
VERTEX
  5
2DE
  8
0
  6
ACAD_ISO02W100
 10
-227.0
 20
195.5
 30
0.0
  0
SEQEND
  5
2DF
  8
0
  6
ACAD_ISO02W100
  0
ARC
  5
7E
  8
0
 10
189.0
 20
180.0
 30
0.0
 40
20.0
 50
0.0
 51
90.0
  0
ARC
  5
7F
  8
0
 10
187.5
 20
178.5
 30
0.0
 40
12.5
 50
0.0
 51
90.0
  0
LINE
  5
80
  8
0
 10
209.0
 20
180.0
 30
0.0
 11
209.0
 21
160.0
 31
0.0
  0
LINE
  5
81
  8
0
 10
209.0
 20
160.0
 30
0.0
 11
200.0
 21
160.0
 31
0.0
  0
LINE
  5
82
  8
0
  6
CENTER2
 10
204.49999999999989
 20
157.5
 30
0.0
 11
204.49999999999989
 21
173.5
 31
0.0
  0
LINE
  5
83
  8
0
 10
200.0
 20
160.0
 30
0.0
 11
200.0
 21
178.5
 31
0.0
  0
ARC
  5
84
  8
0
 10
120.0
 20
180.0
 30
0.0
 40
20.0
 50
90.0
 51
180.0
  0
ARC
  5
85
  8
0
 10
121.5
 20
178.5
 30
0.0
 40
12.5
 50
90.0
 51
180.0
  0
LINE
  5
86
  8
0
 10
100.0
 20
160.0
 30
0.0
 11
100.0
 21
180.0
 31
0.0
  0
LINE
  5
87
  8
0
  6
CENTER2
 10
104.4999999999999
 20
157.5
 30
0.0
 11
104.4999999999999
 21
173.5
 31
0.0
  0
LINE
  5
88
  8
0
 10
102.2499999999999
 20
167.5
 30
0.0
 11
102.2499999999999
 21
160.0
 31
0.0
  0
LINE
  5
89
  8
0
 10
106.75
 20
160.0
 30
0.0
 11
106.75
 21
167.5
 31
0.0
  0
LINE
  5
8A
  8
0
 10
102.4999999999999
 20
168.5
 30
0.0
 11
102.4999999999999
 21
160.0
 31
0.0
  0
LINE
  5
8B
  8
0
 10
106.4999999999999
 20
160.0
 30
0.0
 11
106.4999999999999
 21
168.5
 31
0.0
  0
LINE
  5
8C
  8
0
 10
101.0
 20
160.0
 30
0.0
 11
101.0
 21
169.5
 31
0.0
  0
LINE
  5
8D
  8
0
 10
108.0
 20
160.0
 30
0.0
 11
108.0
 21
169.5
 31
0.0
  0
LINE
  5
8E
  8
0
 10
109.0
 20
178.5
 30
0.0
 11
109.0
 21
160.0
 31
0.0
  0
LINE
  5
8F
  8
0
 10
109.0
 20
160.0
 30
0.0
 11
100.0
 21
160.0
 31
0.0
  0
ARC
  5
90
  8
0
 10
104.4999999999999
 20
166.59525799460309
 30
0.0
 40
4.5483542208052228
 50
39.690172361922372
 51
140.30982763807751
  0
LINE
  5
91
  8
0
 10
106.75
 20
167.5
 30
0.0
 11
102.2499999999999
 21
167.5
 31
0.0
  0
LINE
  5
92
  8
0
 10
102.4999999999999
 20
168.5
 30
0.0
 11
106.4999999999999
 21
168.5
 31
0.0
  0
LINE
  5
93
  8
0
 10
104.4999999999999
 20
169.5
 30
0.0
 11
102.4999999999999
 21
168.5
 31
0.0
  0
LINE
  5
94
  8
0
 10
106.4999999999999
 20
168.5
 30
0.0
 11
104.4999999999999
 21
169.5
 31
0.0
  0
INSERT
  5
A4
  8
0
  6
CONTINUOUS
  2
*X2
 10
0.0
 20
0.0
 30
0.0
1001
ACAD
1000
HATCH
1002
{
1070
    19
1000
ANSI31
1040
1.0
1040
0.0
1000
R14_HATCH_DATA
1000
A4
1011
1.0
1021
0.0
1031
0.0
1021
0.0
1031
0.0
1011
0.0
1021
0.0
1031
0.0
1021
1.0
1031
0.0
1011
0.0
1021
0.0
1031
0.0
1021
0.0
1031
1.0
1040
0.0
1010
0.0
1020
0.0
1030
1.0
1000
ANSI31
1070
     0
1070
     1
1071
        1
1071
        7
1070
     1
1070
     1
1071
       12
1040
121.5
1040
91.0
1040
0.0
1040
148.5
1040
91.0
1040
0.0
1040
148.5
1040
100.0
1040
0.0
1040
120.0
1040
100.0
1040
0.4142135623730951
1040
100.0
1040
80.0
1040
0.0
1040
100.0
1040
60.0
1040
0.0
1040
101.0
1040
60.0
1040
0.0
1040
101.0
1040
69.5
1040
-0.4696034901166892
1040
108.0
1040
69.5
1040
0.0
1040
108.0
1040
60.0
1040
0.0
1040
109.0
1040
60.0
1040
0.0
1040
109.0
1040
78.5
1040
-0.4142135623730951
1071
       11
1005
3C
1005
44
1005
43
1005
42
1005
4A
1005
53
1005
49
1005
41
1005
46
1005
40
1005
6F
1070
     0
1070
     1
1040
0.0
1040
1.0
1070
     0
1070
     1
1040
0.7853981633974483
1040
0.0
1040
0.0
1040
-2.2450640302672871
1040
2.245064030267288
1070
     0
1040
0.1588471849865952
1071
        1
1040
114.25
1040
91.5
1040
0.0
1002
}
  0
LINE
  5
A7
  8
0
 10
120.0
 20
200.0
 30
0.0
 11
189.0
 21
200.0
 31
0.0
  0
LINE
  5
A8
  8
0
 10
121.5
 20
191.0
 30
0.0
 11
187.5
 21
191.0
 31
0.0
  0
ARC
  5
AA
  8
0
 10
209.0
 20
280.0
 30
0.0
 40
20.0
 50
0.0
 51
90.0
  0
LINE
  5
AB
  8
0
 10
224.4999999999981
 20
245.0
 30
0.0
 11
104.4999999999981
 21
245.0
 31
0.0
  0
LINE
  5
AC
  8
0
 10
224.50000000000091
 20
235.0
 30
0.0
 11
104.5000000000009
 21
235.0
 31
0.0
  0
POLYLINE
  5
AD
  8
0
 66
     1
 10
0.0
 20
0.0
 30
0.0
 70
   128
  0
VERTEX
  5
2E0
  8
0
 10
104.4999999999999
 20
245.0
 30
0.0
  0
VERTEX
  5
2E1
  8
0
 10
103.67312716982541
 20
244.91486549841949
 30
0.0
  0
VERTEX
  5
2E2
  8
0
 10
102.8744125021578
 20
244.6623611470217
 30
0.0
  0
VERTEX
  5
2E3
  8
0
 10
102.13105526705191
 20
244.251085678648
 30
0.0
  0
VERTEX
  5
2E4
  8
0
 10
101.4683696035904
 20
243.69504458610319
 30
0.0
  0
VERTEX
  5
2E5
  8
0
 10
100.9089224772389
 20
243.01317318189629
 30
0.0
  0
VERTEX
  5
2E6
  8
0
 10
100.4717651889022
 20
242.22869177888259
 30
0.0
  0
VERTEX
  5
2E7
  8
0
 10
100.17178460572229
 20
241.36831495036029
 30
0.0
  0
VERTEX
  5
2E8
  8
0
 10
100.01919620667231
 20
240.46134179731649
 30
0.0
  0
VERTEX
  5
2E9
  8
0
 10
100.01919620667231
 20
239.53865820268339
 30
0.0
  0
VERTEX
  5
2EA
  8
0
 10
100.17178460572229
 20
238.63168504963949
 30
0.0
  0
VERTEX
  5
2EB
  8
0
 10
100.4717651889022
 20
237.77130822111721
 30
0.0
  0
VERTEX
  5
2EC
  8
0
 10
100.9089224772389
 20
236.98682681810371
 30
0.0
  0
VERTEX
  5
2ED
  8
0
 10
101.4683696035904
 20
236.30495541389661
 30
0.0
  0
VERTEX
  5
2EE
  8
0
 10
102.13105526705181
 20
235.74891432135189
 30
0.0
  0
VERTEX
  5
2EF
  8
0
 10
102.8744125021578
 20
235.33763885297819
 30
0.0
  0
VERTEX
  5
2F0
  8
0
 10
103.67312716982541
 20
235.0851345015804
 30
0.0
  0
VERTEX
  5
2F1
  8
0
 10
104.4999999999999
 20
235.0
 30
0.0
  0
SEQEND
  5
2F2
  8
0
  0
POLYLINE
  5
AE
  8
0
 66
     1
 10
0.0
 20
0.0
 30
0.0
 70
   128
  0
VERTEX
  5
2F3
  8
0
 10
224.5
 20
235.0
 30
0.0
  0
VERTEX
  5
2F4
  8
0
 10
225.32687283017449
 20
235.0851345015804
 30
0.0
  0
VERTEX
  5
2F5
  8
0
 10
226.1255874978421
 20
235.33763885297819
 30
0.0
  0
VERTEX
  5
2F6
  8
0
 10
226.86894473294811
 20
235.74891432135189
 30
0.0
  0
VERTEX
  5
2F7
  8
0
 10
227.53163039640941
 20
236.30495541389661
 30
0.0
  0
VERTEX
  5
2F8
  8
0
 10
228.091077522761
 20
236.98682681810371
 30
0.0
  0
VERTEX
  5
2F9
  8
0
 10
228.52823481109769
 20
237.77130822111729
 30
0.0
  0
VERTEX
  5
2FA
  8
0
 10
228.82821539427761
 20
238.63168504963949
 30
0.0
  0
VERTEX
  5
2FB
  8
0
 10
228.9808037933276
 20
239.53865820268339
 30
0.0
  0
VERTEX
  5
2FC
  8
0
 10
228.9808037933276
 20
240.46134179731649
 30
0.0
  0
VERTEX
  5
2FD
  8
0
 10
228.82821539427761
 20
241.3683149503604
 30
0.0
  0
VERTEX
  5
2FE
  8
0
 10
228.52823481109769
 20
242.22869177888271
 30
0.0
  0
VERTEX
  5
2FF
  8
0
 10
228.091077522761
 20
243.01317318189629
 30
0.0
  0
VERTEX
  5
300
  8
0
 10
227.53163039640941
 20
243.69504458610319
 30
0.0
  0
VERTEX
  5
301
  8
0
 10
226.86894473294811
 20
244.251085678648
 30
0.0
  0
VERTEX
  5
302
  8
0
 10
226.1255874978421
 20
244.6623611470217
 30
0.0
  0
VERTEX
  5
303
  8
0
 10
225.32687283017449
 20
244.91486549841949
 30
0.0
  0
VERTEX
  5
304
  8
0
 10
224.5
 20
245.0
 30
0.0
  0
SEQEND
  5
305
  8
0
  0
LINE
  5
AF
  8
0
 10
120.0
 20
300.0
 30
0.0
 11
209.0
 21
300.0
 31
0.0
  0
LINE
  5
B0
  8
0
 10
121.5
 20
291.0
 30
0.0
 11
207.5
 21
291.0
 31
0.0
  0
ARC
  5
B1
  8
0
 10
120.0
 20
280.0
 30
0.0
 40
20.0
 50
90.0
 51
180.0
  0
ARC
  5
B2
  8
0
 10
121.5
 20
278.5
 30
0.0
 40
12.5
 50
90.0
 51
180.0
  0
LINE
  5
B3
  8
0
 10
100.0
 20
260.0
 30
0.0
 11
100.0
 21
280.0
 31
0.0
  0
LINE
  5
B4
  8
0
  6
CENTER2
 10
104.4999999999999
 20
257.5
 30
0.0
 11
104.4999999999999
 21
273.49999999999989
 31
0.0
  0
LINE
  5
B5
  8
0
 10
109.0
 20
278.5
 30
0.0
 11
109.0
 21
260.0
 31
0.0
  0
LINE
  5
B6
  8
0
 10
102.2499999999999
 20
267.5
 30
0.0
 11
102.2499999999999
 21
260.0
 31
0.0
  0
LINE
  5
B7
  8
0
 10
106.75
 20
260.0
 30
0.0
 11
106.75
 21
267.5
 31
0.0
  0
LINE
  5
B8
  8
0
 10
102.4999999999999
 20
268.5
 30
0.0
 11
102.4999999999999
 21
260.0
 31
0.0
  0
LINE
  5
B9
  8
0
 10
106.4999999999999
 20
260.0
 30
0.0
 11
106.4999999999999
 21
268.5
 31
0.0
  0
LINE
  5
BA
  8
0
 10
101.0
 20
260.0
 30
0.0
 11
101.0
 21
269.49999999999989
 31
0.0
  0
LINE
  5
BB
  8
0
 10
108.0
 20
260.0
 30
0.0
 11
108.0
 21
269.49999999999989
 31
0.0
  0
LINE
  5
BC
  8
0
 10
109.0
 20
260.0
 30
0.0
 11
100.0
 21
260.0
 31
0.0
  0
ARC
  5
BD
  8
0
 10
104.4999999999999
 20
266.59525799460312
 30
0.0
 40
4.5483542208052228
 50
39.690172361922372
 51
140.30982763807751
  0
LINE
  5
BE
  8
0
 10
106.75
 20
267.5
 30
0.0
 11
102.2499999999999
 21
267.5
 31
0.0
  0
LINE
  5
BF
  8
0
 10
102.4999999999999
 20
268.5
 30
0.0
 11
106.4999999999999
 21
268.5
 31
0.0
  0
LINE
  5
C0
  8
0
 10
104.4999999999999
 20
269.49999999999989
 30
0.0
 11
102.4999999999999
 21
268.5
 31
0.0
  0
LINE
  5
C1
  8
0
 10
106.4999999999999
 20
268.5
 30
0.0
 11
104.4999999999999
 21
269.49999999999989
 31
0.0
  0
LINE
  5
C2
  8
0
 10
220.0
 20
260.0
 30
0.0
 11
220.0
 21
278.5
 31
0.0
  0
LINE
  5
C3
  8
0
  6
CENTER2
 10
224.5
 20
257.5
 30
0.0
 11
224.5
 21
273.49999999999989
 31
0.0
  0
LINE
  5
C4
  8
0
 10
229.0
 20
280.0
 30
0.0
 11
229.0
 21
260.0
 31
0.0
  0
LINE
  5
C5
  8
0
 10
229.0
 20
260.0
 30
0.0
 11
220.0
 21
260.0
 31
0.0
  0
ARC
  5
C6
  8
0
 10
207.5
 20
278.5
 30
0.0
 40
12.5
 50
0.0
 51
90.0
  0
POLYLINE
  5
C7
  8
0
  6
ACAD_ISO02W100
 66
     1
 10
0.0
 20
0.0
 30
0.0
 70
   128
210
0.0
220
0.0
230
-1.0
  0
VERTEX
  5
306
  8
0
  6
ACAD_ISO02W100
 10
-257.0
 20
295.5
 30
0.0
  0
VERTEX
  5
307
  8
0
  6
ACAD_ISO02W100
 10
-256.91486549841949
 20
294.67312716982542
 30
0.0
  0
VERTEX
  5
308
  8
0
  6
ACAD_ISO02W100
 10
-256.66236114702173
 20
293.87441250215778
 30
0.0
  0
VERTEX
  5
309
  8
0
  6
ACAD_ISO02W100
 10
-256.251085678648
 20
293.13105526705192
 30
0.0
  0
VERTEX
  5
30A
  8
0
  6
ACAD_ISO02W100
 10
-255.69504458610331
 20
292.46836960359042
 30
0.0
  0
VERTEX
  5
30B
  8
0
  6
ACAD_ISO02W100
 10
-255.01317318189629
 20
291.90892247723889
 30
0.0
  0
VERTEX
  5
30C
  8
0
  6
ACAD_ISO02W100
 10
-254.22869177888259
 20
291.47176518890222
 30
0.0
  0
VERTEX
  5
30D
  8
0
  6
ACAD_ISO02W100
 10
-253.3683149503604
 20
291.17178460572228
 30
0.0
  0
VERTEX
  5
30E
  8
0
  6
ACAD_ISO02W100
 10
-252.46134179731649
 20
291.01919620667229
 30
0.0
  0
VERTEX
  5
30F
  8
0
  6
ACAD_ISO02W100
 10
-251.53865820268339
 20
291.01919620667229
 30
0.0
  0
VERTEX
  5
310
  8
0
  6
ACAD_ISO02W100
 10
-250.63168504963949
 20
291.17178460572228
 30
0.0
  0
VERTEX
  5
311
  8
0
  6
ACAD_ISO02W100
 10
-249.77130822111729
 20
291.47176518890222
 30
0.0
  0
VERTEX
  5
312
  8
0
  6
ACAD_ISO02W100
 10
-248.98682681810371
 20
291.90892247723889
 30
0.0
  0
VERTEX
  5
313
  8
0
  6
ACAD_ISO02W100
 10
-248.30495541389661
 20
292.46836960359042
 30
0.0
  0
VERTEX
  5
314
  8
0
  6
ACAD_ISO02W100
 10
-247.74891432135189
 20
293.13105526705192
 30
0.0
  0
VERTEX
  5
315
  8
0
  6
ACAD_ISO02W100
 10
-247.33763885297819
 20
293.87441250215778
 30
0.0
  0
VERTEX
  5
316
  8
0
  6
ACAD_ISO02W100
 10
-247.0851345015804
 20
294.67312716982542
 30
0.0
  0
VERTEX
  5
317
  8
0
  6
ACAD_ISO02W100
 10
-247.0
 20
295.5
 30
0.0
  0
SEQEND
  5
318
  8
0
  6
ACAD_ISO02W100
  0
LINE
  5
C8
  8
0
 10
247.0
 20
260.0
 30
0.0
 11
247.0
 21
295.49999999999898
 31
0.0
  0
LINE
  5
C9
  8
0
 10
257.0
 20
260.0
 30
0.0
 11
257.0
 21
295.50000000000182
 31
0.0
  0
LINE
  5
CA
  8
0
 10
257.0
 20
260.0
 30
0.0
 11
247.0
 21
260.0
 31
0.0
  0
POLYLINE
  5
CB
  8
0
 66
     1
 10
0.0
 20
0.0
 30
0.0
 70
   128
  0
VERTEX
  5
319
  8
0
 10
257.0
 20
295.5
 30
0.0
  0
VERTEX
  5
31A
  8
0
 10
256.91486549841949
 20
296.32687283017452
 30
0.0
  0
VERTEX
  5
31B
  8
0
 10
256.66236114702173
 20
297.1255874978421
 30
0.0
  0
VERTEX
  5
31C
  8
0
 10
256.251085678648
 20
297.86894473294802
 30
0.0
  0
VERTEX
  5
31D
  8
0
 10
255.69504458610331
 20
298.53163039640953
 30
0.0
  0
VERTEX
  5
31E
  8
0
 10
255.01317318189629
 20
299.091077522761
 30
0.0
  0
VERTEX
  5
31F
  8
0
 10
254.22869177888259
 20
299.52823481109772
 30
0.0
  0
VERTEX
  5
320
  8
0
 10
253.3683149503604
 20
299.82821539427761
 30
0.0
  0
VERTEX
  5
321
  8
0
 10
252.46134179731649
 20
299.9808037933276
 30
0.0
  0
VERTEX
  5
322
  8
0
 10
251.53865820268339
 20
299.9808037933276
 30
0.0
  0
VERTEX
  5
323
  8
0
 10
250.63168504963949
 20
299.82821539427761
 30
0.0
  0
VERTEX
  5
324
  8
0
 10
249.77130822111729
 20
299.52823481109772
 30
0.0
  0
VERTEX
  5
325
  8
0
 10
248.98682681810371
 20
299.091077522761
 30
0.0
  0
VERTEX
  5
326
  8
0
 10
248.30495541389661
 20
298.53163039640953
 30
0.0
  0
VERTEX
  5
327
  8
0
 10
247.74891432135189
 20
297.86894473294802
 30
0.0
  0
VERTEX
  5
328
  8
0
 10
247.33763885297819
 20
297.1255874978421
 30
0.0
  0
VERTEX
  5
329
  8
0
 10
247.0851345015804
 20
296.32687283017452
 30
0.0
  0
VERTEX
  5
32A
  8
0
 10
247.0
 20
295.5
 30
0.0
  0
SEQEND
  5
32B
  8
0
  0
LINE
  5
CD
  8
0
  6
CENTER2
 10
154.49999999999989
 20
205.0
 30
0.0
 11
154.49999999999989
 21
186.0
 31
0.0
  0
LINE
  5
CE
  8
0
  6
CENTER2
 10
164.5
 20
305.0
 30
0.0
 11
164.5
 21
286.0
 31
0.0
  0
INSERT
  5
DB
  8
0
  6
CONTINUOUS
  2
*X1
 10
0.0
 20
0.0
 30
0.0
1001
ACAD
1000
HATCH
1002
{
1070
    19
1000
ANSI31
1040
1.0
1040
0.0
1000
R14_HATCH_DATA
1000
DB
1011
1.0
1021
0.0
1031
0.0
1021
0.0
1031
0.0
1011
0.0
1021
0.0
1031
0.0
1021
1.0
1031
0.0
1011
0.0
1021
0.0
1031
0.0
1021
0.0
1031
1.0
1040
0.0
1010
0.0
1020
0.0
1030
1.0
1000
ANSI31
1070
     0
1070
     1
1071
        1
1071
        7
1070
     1
1070
     1
1071
       12
1040
154.49999999999989
1040
199.99999999999989
1040
0.0
1040
120.0
1040
200.0
1040
0.4142135623730953
1040
100.0
1040
180.0
1040
0.0
1040
100.0
1040
160.0
1040
0.0
1040
101.0
1040
160.0
1040
0.0
1040
101.0
1040
169.5
1040
-0.4696034901166892
1040
108.0
1040
169.49999999999989
1040
0.0
1040
107.9999999999999
1040
160.0
1040
0.0
1040
109.0
1040
160.0
1040
0.0
1040
109.0
1040
178.5
1040
-0.4142135623730951
1040
121.5
1040
191.0
1040
0.0
1040
154.49999999999989
1040
191.0
1040
0.0
1071
       11
1005
A7
1005
84
1005
86
1005
8F
1005
8C
1005
90
1005
8D
1005
8E
1005
85
1005
A8
1005
CD
1070
     0
1070
     1
1040
0.0
1040
1.0
1070
     0
1070
     1
1040
0.7853981633974483
1040
0.0
1040
0.0
1040
-2.2450640302672871
1040
2.245064030267288
1070
     0
1040
0.1320375335120643
1071
        1
1040
127.4457718577579
1040
195.3481903087314
1040
0.0
1002
}
  0
INSERT
  5
E8
  8
0
  6
CONTINUOUS
  2
*X0
 10
0.0
 20
0.0
 30
0.0
1001
ACAD
1000
HATCH
1002
{
1070
    19
1000
ANSI31
1040
1.0
1040
0.0
1000
R14_HATCH_DATA
1000
E8
1011
1.0
1021
0.0
1031
0.0
1021
0.0
1031
0.0
1011
0.0
1021
0.0
1031
0.0
1021
1.0
1031
0.0
1011
0.0
1021
0.0
1031
0.0
1021
0.0
1031
1.0
1040
0.0
1010
0.0
1020
0.0
1030
1.0
1000
ANSI31
1070
     0
1070
     1
1071
        1
1071
        7
1070
     1
1070
     1
1071
       12
1040
164.5
1040
300.0
1040
0.0
1040
120.0
1040
300.0
1040
0.4142135623730951
1040
100.0
1040
280.0
1040
0.0
1040
100.0
1040
260.0
1040
0.0
1040
101.0
1040
260.0
1040
0.0
1040
101.0
1040
269.5
1040
-0.4696034901166892
1040
108.0
1040
269.49999999999989
1040
0.0
1040
108.0
1040
260.0
1040
0.0
1040
109.0
1040
260.0
1040
0.0
1040
109.0
1040
278.5
1040
-0.4142135623730951
1040
121.5
1040
291.0
1040
0.0
1040
164.5
1040
291.0
1040
0.0
1071
       11
1005
AF
1005
B1
1005
B3
1005
BC
1005
BA
1005
BD
1005
BB
1005
B5
1005
B2
1005
B0
1005
CE
1070
     0
1070
     1
1040
0.0
1040
1.0
1070
     0
1070
     1
1040
0.7853981633974483
1040
0.0
1040
0.0
1040
-2.2450640302672871
1040
2.245064030267288
1070
     0
1040
0.1338613805652758
1071
        1
1040
130.81591598497769
1040
294.64595999966122
1040
0.0
1002
}
  0
ENDSEC
  0
EOF
