  0
SECTION
  2
HEADER
  9
$ACADVER
  1
AC1009
  9
$INSBASE
 10
0.0
 20
0.0
 30
0.0
  9
$EXTMIN
 10
31.999999999999979
 20
32.0
 30
0.0
  9
$EXTMAX
 10
223.0
 20
154.03646031670499
 30
0.0
  9
$LIMMIN
 10
0.0
 20
0.0
  9
$LIMMAX
 10
420.0
 20
297.0
  9
$ORTHOMODE
 70
     1
  9
$REGENMODE
 70
     1
  9
$FILLMODE
 70
     1
  9
$QTEXTMODE
 70
     0
  9
$MIRRTEXT
 70
     1
  9
$DRAGMODE
 70
     2
  9
$LTSCALE
 40
0.5
  9
$OSMODE
 70
    37
  9
$ATTMODE
 70
     1
  9
$TEXTSIZE
 40
2.5
  9
$TRACEWID
 40
1.0
  9
$TEXTSTYLE
  7
STANDARD
  9
$CLAYER
  8
0
  9
$CELTYPE
  6
BYLAYER
  9
$CECOLOR
 62
   256
  9
$DIMSCALE
 40
1.0
  9
$DIMASZ
 40
2.5
  9
$DIMEXO
 40
0.625
  9
$DIMDLI
 40
3.75
  9
$DIMRND
 40
0.0
  9
$DIMDLE
 40
0.0
  9
$DIMEXE
 40
1.25
  9
$DIMTP
 40
0.0
  9
$DIMTM
 40
0.0
  9
$DIMTXT
 40
2.5
  9
$DIMCEN
 40
2.5
  9
$DIMTSZ
 40
0.0
  9
$DIMTOL
 70
     0
  9
$DIMLIM
 70
     0
  9
$DIMTIH
 70
     0
  9
$DIMTOH
 70
     0
  9
$DIMSE1
 70
     0
  9
$DIMSE2
 70
     0
  9
$DIMTAD
 70
     1
  9
$DIMZIN
 70
     8
  9
$DIMBLK
  1

  9
$DIMASO
 70
     1
  9
$DIMSHO
 70
     1
  9
$DIMPOST
  1

  9
$DIMAPOST
  1

  9
$DIMALT
 70
     0
  9
$DIMALTD
 70
     4
  9
$DIMALTF
 40
0.0394
  9
$DIMLFAC
 40
1.0
  9
$DIMTOFL
 70
     1
  9
$DIMTVP
 40
0.0
  9
$DIMTIX
 70
     0
  9
$DIMSOXD
 70
     0
  9
$DIMSAH
 70
     0
  9
$DIMBLK1
  1

  9
$DIMBLK2
  1

  9
$DIMSTYLE
  2
STANDARD
  9
$DIMCLRD
 70
     0
  9
$DIMCLRE
 70
     0
  9
$DIMCLRT
 70
     0
  9
$DIMTFAC
 40
1.0
  9
$DIMGAP
 40
0.625
  9
$LUNITS
 70
     2
  9
$LUPREC
 70
     4
  9
$SKETCHINC
 40
1.0
  9
$FILLETRAD
 40
10.0
  9
$AUNITS
 70
     0
  9
$AUPREC
 70
     0
  9
$MENU
  1
acad
  9
$ELEVATION
 40
0.0
  9
$PELEVATION
 40
0.0
  9
$THICKNESS
 40
0.0
  9
$LIMCHECK
 70
     0
  9
$BLIPMODE
 70
     0
  9
$CHAMFERA
 40
0.5
  9
$CHAMFERB
 40
0.5
  9
$SKPOLY
 70
     0
  9
$TDCREATE
 40
2450995.4841753361
  9
$TDUPDATE
 40
2452943.4979207399
  9
$TDINDWG
 40
0.2014928704
  9
$TDUSRTIMER
 40
0.2014928704
  9
$USRTIMER
 70
     1
  9
$ANGBASE
 50
0.0
  9
$ANGDIR
 70
     0
  9
$PDMODE
 70
     0
  9
$PDSIZE
 40
0.0
  9
$PLINEWID
 40
0.0
  9
$COORDS
 70
     1
  9
$SPLFRAME
 70
     0
  9
$SPLINETYPE
 70
     6
  9
$SPLINESEGS
 70
     8
  9
$ATTDIA
 70
     0
  9
$ATTREQ
 70
     1
  9
$HANDLING
 70
-16383
  9
$HANDSEED
  5
3A6
  9
$SURFTAB1
 70
     6
  9
$SURFTAB2
 70
     6
  9
$SURFTYPE
 70
     6
  9
$SURFU
 70
     6
  9
$SURFV
 70
     6
  9
$UCSNAME
  2

  9
$UCSORG
 10
0.0
 20
0.0
 30
0.0
  9
$UCSXDIR
 10
1.0
 20
0.0
 30
0.0
  9
$UCSYDIR
 10
0.0
 20
1.0
 30
0.0
  9
$PUCSNAME
  2

  9
$PUCSORG
 10
0.0
 20
0.0
 30
0.0
  9
$PUCSXDIR
 10
1.0
 20
0.0
 30
0.0
  9
$PUCSYDIR
 10
0.0
 20
1.0
 30
0.0
  9
$USERI1
 70
     0
  9
$USERI2
 70
     0
  9
$USERI3
 70
     0
  9
$USERI4
 70
     0
  9
$USERI5
 70
     0
  9
$USERR1
 40
0.0
  9
$USERR2
 40
0.0
  9
$USERR3
 40
0.0
  9
$USERR4
 40
0.0
  9
$USERR5
 40
0.0
  9
$WORLDVIEW
 70
     1
  9
$SHADEDGE
 70
     3
  9
$SHADEDIF
 70
    70
  9
$TILEMODE
 70
     1
  9
$MAXACTVP
 70
    48
  9
$PLIMCHECK
 70
     0
  9
$PEXTMIN
 10
1.0000000000000000E+020
 20
1.0000000000000000E+020
 30
1.0000000000000000E+020
  9
$PEXTMAX
 10
-1.0000000000000000E+020
 20
-1.0000000000000000E+020
 30
-1.0000000000000000E+020
  9
$PLIMMIN
 10
0.0
 20
0.0
  9
$PLIMMAX
 10
420.0
 20
297.0
  9
$UNITMODE
 70
     0
  9
$VISRETAIN
 70
     1
  9
$PLINEGEN
 70
     0
  9
$PSLTSCALE
 70
     1
  0
ENDSEC
  0
SECTION
  2
TABLES
  0
TABLE
  2
VPORT
 70
     2
  0
VPORT
  2
*ACTIVE
 70
     0
 10
0.0
 20
0.0
 11
1.0
 21
1.0
 12
141.4292992890006
 22
93.018700272914373
 13
0.0
 23
0.0
 14
0.5
 24
0.5
 15
10.0
 25
10.0
 16
0.0
 26
0.0
 36
1.0
 17
0.0
 27
0.0
 37
0.0
 40
125.7647859125389
 41
1.7476979742173111
 42
50.0
 43
0.0
 44
0.0
 50
0.0
 51
0.0
 71
     0
 72
   100
 73
     1
 74
     1
 75
     0
 76
     0
 77
     0
 78
     0
  0
ENDTAB
  0
TABLE
  2
LTYPE
 70
     2
  0
LTYPE
  2
CONTINUOUS
 70
     0
  3
Solid line
 72
    65
 73
     0
 40
0.0
  0
LTYPE
  2
CENTER2
 70
     0
  3
Center (.5x) ___ _ ___ _ ___ _ ___ _ ___ _ ___
 72
    65
 73
     4
 40
28.574999999999989
 49
19.050000000000001
 49
-3.1749999999999989
 49
3.1749999999999989
 49
-3.1749999999999989
  0
ENDTAB
  0
TABLE
  2
LAYER
 70
     1
  0
LAYER
  2
0
 70
     0
 62
     7
  6
CONTINUOUS
  0
ENDTAB
  0
TABLE
  2
STYLE
 70
     2
  0
STYLE
  2
STANDARD
 70
     0
 40
0.0
 41
1.0
 50
0.0
 71
     0
 42
2.5
  3
txt
  4

  0
STYLE
  2

 70
     1
 40
0.0
 41
1.0
 50
0.0
 71
     0
 42
2.5
  3
ltypeshp.shx
  4

  0
ENDTAB
  0
TABLE
  2
VIEW
 70
     0
  0
ENDTAB
  0
TABLE
  2
UCS
 70
     0
  0
ENDTAB
  0
TABLE
  2
APPID
 70
     3
  0
APPID
  2
ACAD
 70
     0
  0
APPID
  2
CONTENTTABDATA
 70
     0
  0
APPID
  2
CONTENTCURRENTTAB
 70
     0
  0
ENDTAB
  0
TABLE
  2
DIMSTYLE
 70
     1
  0
DIMSTYLE
  2
STANDARD
 70
     0
  3

  4

  5

  6

  7

 40
1.0
 41
0.18
 42
0.0625
 43
0.38
 44
0.18
 45
0.0
 46
0.0
 47
0.0
 48
0.0
140
0.18
141
0.09
142
0.0
143
25.399999999999999
144
1.0
145
0.0
146
1.0
147
0.09
 71
     0
 72
     0
 73
     1
 74
     1
 75
     0
 76
     0
 77
     0
 78
     0
170
     0
171
     2
172
     0
173
     0
174
     0
175
     0
176
     0
177
     0
178
     0
  0
ENDTAB
  0
ENDSEC
  0
SECTION
  2
BLOCKS
  0
BLOCK
  8
0
  2
$MODEL_SPACE
 70
     0
 10
0.0
 20
0.0
 30
0.0
  3
$MODEL_SPACE
  1

  0
ENDBLK
  5
288
  8
0
  0
BLOCK
 67
     1
  8
0
  2
$PAPER_SPACE
 70
     0
 10
0.0
 20
0.0
 30
0.0
  3
$PAPER_SPACE
  1

  0
ENDBLK
  5
286
 67
     1
  8
0
  0
BLOCK
  8
0
  2
*X1
 70
     1
 10
0.0
 20
0.0
 30
0.0
  3
*X1
  1

  0
LINE
  5
20C
  8
0
 62
     0
 10
187.50129674580771
 20
113.0190852584749
 30
0.0
 11
186.42672323574439
 21
114.09365876853811
 31
0.0
  0
LINE
  5
20D
  8
0
 62
     0
 10
194.99999999999989
 20
101.10096462186669
 30
0.0
 11
184.48750919467091
 21
111.6134554271957
 31
0.0
  0
LINE
  5
20E
  8
0
 62
     0
 10
191.68154723945079
 20
100.0
 30
0.0
 11
182.21968710553469
 21
109.4618601339161
 31
0.0
  0
LINE
  5
20F
  8
0
 62
     0
 10
187.26212985703489
 20
99.999999999999986
 30
0.0
 11
179.61931377748419
 21
107.6428160795506
 31
0.0
  0
LINE
  5
210
  8
0
 62
     0
 10
182.84271247461899
 20
99.999999999999986
 30
0.0
 11
176.6581249293728
 21
106.184587545246
 31
0.0
  0
LINE
  5
211
  8
0
 62
     0
 10
178.42329509220301
 20
99.999999999999986
 30
0.0
 11
173.27171943944191
 21
105.151575652761
 31
0.0
  0
LINE
  5
212
  8
0
 62
     0
 10
174.0038777097871
 20
99.999999999999986
 30
0.0
 11
170.30578582649801
 21
103.698091883289
 31
0.0
  0
LINE
  5
213
  8
0
 62
     0
 10
192.80776503073429
 20
100.0
 30
0.0
 11
195.0
 21
102.1922349692656
 31
0.0
  0
LINE
  5
214
  8
0
 62
     0
 10
188.38834764831839
 20
100.0
 30
0.0
 11
193.51903648243339
 21
105.13068883411501
 31
0.0
  0
LINE
  5
215
  8
0
 62
     0
 10
183.96893026590249
 20
100.0
 30
0.0
 11
190.4703829747323
 21
106.5014527088298
 31
0.0
  0
LINE
  5
216
  8
0
 62
     0
 10
179.54951288348661
 20
99.999999999999986
 30
0.0
 11
188.41851942767681
 21
108.8690065441902
 31
0.0
  0
LINE
  5
217
  8
0
 62
     0
 10
175.1300955010706
 20
100.0
 30
0.0
 11
187.4847570410505
 21
112.3546615399798
 31
0.0
  0
LINE
  5
218
  8
0
 62
     0
 10
171.1236537088908
 20
100.4129755902361
 30
0.0
 11
177.06072557702441
 21
106.3500474583696
 31
0.0
  0
ENDBLK
  5
21A
  8
0
  0
BLOCK
  8
0
  2
*X2
 70
     1
 10
0.0
 20
0.0
 30
0.0
  3
*X2
  1

  0
LINE
  5
21C
  8
0
 62
     0
 10
48.580170969037447
 20
110.5188547979357
 30
0.0
 11
46.859922251380247
 21
112.2391035155929
 31
0.0
  0
LINE
  5
21D
  8
0
 62
     0
 10
55.0
 20
104.0990257669732
 30
0.0
 11
52.64385479793571
 21
106.4551709690374
 31
0.0
  0
LINE
  5
21E
  8
0
 62
     0
 10
54.679608384557262
 20
100.0
 30
0.0
 11
45.757404639337182
 21
108.92220374522
 31
0.0
  0
LINE
  5
21F
  8
0
 62
     0
 10
50.260191002141347
 20
100.0
 30
0.0
 11
43.941807644942003
 21
106.31838335719929
 31
0.0
  0
LINE
  5
220
  8
0
 62
     0
 10
45.840773619725432
 20
100.0
 30
0.0
 11
41.203332666833603
 21
104.63744095289179
 31
0.0
  0
LINE
  5
221
  8
0
 62
     0
 10
51.386408793424863
 20
100.0
 30
0.0
 11
55.0
 21
103.61359120657509
 31
0.0
  0
LINE
  5
222
  8
0
 62
     0
 10
46.966991411008962
 20
100.0
 30
0.0
 11
53.235115595667502
 21
106.2681241846585
 31
0.0
  0
LINE
  5
223
  8
0
 62
     0
 10
42.547574028593033
 20
100.0
 30
0.0
 11
50.380327451477811
 21
107.83275342288469
 31
0.0
  0
LINE
  5
224
  8
0
 62
     0
 10
40.064394818249191
 20
101.936238172072
 30
0.0
 11
48.598270100711829
 21
110.4701134545347
 31
0.0
  0
LINE
  5
225
  8
0
 62
     0
 10
46.990626533499558
 20
113.28188726973831
 30
0.0
 11
48.409758949122278
 21
114.701019685361
 31
0.0
  0
ENDBLK
  5
227
  8
0
  0
BLOCK
  8
0
  2
*X4
 70
     1
 10
0.0
 20
0.0
 30
0.0
  3
*X4
  1

  0
LINE
  5
239
  8
0
 62
     0
 10
113.3919732541036
 20
111.1144297726251
 30
0.0
 11
111.7459870426553
 21
112.7604159840734
 31
0.0
  0
LINE
  5
23A
  8
0
 62
     0
 10
120.0
 20
104.5064030267288
 30
0.0
 11
118.2394297726251
 21
106.2669732541036
 31
0.0
  0
LINE
  5
23B
  8
0
 62
     0
 10
120.0
 20
100.0162749661942
 30
0.0
 11
110.4165035223337
 21
109.5997714438605
 31
0.0
  0
LINE
  5
23C
  8
0
 62
     0
 10
115.5261469056596
 20
100.0
 30
0.0
 11
108.2956362335006
 21
107.230510672159
 31
0.0
  0
LINE
  5
23D
  8
0
 62
     0
 10
111.036018845125
 20
100.0
 30
0.0
 11
105.4295406122296
 21
105.6064782328954
 31
0.0
  0
LINE
  5
23E
  8
0
 62
     0
 10
106.5458907845905
 20
100.0
 30
0.0
 11
101.6831166529244
 21
104.862774131666
 31
0.0
  0
LINE
  5
23F
  8
0
 62
     0
 10
102.00658801661621
 20
100.0491747074396
 30
0.0
 11
100.0491747074396
 21
102.00658801661621
 31
0.0
  0
LINE
  5
240
  8
0
 62
     0
 10
117.96051224213829
 20
100.0
 30
0.0
 11
120.0
 21
102.03948775786171
 31
0.0
  0
LINE
  5
241
  8
0
 62
     0
 10
113.47038418160371
 20
100.0
 30
0.0
 11
119.52346787229141
 21
106.0530836906876
 31
0.0
  0
LINE
  5
242
  8
0
 62
     0
 10
108.9802561210691
 20
100.0
 30
0.0
 11
116.18185955782511
 21
107.2016034367559
 31
0.0
  0
LINE
  5
243
  8
0
 62
     0
 10
104.4901280605345
 20
100.0
 30
0.0
 11
114.0299115646672
 21
109.5397835041326
 31
0.0
  0
LINE
  5
244
  8
0
 62
     0
 10
111.283882181415
 20
111.2838821814149
 30
0.0
 11
113.1677284101179
 21
113.1677284101179
 31
0.0
  0
LINE
  5
245
  8
0
 62
     0
 10
100.7322330470336
 20
100.7322330470336
 30
0.0
 11
105.71611781858491
 21
105.71611781858491
 31
0.0
  0
ENDBLK
  5
247
  8
0
  0
BLOCK
  8
0
  2
*X6
 70
     1
 10
0.0
 20
0.0
 30
0.0
  3
*X6
  1

  0
LINE
  5
360
  8
0
 62
     0
 10
52.0
 20
124.06958851545031
 30
0.0
 11
50.033128198745302
 21
126.036460316705
 31
0.0
  0
LINE
  5
361
  8
0
 62
     0
 10
51.999999999999993
 20
121.9482681718907
 30
0.0
 11
48.499999999999979
 21
125.4482681718906
 31
0.0
  0
LINE
  5
362
  8
0
 62
     0
 10
52.499999999999993
 20
119.326947828331
 30
0.0
 11
48.499999999999972
 21
123.326947828331
 31
0.0
  0
LINE
  5
363
  8
0
 62
     0
 10
48.669167168066373
 20
121.036460316705
 30
0.0
 11
48.499999999999972
 21
121.2056274847714
 31
0.0
  0
LINE
  5
364
  8
0
 62
     0
 10
52.499999999999972
 20
117.2056274847714
 30
0.0
 11
49.999999999999979
 21
119.7056274847714
 31
0.0
  0
LINE
  5
365
  8
0
 62
     0
 10
51.499999999999979
 20
116.0843071412117
 30
0.0
 11
50.0
 21
117.5843071412117
 31
0.0
  0
LINE
  5
366
  8
0
 62
     0
 10
51.499999999999979
 20
113.96298679765211
 30
0.0
 11
49.485520852679599
 21
115.97746594497249
 31
0.0
  0
LINE
  5
367
  8
0
 62
     0
 10
55.0
 20
110.46298679765211
 30
0.0
 11
52.926526480947089
 21
112.536460316705
 31
0.0
  0
LINE
  5
368
  8
0
 62
     0
 10
55.0
 20
108.3416664540924
 30
0.0
 11
48.812868833740652
 21
114.5287976203518
 31
0.0
  0
LINE
  5
369
  8
0
 62
     0
 10
55.000000000000007
 20
106.2203461105328
 30
0.0
 11
48.502530473500528
 21
112.7178156370323
 31
0.0
  0
LINE
  5
36A
  8
0
 62
     0
 10
52.605405680076508
 20
106.4936200868966
 30
0.0
 11
48.957159770191609
 21
110.1418659967815
 31
0.0
  0
LINE
  5
36B
  8
0
 62
     0
 10
53.244890375090641
 20
106.2778989640816
 30
0.0
 11
55.0
 21
108.033008588991
 31
0.0
  0
LINE
  5
36C
  8
0
 62
     0
 10
51.751880798748573
 20
106.9062097312992
 30
0.0
 11
55.0
 21
110.1543289325507
 31
0.0
  0
LINE
  5
36D
  8
0
 62
     0
 10
50.536061780406293
 20
107.8117110565166
 30
0.0
 11
55.0
 21
112.2756492761103
 31
0.0
  0
LINE
  5
36E
  8
0
 62
     0
 10
49.568675888556328
 20
108.9656455082263
 30
0.0
 11
53.139490697035058
 21
112.536460316705
 31
0.0
  0
LINE
  5
36F
  8
0
 62
     0
 10
48.866470281950278
 20
110.3847602451799
 30
0.0
 11
51.499999999999979
 21
113.01828996322961
 31
0.0
  0
LINE
  5
370
  8
0
 62
     0
 10
48.511436490337289
 20
112.1510467971265
 30
0.0
 11
51.499999999999979
 21
115.13961030678919
 31
0.0
  0
LINE
  5
371
  8
0
 62
     0
 10
48.834834748456927
 20
114.5957653988058
 30
0.0
 11
52.499999999999993
 21
118.2609306503488
 31
0.0
  0
LINE
  5
372
  8
0
 62
     0
 10
50.0
 20
117.8822509939085
 30
0.0
 11
52.5
 21
120.3822509939085
 31
0.0
  0
LINE
  5
373
  8
0
 62
     0
 10
49.999999999999993
 20
120.0035713374681
 30
0.0
 11
51.999999999999993
 21
122.0035713374681
 31
0.0
  0
LINE
  5
374
  8
0
 62
     0
 10
48.91156863567722
 20
121.036460316705
 30
0.0
 11
51.999999999999979
 21
124.1248916810278
 31
0.0
  0
LINE
  5
375
  8
0
 62
     0
 10
48.499999999999972
 20
122.74621202458739
 30
0.0
 11
51.79024829211756
 21
126.036460316705
 31
0.0
  0
LINE
  5
376
  8
0
 62
     0
 10
48.499999999999979
 20
124.867532368147
 30
0.0
 11
49.668927948557943
 21
126.036460316705
 31
0.0
  0
ENDBLK
  5
378
  8
0
  0
BLOCK
  8
0
  2
*X7
 70
     1
 10
0.0
 20
0.0
 30
0.0
  3
*X7
  1

  0
LINE
  5
37A
  8
0
 62
     0
 10
116.9999999999999
 20
123.4163056034261
 30
0.0
 11
114.37984528672111
 21
126.036460316705
 31
0.0
  0
LINE
  5
37B
  8
0
 62
     0
 10
117.4999999999999
 20
120.0878784786799
 30
0.0
 11
113.4999999999999
 21
124.0878784786799
 31
0.0
  0
LINE
  5
37C
  8
0
 62
     0
 10
113.7229910372287
 20
121.036460316705
 30
0.0
 11
113.4999999999999
 21
121.2594513539338
 31
0.0
  0
LINE
  5
37D
  8
0
 62
     0
 10
117.5
 20
117.2594513539337
 30
0.0
 11
114.9999999999999
 21
119.7594513539337
 31
0.0
  0
LINE
  5
37E
  8
0
 62
     0
 10
116.5
 20
115.4310242291875
 30
0.0
 11
114.9999999999999
 21
116.9310242291875
 31
0.0
  0
LINE
  5
37F
  8
0
 62
     0
 10
119.9999999999999
 20
111.9310242291875
 30
0.0
 11
119.3945639124825
 21
112.536460316705
 31
0.0
  0
LINE
  5
380
  8
0
 62
     0
 10
116.4999999999999
 20
112.6025971044414
 30
0.0
 11
114.0196019802716
 21
115.0829951241697
 31
0.0
  0
LINE
  5
381
  8
0
 62
     0
 10
119.9999999999999
 20
109.1025971044414
 30
0.0
 11
116.5661367877363
 21
112.536460316705
 31
0.0
  0
LINE
  5
382
  8
0
 62
     0
 10
119.9999999999999
 20
106.2741699796952
 30
0.0
 11
113.5041958690223
 21
112.76997411067281
 31
0.0
  0
LINE
  5
383
  8
0
 62
     0
 10
116.1363406219389
 20
107.30940223301
 30
0.0
 11
114.772941916305
 21
108.6728009386439
 31
0.0
  0
LINE
  5
384
  8
0
 62
     0
 10
117.751470862885
 20
106.43776236390021
 30
0.0
 11
120.0
 21
108.68629150101521
 31
0.0
  0
LINE
  5
385
  8
0
 62
     0
 10
115.9431568680814
 20
107.45787549384291
 30
0.0
 11
120.0
 21
111.5147186257614
 31
0.0
  0
LINE
  5
386
  8
0
 62
     0
 10
114.5901096093442
 20
108.9332553598518
 30
0.0
 11
118.1933145661974
 21
112.536460316705
 31
0.0
  0
LINE
  5
387
  8
0
 62
     0
 10
113.7133212871899
 20
110.8848941624437
 30
0.0
 11
116.4999999999999
 21
113.6715728752537
 31
0.0
  0
LINE
  5
388
  8
0
 62
     0
 10
116.6897722481641
 20
116.689772248164
 30
0.0
 11
117.4999999999999
 21
117.4999999999999
 31
0.0
  0
LINE
  5
389
  8
0
 62
     0
 10
113.5851547123446
 20
113.5851547123446
 30
0.0
 11
116.5
 21
116.4999999999999
 31
0.0
  0
LINE
  5
38A
  8
0
 62
     0
 10
114.9999999999999
 20
117.8284271247461
 30
0.0
 11
117.4999999999999
 21
120.3284271247461
 31
0.0
  0
LINE
  5
38B
  8
0
 62
     0
 10
114.9999999999999
 20
120.6568542494923
 30
0.0
 11
117.0
 21
122.6568542494923
 31
0.0
  0
LINE
  5
38C
  8
0
 62
     0
 10
113.4999999999999
 20
121.9852813742385
 30
0.0
 11
116.9999999999999
 21
125.4852813742385
 31
0.0
  0
LINE
  5
38D
  8
0
 62
     0
 10
113.5
 20
124.8137084989847
 30
0.0
 11
114.72275181772019
 21
126.036460316705
 31
0.0
  0
ENDBLK
  5
38F
  8
0
  0
BLOCK
  8
0
  2
*X8
 70
     1
 10
0.0
 20
0.0
 30
0.0
  3
*X8
  1

  0
LINE
  5
391
  8
0
 62
     0
 10
190.0
 20
123.95541084682711
 30
0.0
 11
188.49999999999989
 21
125.45541084682711
 31
0.0
  0
LINE
  5
392
  8
0
 62
     0
 10
190.0
 20
121.12698372208089
 30
0.0
 11
186.5
 21
124.62698372208079
 31
0.0
  0
LINE
  5
393
  8
0
 62
     0
 10
188.29855659733471
 20
120.0
 30
0.0
 11
186.5
 21
121.7985565973347
 31
0.0
  0
LINE
  5
394
  8
0
 62
     0
 10
190.0
 20
118.2985565973347
 30
0.0
 11
189.0
 21
119.2985565973347
 31
0.0
  0
LINE
  5
395
  8
0
 62
     0
 10
190.0
 20
115.4701294725885
 30
0.0
 11
189.0
 21
116.4701294725885
 31
0.0
  0
LINE
  5
396
  8
0
 62
     0
 10
194.99999999999989
 20
110.4701294725885
 30
0.0
 11
194.4701294725885
 21
111.0
 31
0.0
  0
LINE
  5
397
  8
0
 62
     0
 10
190.0
 20
112.6417023478423
 30
0.0
 11
188.37660653688781
 21
114.26509581095441
 31
0.0
  0
LINE
  5
398
  8
0
 62
     0
 10
194.99999999999989
 20
107.6417023478423
 30
0.0
 11
191.64170234784231
 21
111.0
 31
0.0
  0
LINE
  5
399
  8
0
 62
     0
 10
194.81071556971219
 20
105.0025596533839
 30
0.0
 11
188.00255965338391
 21
111.8107155697122
 31
0.0
  0
LINE
  5
39A
  8
0
 62
     0
 10
192.97925642835219
 20
105.2980155612203
 30
0.0
 11
194.99999999999989
 21
107.3187591328681
 31
0.0
  0
LINE
  5
39B
  8
0
 62
     0
 10
191.06412651018869
 20
106.21131276780289
 30
0.0
 11
195.0
 21
110.14718625761419
 31
0.0
  0
LINE
  5
39C
  8
0
 62
     0
 10
189.58654161264391
 20
107.56215499500431
 30
0.0
 11
193.02438661763949
 21
111.0
 31
0.0
  0
LINE
  5
39D
  8
0
 62
     0
 10
188.52826214520769
 20
109.3323026523143
 30
0.0
 11
190.3479797464467
 21
111.1520202535533
 31
0.0
  0
LINE
  5
39E
  8
0
 62
     0
 10
188.00917868639351
 20
111.6416463182464
 30
0.0
 11
190.0
 21
113.6324676318528
 31
0.0
  0
LINE
  5
39F
  8
0
 62
     0
 10
188.81254623834471
 20
115.2734409949438
 30
0.0
 11
190.0
 21
116.460894756599
 31
0.0
  0
LINE
  5
3A0
  8
0
 62
     0
 10
189.0
 20
118.2893218813452
 30
0.0
 11
190.0
 21
119.2893218813452
 31
0.0
  0
LINE
  5
3A1
  8
0
 62
     0
 10
187.88225099390851
 20
120.0
 30
0.0
 11
190.0
 21
122.1177490060914
 31
0.0
  0
LINE
  5
3A2
  8
0
 62
     0
 10
186.5
 20
121.4461761308376
 30
0.0
 11
190.0
 21
124.9461761308375
 31
0.0
  0
LINE
  5
3A3
  8
0
 62
     0
 10
186.5
 20
124.2746032555837
 30
0.0
 11
187.2253967444162
 21
125.0
 31
0.0
  0
ENDBLK
  5
3A5
  8
0
  0
ENDSEC
  0
SECTION
  2
ENTITIES
  0
LINE
  5
3C
  8
0
 10
102.4999999999999
 20
100.0
 30
0.0
 11
137.5
 21
100.0
 31
0.0
  0
LINE
  5
3E
  8
0
 10
137.5
 20
105.0
 30
0.0
 11
120.0
 21
105.0
 31
0.0
  0
LINE
  5
41
  8
0
 10
112.0
 20
115.0
 30
0.0
 11
113.9849378865358
 21
115.0
 31
0.0
  0
ARC
  5
44
  8
0
 10
138.0
 20
115.0
 30
0.0
 40
10.0
 50
180.0
 51
270.0
  0
ARC
  5
45
  8
0
 10
102.0
 20
115.0
 30
0.0
 40
10.0
 50
270.0
 51
0.0
  0
ARC
  5
46
  8
0
 10
102.4999999999999
 20
102.4999999999999
 30
0.0
 40
2.5
 50
104.4915452353307
 51
270.0
  0
ARC
  5
47
  8
0
 10
137.5
 20
102.4999999999999
 30
0.0
 40
2.5
 50
270.0
 51
90.0
  0
ARC
  5
52
  8
0
 10
120.0
 20
112.8749999999999
 30
0.0
 40
6.8385396832949654
 50
161.89623696549339
 51
270.0
  0
ARC
  5
53
  8
0
 10
119.9999999999999
 20
112.536460316705
 30
0.0
 40
6.5
 50
140.28486276817381
 51
270.00000000000011
1001
ACAD
1000
ASC_BOUNDS
1002
{
1070
    19
1005
2DF
1002
}
  0
LINE
  5
55
  8
0
 10
125.9999999999999
 20
126.036460316705
 30
0.0
 11
125.9999999999999
 21
125.536460316705
 31
0.0
  0
LINE
  5
56
  8
0
 10
113.9999999999999
 20
126.036460316705
 30
0.0
 11
113.9999999999999
 21
125.536460316705
 31
0.0
1001
ACAD
1000
ASC_BOUNDS
1002
{
1070
    19
1005
2DF
1002
}
  0
LINE
  5
57
  8
0
 10
113.4999999999999
 20
125.536460316705
 30
0.0
 11
113.9999999999999
 21
125.536460316705
 31
0.0
1001
ACAD
1000
ASC_BOUNDS
1002
{
1070
    19
1005
2DF
1002
}
  0
LINE
  5
58
  8
0
 10
126.4999999999999
 20
121.036460316705
 30
0.0
 11
126.4999999999999
 21
125.536460316705
 31
0.0
  0
LINE
  5
59
  8
0
 10
113.4999999999999
 20
125.536460316705
 30
0.0
 11
113.4999999999999
 21
121.036460316705
 31
0.0
1001
ACAD
1000
ASC_BOUNDS
1002
{
1070
    19
1005
2DF
1002
}
  0
LINE
  5
5B
  8
0
 10
113.9999999999999
 20
126.036460316705
 30
0.0
 11
116.9999999999999
 21
126.036460316705
 31
0.0
1001
ACAD
1000
ASC_BOUNDS
1002
{
1070
    19
1005
2DF
1002
}
  0
LINE
  5
5C
  8
0
 10
126.4999999999999
 20
121.036460316705
 30
0.0
 11
117.4999999999999
 21
121.036460316705
 31
0.0
  0
LINE
  5
5D
  8
0
 10
124.9999999999999
 20
121.036460316705
 30
0.0
 11
124.9999999999999
 21
116.689772248164
 31
0.0
  0
LINE
  5
5E
  8
0
 10
114.9999999999999
 20
116.689772248164
 30
0.0
 11
114.9999999999999
 21
121.036460316705
 31
0.0
1001
ACAD
1000
ASC_BOUNDS
1002
{
1070
    19
1005
2DF
1002
}
  0
LINE
  5
61
  8
0
 10
122.9999999999999
 20
126.036460316705
 30
0.0
 11
122.9999999999999
 21
150.53646031670499
 31
0.0
  0
LINE
  5
62
  8
0
 10
122.4999999999999
 20
151.03646031670499
 30
0.0
 11
117.4999999999999
 21
151.03646031670499
 31
0.0
  0
LINE
  5
63
  8
0
 10
116.9999999999999
 20
150.53646031670499
 30
0.0
 11
116.9999999999999
 21
121.536460316705
 31
0.0
1001
ACAD
1000
ASC_BOUNDS
1002
{
1070
    19
1005
2DF
1002
}
  0
LINE
  5
64
  8
0
 10
122.4999999999999
 20
126.036460316705
 30
0.0
 11
122.4999999999999
 21
151.03646031670499
 31
0.0
  0
LINE
  5
65
  8
0
 10
117.4999999999999
 20
121.036460316705
 30
0.0
 11
117.4999999999999
 21
151.03646031670499
 31
0.0
  0
LINE
  5
66
  8
0
 10
122.9999999999999
 20
150.53646031670499
 30
0.0
 11
122.4999999999999
 21
151.03646031670499
 31
0.0
  0
LINE
  5
67
  8
0
 10
116.9999999999999
 20
150.53646031670499
 30
0.0
 11
117.4999999999999
 21
151.03646031670499
 31
0.0
  0
LINE
  5
68
  8
0
 10
116.9999999999999
 20
150.53646031670499
 30
0.0
 11
122.9999999999999
 21
150.53646031670499
 31
0.0
  0
LINE
  5
6A
  8
0
 10
124.9999999999999
 20
116.689772248164
 30
0.0
 11
116.4999999999999
 21
116.689772248164
 31
0.0
1001
ACAD
1000
ASC_BOUNDS
1002
{
1070
    19
1005
2DF
1002
}
  0
LINE
  5
6B
  8
0
 10
120.0
 20
126.036460316705
 30
0.0
 11
125.9999999999999
 21
126.036460316705
 31
0.0
  0
LINE
  5
6C
  8
0
 10
114.9999999999999
 20
121.036460316705
 30
0.0
 11
113.4999999999999
 21
121.036460316705
 31
0.0
1001
ACAD
1000
ASC_BOUNDS
1002
{
1070
    19
1005
2DF
1002
}
  0
LINE
  5
6D
  8
0
 10
120.0
 20
125.536460316705
 30
0.0
 11
126.4999999999999
 21
125.536460316705
 31
0.0
  0
LINE
  5
6F
  8
0
 10
117.4999999999999
 20
121.036460316705
 30
0.0
 11
116.9999999999999
 21
121.536460316705
 31
0.0
1001
ACAD
1000
ASC_BOUNDS
1002
{
1070
    19
1005
2DF
1002
}
  0
LINE
  5
70
  8
0
 10
116.9999999999999
 20
121.536460316705
 30
0.0
 11
119.9999999999999
 21
121.536460316705
 31
0.0
  0
LINE
  5
71
  8
0
 10
117.4999999999999
 20
121.036460316705
 30
0.0
 11
117.4999999999999
 21
116.689772248164
 31
0.0
1001
ACAD
1000
ASC_BOUNDS
1002
{
1070
    19
1005
2DF
1002
}
  0
LINE
  5
72
  8
0
 10
116.9999999999999
 20
116.689772248164
 30
0.0
 11
116.9999999999999
 21
112.536460316705
 31
0.0
  0
LINE
  5
73
  8
0
 10
116.4999999999999
 20
112.536460316705
 30
0.0
 11
119.9999999999999
 21
112.536460316705
 31
0.0
1001
ACAD
1000
ASC_BOUNDS
1002
{
1070
    19
1005
2DF
1002
}
  0
LINE
  5
74
  8
0
 10
116.4999999999999
 20
112.536460316705
 30
0.0
 11
116.4999999999999
 21
116.689772248164
 31
0.0
1001
ACAD
1000
ASC_BOUNDS
1002
{
1070
    19
1005
2DF
1002
}
  0
LINE
  5
8C
  8
0
  6
CENTER2
 10
120.0
 20
97.000000000000014
 30
0.0
 11
120.0
 21
154.03646031670499
 31
0.0
1001
ACAD
1000
ASC_BOUNDS
1002
{
1070
    19
1005
2DF
1002
}
  0
LINE
  5
90
  8
0
 10
101.8744071547673
 20
104.9204614419555
 30
0.0
 11
102.0
 21
105.0
 31
0.0
  0
INSERT
  5
99
  8
0
  6
CONTINUOUS
  2
*X4
 10
0.0
 20
0.0
 30
0.0
1001
ACAD
1000
HATCH
1002
{
1070
    19
1000
ANSI37
1040
1.0
1040
0.0
1000
R14_HATCH_DATA
1000
99
1011
1.0
1021
0.0
1031
0.0
1021
0.0
1031
0.0
1011
0.0
1021
0.0
1031
0.0
1021
1.0
1031
0.0
1011
0.0
1021
0.0
1031
0.0
1021
0.0
1031
1.0
1040
0.0
1010
0.0
1020
0.0
1030
1.0
1000
ANSI37
1070
     0
1070
     1
1071
        1
1071
        7
1070
     1
1070
     1
1071
        7
1040
120.0
1040
100.0
1040
0.0
1040
120.0
1040
106.036460316705
1040
-0.5100958744275101
1040
113.5
1040
115.0
1040
0.0
1040
112.0
1040
115.0
1040
-0.4142135623730951
1040
102.0
1040
105.0
1040
0.0
1040
101.8744071547673
1040
104.9204614419555
1040
0.880908934394697
1040
102.4999999999999
1040
100.0
1040
0.0
1071
        7
1005
52
1005
41
1005
45
1005
90
1005
46
1005
3C
1005
8C
1070
     0
1070
     1
1040
0.0
1040
1.0
1070
     0
1070
     2
1040
0.7853981633974483
1040
0.0
1040
0.0
1040
-2.2450640302672871
1040
2.245064030267288
1070
     0
1040
2.3561944901923439
1040
0.0
1040
0.0
1040
-2.245064030267288
1040
-2.2450640302672871
1070
     0
1040
0.0477398675967722
1071
        1
1040
111.521198703289
1040
104.30203937825451
1040
0.0
1002
}
  0
LINE
  5
9A
  8
0
 10
120.0
 20
115.0
 30
0.0
 11
128.0
 21
115.0
 31
0.0
  0
LINE
  5
A0
  8
0
  6
CENTER2
 10
120.0
 20
83.0
 30
0.0
 11
120.0
 21
37.0
 31
0.0
  0
LINE
  5
A1
  8
0
  6
CENTER2
 10
97.0
 20
60.0
 30
0.0
 11
143.0
 21
60.0
 31
0.0
  0
CIRCLE
  5
A2
  8
0
 10
120.0
 20
60.0
 30
0.0
 40
20.0
  0
CIRCLE
  5
A4
  8
0
 10
120.0
 20
60.0
 30
0.0
 40
8.0
  0
LINE
  5
A5
  8
0
 10
126.5
 20
63.75277674973254
 30
0.0
 11
126.5
 21
56.247223250267439
 31
0.0
  0
LINE
  5
A6
  8
0
 10
119.9999999999999
 20
67.505553499465108
 30
0.0
 11
126.4999999999999
 21
63.75277674973254
 31
0.0
  0
LINE
  5
A7
  8
0
 10
113.5
 20
63.752776749732547
 30
0.0
 11
120.0
 21
67.505553499465108
 31
0.0
  0
LINE
  5
A8
  8
0
 10
113.5
 20
56.247223250267432
 30
0.0
 11
113.5
 21
63.752776749732547
 31
0.0
  0
LINE
  5
A9
  8
0
 10
119.9999999999999
 20
52.49444650053487
 30
0.0
 11
113.5
 21
56.247223250267439
 31
0.0
  0
LINE
  5
AA
  8
0
 10
126.4999999999999
 20
56.247223250267453
 30
0.0
 11
119.9999999999999
 21
52.49444650053487
 31
0.0
  0
CIRCLE
  5
AD
  8
0
 10
120.0
 20
60.0
 30
0.0
 40
5.9999999999999849
  0
CIRCLE
  5
AF
  8
0
 10
120.0
 20
60.0
 30
0.0
 40
2.9999999999999849
  0
ARC
  5
B0
  8
0
 10
120.0
 20
60.0
 30
0.0
 40
2.5
 50
90.0
 51
0.0
  0
ARC
  5
BA
  8
0
 10
119.9999999999999
 20
112.536460316705
 30
0.0
 40
6.5
 50
22.272132104886779
 51
39.715137231826141
  0
LINE
  5
10C
  8
0
 10
42.5
 20
100.0
 30
0.0
 11
67.5
 21
100.0
 31
0.0
  0
LINE
  5
10E
  8
0
 10
67.5
 20
105.0
 30
0.0
 11
55.0
 21
104.9999999999999
 31
0.0
  0
LINE
  5
110
  8
0
 10
47.0
 20
115.0
 30
0.0
 11
48.98493788653591
 21
115.0
 31
0.0
  0
ARC
  5
114
  8
0
 10
42.5
 20
102.4999999999999
 30
0.0
 40
2.5
 50
90.0
 51
270.0
  0
ARC
  5
115
  8
0
 10
67.5
 20
102.4999999999999
 30
0.0
 40
2.5
 50
270.0
 51
90.0
  0
ARC
  5
117
  8
0
 10
35.407414540893349
 20
114.204163456598
 30
0.0
 40
11.61987062881963
 50
307.61728844503568
 51
3.9272209190559151
  0
ARC
  5
118
  8
0
 10
74.592585459106658
 20
114.204163456598
 30
0.0
 40
11.61987062881963
 50
176.07277908094409
 51
232.38271155496429
  0
ARC
  5
119
  8
0
 10
55.0
 20
112.875
 30
0.0
 40
6.8385396832949654
 50
161.89623696549339
 51
270.0
  0
ARC
  5
11A
  8
0
 10
54.999999999999993
 20
112.536460316705
 30
0.0
 40
6.5
 50
140.28486276817381
 51
270.00000000000011
1001
ACAD
1000
ASC_BOUNDS
1002
{
1070
    19
1005
2D0
1002
}
  0
LINE
  5
11C
  8
0
 10
51.499999999999979
 20
112.536460316705
 30
0.0
 11
54.999999999999993
 21
112.536460316705
 31
0.0
1001
ACAD
1000
ASC_BOUNDS
1002
{
1070
    19
1005
2D0
1002
}
  0
LINE
  5
11D
  8
0
 10
51.999999999999993
 20
116.689772248164
 30
0.0
 11
51.999999999999993
 21
112.536460316705
 31
0.0
  0
LINE
  5
11E
  8
0
  6
CENTER2
 10
55.0
 20
96.481769841647505
 30
0.0
 11
55.0
 21
153.5182301583524
 31
0.0
1001
ACAD
1000
ASC_BOUNDS
1002
{
1070
    19
1005
2D0
1002
}
  0
LINE
  5
11F
  8
0
 10
52.499999999999993
 20
121.036460316705
 30
0.0
 11
52.499999999999993
 21
151.03646031670499
 31
0.0
  0
LINE
  5
120
  8
0
 10
57.499999999999993
 20
126.036460316705
 30
0.0
 11
57.499999999999993
 21
151.03646031670499
 31
0.0
  0
LINE
  5
121
  8
0
 10
51.999999999999993
 20
150.53646031670499
 30
0.0
 11
51.999999999999993
 21
121.536460316705
 31
0.0
1001
ACAD
1000
ASC_BOUNDS
1002
{
1070
    19
1005
2D0
1002
}
  0
LINE
  5
122
  8
0
 10
57.999999999999979
 20
126.036460316705
 30
0.0
 11
57.999999999999979
 21
150.53646031670499
 31
0.0
  0
LINE
  5
123
  8
0
 10
48.499999999999979
 20
125.536460316705
 30
0.0
 11
48.499999999999979
 21
121.036460316705
 31
0.0
1001
ACAD
1000
ASC_BOUNDS
1002
{
1070
    19
1005
2D0
1002
}
  0
LINE
  5
124
  8
0
 10
61.499999999999979
 20
121.036460316705
 30
0.0
 11
61.499999999999979
 21
125.536460316705
 31
0.0
  0
LINE
  5
125
  8
0
 10
51.499999999999979
 20
112.536460316705
 30
0.0
 11
51.499999999999979
 21
116.689772248164
 31
0.0
1001
ACAD
1000
ASC_BOUNDS
1002
{
1070
    19
1005
2D0
1002
}
  0
LINE
  5
126
  8
0
 10
59.999999999999993
 20
116.689772248164
 30
0.0
 11
51.499999999999972
 21
116.689772248164
 31
0.0
1001
ACAD
1000
ASC_BOUNDS
1002
{
1070
    19
1005
2D0
1002
}
  0
LINE
  5
127
  8
0
 10
51.999999999999993
 20
121.536460316705
 30
0.0
 11
54.999999999999993
 21
121.536460316705
 31
0.0
  0
LINE
  5
128
  8
0
 10
61.499999999999979
 20
121.036460316705
 30
0.0
 11
52.499999999999993
 21
121.036460316705
 31
0.0
  0
LINE
  5
129
  8
0
 10
49.999999999999993
 20
116.689772248164
 30
0.0
 11
49.999999999999993
 21
121.036460316705
 31
0.0
1001
ACAD
1000
ASC_BOUNDS
1002
{
1070
    19
1005
2D0
1002
}
  0
LINE
  5
12A
  8
0
 10
52.499999999999993
 20
121.036460316705
 30
0.0
 11
52.499999999999993
 21
116.689772248164
 31
0.0
1001
ACAD
1000
ASC_BOUNDS
1002
{
1070
    19
1005
2D0
1002
}
  0
LINE
  5
12B
  8
0
 10
49.999999999999993
 20
121.036460316705
 30
0.0
 11
48.499999999999979
 21
121.036460316705
 31
0.0
1001
ACAD
1000
ASC_BOUNDS
1002
{
1070
    19
1005
2D0
1002
}
  0
LINE
  5
12C
  8
0
 10
52.499999999999993
 20
121.036460316705
 30
0.0
 11
51.999999999999993
 21
121.536460316705
 31
0.0
1001
ACAD
1000
ASC_BOUNDS
1002
{
1070
    19
1005
2D0
1002
}
  0
LINE
  5
12D
  8
0
 10
59.999999999999993
 20
121.036460316705
 30
0.0
 11
59.999999999999993
 21
116.689772248164
 31
0.0
  0
ARC
  5
12E
  8
0
 10
54.999999999999993
 20
112.536460316705
 30
0.0
 40
6.5
 50
22.272132104886779
 51
39.715137231826141
  0
LINE
  5
12F
  8
0
 10
48.999999999999979
 20
126.036460316705
 30
0.0
 11
51.999999999999993
 21
126.036460316705
 31
0.0
1001
ACAD
1000
ASC_BOUNDS
1002
{
1070
    19
1005
2D0
1002
}
  0
LINE
  5
130
  8
0
 10
48.499999999999979
 20
125.536460316705
 30
0.0
 11
48.999999999999979
 21
125.536460316705
 31
0.0
1001
ACAD
1000
ASC_BOUNDS
1002
{
1070
    19
1005
2D0
1002
}
  0
LINE
  5
131
  8
0
 10
48.999999999999979
 20
126.036460316705
 30
0.0
 11
48.999999999999979
 21
125.536460316705
 31
0.0
1001
ACAD
1000
ASC_BOUNDS
1002
{
1070
    19
1005
2D0
1002
}
  0
LINE
  5
132
  8
0
 10
55.0
 20
125.536460316705
 30
0.0
 11
61.499999999999979
 21
125.536460316705
 31
0.0
  0
LINE
  5
133
  8
0
 10
55.0
 20
126.036460316705
 30
0.0
 11
60.999999999999979
 21
126.036460316705
 31
0.0
  0
LINE
  5
134
  8
0
 10
60.999999999999979
 20
126.036460316705
 30
0.0
 11
60.999999999999979
 21
125.536460316705
 31
0.0
  0
LINE
  5
135
  8
0
 10
51.999999999999993
 20
150.53646031670499
 30
0.0
 11
57.999999999999979
 21
150.53646031670499
 31
0.0
  0
LINE
  5
136
  8
0
 10
57.499999999999993
 20
151.03646031670499
 30
0.0
 11
52.499999999999993
 21
151.03646031670499
 31
0.0
  0
LINE
  5
137
  8
0
 10
51.999999999999993
 20
150.53646031670499
 30
0.0
 11
52.499999999999993
 21
151.03646031670499
 31
0.0
  0
LINE
  5
138
  8
0
 10
57.999999999999979
 20
150.53646031670499
 30
0.0
 11
57.499999999999993
 21
151.03646031670499
 31
0.0
  0
LINE
  5
13A
  8
0
 10
55.0
 20
115.0
 30
0.0
 11
63.0
 21
115.0
 31
0.0
  0
INSERT
  5
14C
  8
0
  6
CONTINUOUS
  2
*X2
 10
0.0
 20
0.0
 30
0.0
1001
ACAD
1000
HATCH
1002
{
1070
    19
1000
ANSI37
1040
25.0
1040
0.0
1000
R14_HATCH_DATA
1000
14C
1011
1.0
1021
0.0
1031
0.0
1021
0.0
1031
0.0
1011
0.0
1021
0.0
1031
0.0
1021
1.0
1031
0.0
1011
0.0
1021
0.0
1031
0.0
1021
0.0
1031
1.0
1040
0.0
1010
0.0
1020
0.0
1030
1.0
1000
ANSI37
1070
     0
1070
     1
1071
        1
1071
        7
1070
     1
1070
     1
1071
        6
1040
55.0
1040
100.0
1040
0.0
1040
55.0
1040
106.036460316705
1040
-0.5100958744275096
1040
48.499999999999993
1040
115.0
1040
0.0
1040
47.0
1040
115.0
1040
-0.2507648909333111
1040
42.499999999999993
1040
105.0
1040
1.0
1040
42.5
1040
100.0
1040
0.0
1071
        6
1005
119
1005
110
1005
117
1005
114
1005
10C
1005
11E
1070
     0
1070
     1
1040
0.0
1040
25.0
1070
     0
1070
     2
1040
0.7853981633974483
1040
0.0
1040
0.0
1040
-2.2097086912079602
1040
2.2097086912079611
1070
     0
1040
2.3561944901923439
1040
0.0
1040
0.0
1040
-2.2097086912079611
1040
-2.2097086912079602
1070
     0
1040
0.3423297807738801
1071
        1
1040
48.5
1040
102.0
1040
0.0
1002
}
  0
LINE
  5
14D
  8
0
  6
CENTER2
 10
31.999999999999979
 20
60.0
 30
0.0
 11
77.999999999999986
 21
60.0
 31
0.0
  0
LINE
  5
14E
  8
0
  6
CENTER2
 10
55.0
 20
83.0
 30
0.0
 11
55.0
 21
37.0
 31
0.0
  0
CIRCLE
  5
14F
  8
0
 10
55.0
 20
60.0
 30
0.0
 40
15.0
  0
CIRCLE
  5
150
  8
0
 10
55.0
 20
60.0
 30
0.0
 40
7.5
  0
LINE
  5
151
  8
0
 10
54.999999999999957
 20
52.49444650053487
 30
0.0
 11
48.500000000000007
 21
56.247223250267439
 31
0.0
  0
CIRCLE
  5
152
  8
0
 10
55.0
 20
60.0
 30
0.0
 40
5.9999999999999849
  0
LINE
  5
153
  8
0
 10
48.5
 20
56.247223250267432
 30
0.0
 11
48.500000000000007
 21
63.752776749732547
 31
0.0
  0
LINE
  5
154
  8
0
 10
48.500000000000028
 20
63.752776749732547
 30
0.0
 11
55.0
 21
67.505553499465108
 31
0.0
  0
LINE
  5
155
  8
0
 10
54.999999999999972
 20
67.505553499465108
 30
0.0
 11
61.499999999999979
 21
63.75277674973254
 31
0.0
  0
CIRCLE
  5
156
  8
0
 10
55.0
 20
60.0
 30
0.0
 40
2.9999999999999849
  0
ARC
  5
157
  8
0
 10
55.0
 20
60.0
 30
0.0
 40
2.5
 50
90.0
 51
0.0
  0
LINE
  5
158
  8
0
 10
61.499999999999979
 20
56.247223250267453
 30
0.0
 11
54.999999999999972
 21
52.49444650053487
 31
0.0
  0
LINE
  5
159
  8
0
 10
61.5
 20
63.75277674973254
 30
0.0
 11
61.5
 21
56.247223250267439
 31
0.0
  0
LINE
  5
15A
  8
0
 10
172.5
 20
100.0
 30
0.0
 11
217.5
 21
100.0
 31
0.0
  0
LINE
  5
198
  8
0
 10
195.0
 20
105.0
 30
0.0
 11
217.5
 21
105.0
 31
0.0
  0
ARC
  5
19A
  8
0
 10
172.5
 20
102.4999999999999
 30
0.0
 40
2.5
 50
90.0
 51
270.0
  0
ARC
  5
19C
  8
0
 10
217.5
 20
102.4999999999999
 30
0.0
 40
2.5
 50
270.0
 51
90.0
  0
LINE
  5
19D
  8
0
 10
187.0
 20
115.0
 30
0.0
 11
188.6754446796632
 21
115.0
 31
0.0
  0
ARC
  5
1A0
  8
0
 10
195.0
 20
112.0
 30
0.0
 40
7.0
 50
148.99728086612589
 51
270.0
1001
ACAD
1000
ASC_BOUNDS
1002
{
1070
    19
1005
2EB
1002
}
  0
ARC
  5
1A2
  8
0
 10
195.0
 20
112.5
 30
0.0
 40
7.5166481891864541
 50
160.5736394777592
 51
270.0
  0
LINE
  5
1A4
  8
0
 10
201.0
 20
119.9999999999999
 30
0.0
 11
201.0
 21
115.6055512754639
 31
0.0
  0
LINE
  5
1A5
  8
0
 10
189.0
 20
119.9999999999999
 30
0.0
 11
189.0
 21
115.6055512754639
 31
0.0
1001
ACAD
1000
ASC_BOUNDS
1002
{
1070
    19
1005
2EB
1002
}
  0
LINE
  5
1A6
  8
0
 10
195.0
 20
115.6055512754639
 30
0.0
 11
201.0
 21
115.6055512754639
 31
0.0
  0
LINE
  5
1A7
  8
0
 10
203.5
 20
120.0
 30
0.0
 11
195.0
 21
120.0
 31
0.0
  0
LINE
  5
1A8
  8
0
 10
190.5
 20
151.0
 30
0.0
 11
199.5
 21
151.0
 31
0.0
  0
LINE
  5
1AA
  8
0
 10
200.0
 20
126.00419084100049
 30
0.0
 11
200.0
 21
150.5
 31
0.0
  0
LINE
  5
1AB
  8
0
 10
200.0
 20
150.5
 30
0.0
 11
190.0
 21
150.5
 31
0.0
  0
LINE
  5
1AC
  8
0
 10
190.0
 20
111.4999999999999
 30
0.0
 11
190.0
 21
150.5
 31
0.0
1001
ACAD
1000
ASC_BOUNDS
1002
{
1070
    19
1005
2EB
1002
}
  0
LINE
  5
1AF
  8
0
 10
200.0
 20
150.5
 30
0.0
 11
199.5
 21
151.0
 31
0.0
  0
LINE
  5
1B0
  8
0
 10
190.0
 20
150.5
 30
0.0
 11
190.5
 21
151.0
 31
0.0
  0
LINE
  5
1B1
  8
0
 10
199.5
 20
151.0
 30
0.0
 11
199.5
 21
126.00440038305059
 31
0.0
  0
LINE
  5
1B2
  8
0
 10
190.5
 20
151.0
 30
0.0
 11
190.5
 21
111.0
 31
0.0
  0
LINE
  5
1B3
  8
0
 10
188.49999999999989
 20
126.0090103081512
 30
0.0
 11
189.99999999999989
 21
126.0083816820012
 31
0.0
1001
ACAD
1000
ASC_BOUNDS
1002
{
1070
    19
1005
2EB
1002
}
  0
LINE
  5
1B4
  8
0
 10
201.5
 20
126.0035622148505
 30
0.0
 11
201.5
 21
125.0
 31
0.0
  0
LINE
  5
1B5
  8
0
 10
203.5
 20
125.0
 30
0.0
 11
203.5
 21
120.0
 31
0.0
  0
LINE
  5
1B6
  8
0
 10
186.5
 20
125.0
 30
0.0
 11
186.5
 21
120.0
 31
0.0
1001
ACAD
1000
ASC_BOUNDS
1002
{
1070
    19
1005
2EB
1002
}
  0
LINE
  5
1B7
  8
0
 10
186.5
 20
125.0
 30
0.0
 11
188.49999999999989
 21
125.0
 31
0.0
1001
ACAD
1000
ASC_BOUNDS
1002
{
1070
    19
1005
2EB
1002
}
  0
LINE
  5
1B8
  8
0
 10
188.49999999999989
 20
126.0090103081512
 30
0.0
 11
188.49999999999989
 21
125.0
 31
0.0
1001
ACAD
1000
ASC_BOUNDS
1002
{
1070
    19
1005
2EB
1002
}
  0
LINE
  5
1B9
  8
0
 10
195.0
 20
126.0062862615008
 30
0.0
 11
201.5
 21
126.0035622148505
 31
0.0
  0
LINE
  5
1BA
  8
0
 10
195.0
 20
125.0
 30
0.0
 11
203.5
 21
125.0
 31
0.0
  0
LINE
  5
1BB
  8
0
 10
188.99999999999989
 20
120.0
 30
0.0
 11
186.5
 21
120.0
 31
0.0
1001
ACAD
1000
ASC_BOUNDS
1002
{
1070
    19
1005
2EB
1002
}
  0
LINE
  5
1BC
  8
0
 10
195.0
 20
115.0
 30
0.0
 11
203.0
 21
115.0
 31
0.0
  0
LINE
  5
1BD
  8
0
 10
195.0
 20
111.0
 30
0.0
 11
190.5
 21
111.0
 31
0.0
1001
ACAD
1000
ASC_BOUNDS
1002
{
1070
    19
1005
2EB
1002
}
  0
LINE
  5
1BE
  8
0
 10
190.5
 20
111.0
 30
0.0
 11
190.0
 21
111.4999999999999
 31
0.0
1001
ACAD
1000
ASC_BOUNDS
1002
{
1070
    19
1005
2EB
1002
}
  0
LINE
  5
1BF
  8
0
 10
190.0
 20
111.4999999999999
 30
0.0
 11
195.0
 21
111.4999999999999
 31
0.0
  0
ARC
  5
1C0
  8
0
 10
168.8001889195736
 20
125.87722606661821
 30
0.0
 40
21.202527449988871
 50
280.04948029752239
 51
329.13509707749739
  0
ARC
  5
1C1
  8
0
 10
221.19981108042629
 20
125.87722606661821
 30
0.0
 40
21.202527449988871
 50
210.86490292250249
 51
259.95051970247738
  0
ARC
  5
1C2
  8
0
 10
195.0
 20
112.0
 30
0.0
 40
7.0
 50
25.376933525152261
 51
31.00271913387402
  0
INSERT
  5
1D5
  8
0
  6
CONTINUOUS
  2
*X1
 10
0.0
 20
0.0
 30
0.0
1001
ACAD
1000
HATCH
1002
{
1070
    19
1000
ANSI37
1040
25.0
1040
0.0
1000
R14_HATCH_DATA
1000
1D5
1011
1.0
1021
0.0
1031
0.0
1021
0.0
1031
0.0
1011
0.0
1021
0.0
1031
0.0
1021
1.0
1031
0.0
1011
0.0
1021
0.0
1031
0.0
1021
0.0
1031
1.0
1040
0.0
1010
0.0
1020
0.0
1030
1.0
1000
ANSI37
1070
     0
1070
     0
1071
        1
1071
        7
1070
     1
1070
     1
1071
        6
1040
187.91127656062099
1040
115.0
1040
0.0
1040
187.0
1040
115.0
1040
-0.2175124998528024
1040
172.5
1040
105.0
1040
1.0
1040
172.5
1040
100.0
1040
0.0
1040
195.0
1040
100.0
1040
0.0
1040
195.0
1040
104.9833518108135
1040
-0.5173899280294837
1071
        0
1070
     0
1070
     1
1040
0.0
1040
25.0
1070
     0
1070
     2
1040
0.7853981633974483
1040
0.0
1040
0.0
1040
-2.2097086912079602
1040
2.2097086912079611
1070
     0
1040
2.3561944901923439
1040
0.0
1040
0.0
1040
-2.2097086912079611
1040
-2.2097086912079602
1070
     0
1040
0.3423297807738801
1071
        1
1040
183.0
1040
105.0
1040
0.0
1002
}
  0
LINE
  5
1E4
  8
0
  6
CENTER2
 10
195.0
 20
88.0
 30
0.0
 11
195.0
 21
32.0
 31
0.0
  0
LINE
  5
1E5
  8
0
  6
CENTER2
 10
167.0
 20
60.0
 30
0.0
 11
223.0
 21
60.0
 31
0.0
  0
CIRCLE
  5
1E6
  8
0
 10
195.0
 20
60.0
 30
0.0
 40
25.0
  0
LINE
  5
1E7
  8
0
  6
CENTER2
 10
195.0
 20
97.000000000000014
 30
0.0
 11
195.0
 21
154.03646031670499
 31
0.0
1001
ACAD
1000
ASC_BOUNDS
1002
{
1070
    19
1005
2EB
1002
}
  0
LINE
  5
1EB
  8
0
 10
203.5
 20
55.092522711888208
 30
0.0
 11
203.5
 21
64.907477288111835
 31
0.0
  0
LINE
  5
1EC
  8
0
 10
203.5
 20
64.907477288111821
 30
0.0
 11
195.0
 21
69.81495457622367
 31
0.0
  0
LINE
  5
1ED
  8
0
 10
195.0
 20
69.814954576223656
 30
0.0
 11
186.5
 21
64.907477288111835
 31
0.0
  0
LINE
  5
1EE
  8
0
 10
186.5
 20
64.907477288111849
 30
0.0
 11
186.5
 21
55.09252271188813
 31
0.0
  0
LINE
  5
1EF
  8
0
 10
186.5
 20
55.09252271188813
 30
0.0
 11
194.99999999999989
 21
50.185045423776373
 31
0.0
  0
LINE
  5
1F0
  8
0
 10
194.99999999999989
 20
50.185045423776373
 30
0.0
 11
203.5
 21
55.092522711888201
 31
0.0
  0
CIRCLE
  5
1F1
  8
0
 10
195.0
 20
60.0
 30
0.0
 40
5.0
  0
ARC
  5
1F2
  8
0
 10
195.0
 20
60.0
 30
0.0
 40
4.5
 50
90.0
 51
0.0
  0
CIRCLE
  5
1F4
  8
0
 10
195.0
 20
60.0
 30
0.0
 40
6.5
  0
INSERT
  5
2D0
  8
0
  6
CONTINUOUS
  2
*X6
 10
0.0
 20
0.0
 30
0.0
1001
ACAD
1000
HATCH
1002
{
1070
    19
1000
_USER
1040
1.5
1040
0.7853981633974483
1000
ASC_BOUNDS
1070
     1
1070
     1
1070
    14
1005
121
1005
12C
1005
12A
1005
126
1005
125
1005
11C
1005
11E
1005
11A
1005
129
1005
12B
1005
123
1005
130
1005
131
1005
12F
1000
ASC_SEEDPOINT
1011
51.118545363094711
1021
0.0
1031
0.0
1021
123.1104870313403
1031
0.0
1000
R14_HATCH_DATA
1000
2D0
1011
1.0
1021
0.0
1031
0.0
1021
0.0
1031
0.0
1011
0.0
1021
0.0
1031
0.0
1021
1.0
1031
0.0
1011
0.0
1021
0.0
1031
0.0
1021
0.0
1031
1.0
1040
0.0
1010
0.0
1020
0.0
1030
1.0
1000
_USER
1070
     0
1070
     1
1071
        1
1071
        7
1070
     1
1070
     1
1071
       14
1040
51.999999999999993
1040
126.036460316705
1040
0.0
1040
48.999999999999979
1040
126.036460316705
1040
0.0
1040
48.999999999999979
1040
125.536460316705
1040
0.0
1040
48.499999999999979
1040
125.536460316705
1040
0.0
1040
48.499999999999979
1040
121.036460316705
1040
0.0
1040
49.999999999999993
1040
121.036460316705
1040
0.0
1040
49.999999999999993
1040
116.6897722481641
1040
0.6353242330310283
1040
55.0
1040
106.036460316705
1040
0.0
1040
55.0
1040
112.536460316705
1040
0.0
1040
51.499999999999979
1040
112.536460316705
1040
0.0
1040
51.499999999999993
1040
116.6897722481641
1040
0.0
1040
52.499999999999979
1040
116.689772248164
1040
0.0
1040
52.499999999999993
1040
121.036460316705
1040
0.0
1040
51.999999999999993
1040
121.536460316705
1040
0.0
1071
       14
1005
12F
1005
131
1005
130
1005
123
1005
12B
1005
129
1005
11A
1005
11E
1005
11C
1005
125
1005
126
1005
12A
1005
12C
1005
121
1070
     0
1070
     0
1040
0.7853981633974483
1040
1.5
1070
     1
1070
     2
1040
0.7853981633974483
1040
0.0
1040
0.0
1040
-1.060660171779821
1040
1.060660171779821
1070
     0
1040
2.3561944901923439
1040
0.0
1040
0.0
1040
-1.060660171779821
1040
-1.060660171779821
1070
     0
1040
0.0749063670411985
1071
        1
1040
51.118545363094711
1040
123.1104870313403
1040
0.0
1002
}
  0
INSERT
  5
2DF
  8
0
  6
CONTINUOUS
  2
*X7
 10
0.0
 20
0.0
 30
0.0
1001
ACAD
1000
HATCH
1002
{
1070
    19
1000
_USER
1040
2.0
1040
0.7853981633974483
1000
ASC_BOUNDS
1070
     1
1070
     1
1070
    14
1005
63
1005
6F
1005
71
1005
6A
1005
74
1005
73
1005
8C
1005
53
1005
5E
1005
6C
1005
59
1005
57
1005
56
1005
5B
1000
ASC_SEEDPOINT
1011
115.45731229661909
1021
0.0
1031
0.0
1021
122.4361419656876
1031
0.0
1000
R14_HATCH_DATA
1000
2DF
1011
1.0
1021
0.0
1031
0.0
1021
0.0
1031
0.0
1011
0.0
1021
0.0
1031
0.0
1021
1.0
1031
0.0
1011
0.0
1021
0.0
1031
0.0
1021
0.0
1031
1.0
1040
0.0
1010
0.0
1020
0.0
1030
1.0
1000
_USER
1070
     0
1070
     1
1071
        1
1071
        7
1070
     1
1070
     1
1071
       14
1040
116.9999999999999
1040
126.036460316705
1040
0.0
1040
113.9999999999999
1040
126.036460316705
1040
0.0
1040
113.9999999999999
1040
125.536460316705
1040
0.0
1040
113.4999999999999
1040
125.536460316705
1040
0.0
1040
113.4999999999999
1040
121.036460316705
1040
0.0
1040
114.9999999999999
1040
121.036460316705
1040
0.0
1040
114.9999999999999
1040
116.689772248164
1040
0.6353242330310249
1040
120.0
1040
106.036460316705
1040
0.0
1040
120.0
1040
112.536460316705
1040
0.0
1040
116.4999999999999
1040
112.536460316705
1040
0.0
1040
116.5
1040
116.689772248164
1040
0.0
1040
117.5
1040
116.6897722481641
1040
0.0
1040
117.4999999999999
1040
121.036460316705
1040
0.0
1040
116.9999999999999
1040
121.536460316705
1040
0.0
1071
       14
1005
5B
1005
56
1005
57
1005
59
1005
6C
1005
5E
1005
53
1005
8C
1005
73
1005
74
1005
6A
1005
71
1005
6F
1005
63
1070
     0
1070
     0
1040
0.7853981633974483
1040
2.0
1070
     1
1070
     2
1040
0.7853981633974483
1040
0.0
1040
0.0
1040
-1.414213562373094
1040
1.4142135623730949
1070
     0
1040
2.3561944901923439
1040
0.0
1040
0.0
1040
-1.4142135623730949
1040
-1.414213562373094
1070
     0
1040
0.0749063670529552
1071
        1
1040
115.45731229661909
1040
122.4361419656876
1040
0.0
1002
}
  0
INSERT
  5
2EB
  8
0
  6
CONTINUOUS
  2
*X8
 10
0.0
 20
0.0
 30
0.0
1001
ACAD
1000
HATCH
1002
{
1070
    19
1000
_USER
1040
2.0
1040
0.7853981633974483
1000
ASC_BOUNDS
1070
     1
1070
     1
1070
    11
1005
1AC
1005
1BE
1005
1BD
1005
1E7
1005
1A0
1005
1A5
1005
1BB
1005
1B6
1005
1B7
1005
1B8
1005
1B3
1000
ASC_SEEDPOINT
1011
189.4848902024271
1021
0.0
1031
0.0
1021
120.9409170243873
1031
0.0
1000
R14_HATCH_DATA
1000
2EB
1011
1.0
1021
0.0
1031
0.0
1021
0.0
1031
0.0
1011
0.0
1021
0.0
1031
0.0
1021
1.0
1031
0.0
1011
0.0
1021
0.0
1031
0.0
1021
0.0
1031
1.0
1040
0.0
1010
0.0
1020
0.0
1030
1.0
1000
_USER
1070
     0
1070
     1
1071
        1
1071
        7
1070
     1
1070
     1
1071
       11
1040
190.0
1040
126.0083816820012
1040
0.0
1040
188.49999999999989
1040
126.0090103081512
1040
0.0
1040
188.49999999999989
1040
125.0
1040
0.0
1040
186.5
1040
125.0
1040
0.0
1040
186.5
1040
120.0
1040
0.0
1040
189.0
1040
119.9999999999999
1040
0.0
1040
189.0
1040
115.6055512754639
1040
0.5831986630948093
1040
195.0
1040
105.0
1040
0.0
1040
195.0
1040
111.0
1040
0.0
1040
190.5
1040
111.0
1040
0.0
1040
190.0
1040
111.4999999999999
1040
0.0
1071
       11
1005
1B3
1005
1B8
1005
1B7
1005
1B6
1005
1BB
1005
1A5
1005
1A0
1005
1E7
1005
1BD
1005
1BE
1005
1AC
1070
     0
1070
     0
1040
0.7853981633974483
1040
2.0
1070
     1
1070
     2
1040
0.7853981633974483
1040
0.0
1040
0.0
1040
-1.414213562373094
1040
1.4142135623730949
1070
     0
1040
2.3561944901923439
1040
0.0
1040
0.0
1040
-1.4142135623730949
1040
-1.414213562373094
1070
     0
1040
0.0749063670529552
1071
        1
1040
189.4848902024271
1040
120.9409170243873
1040
0.0
1002
}
  0
ENDSEC
  0
EOF
