  0
SECTION
  2
HEADER
  9
$ACADVER
  1
AC1009
  9
$INSBASE
 10
0.0
 20
0.0
 30
0.0
  9
$EXTMIN
 10
-316.36560172154623
 20
689.71322105439049
 30
-0.0000000349181948
  9
$EXTMAX
 10
569.2250138560679
 20
1001.316372002188
 30
0.0000000814935746
  9
$LIMMIN
 10
0.0
 20
0.0
  9
$LIMMAX
 10
420.0
 20
297.0
  9
$ORTHOMODE
 70
     1
  9
$REGENMODE
 70
     1
  9
$FILLMODE
 70
     1
  9
$QTEXTMODE
 70
     0
  9
$MIRRTEXT
 70
     1
  9
$DRAGMODE
 70
     2
  9
$LTSCALE
 40
1.0
  9
$OSMODE
 70
    40
  9
$ATTMODE
 70
     1
  9
$TEXTSIZE
 40
2.5
  9
$TRACEWID
 40
1.0
  9
$TEXTSTYLE
  7
STANDARD
  9
$CLAYER
  8
0
  9
$CELTYPE
  6
BYLAYER
  9
$CECOLOR
 62
   256
  9
$DIMSCALE
 40
1.0
  9
$DIMASZ
 40
2.5
  9
$DIMEXO
 40
0.625
  9
$DIMDLI
 40
3.75
  9
$DIMRND
 40
0.0
  9
$DIMDLE
 40
0.0
  9
$DIMEXE
 40
1.25
  9
$DIMTP
 40
0.0
  9
$DIMTM
 40
0.0
  9
$DIMTXT
 40
2.5
  9
$DIMCEN
 40
2.5
  9
$DIMTSZ
 40
0.0
  9
$DIMTOL
 70
     0
  9
$DIMLIM
 70
     0
  9
$DIMTIH
 70
     1
  9
$DIMTOH
 70
     1
  9
$DIMSE1
 70
     0
  9
$DIMSE2
 70
     0
  9
$DIMTAD
 70
     1
  9
$DIMZIN
 70
     8
  9
$DIMBLK
  1

  9
$DIMASO
 70
     1
  9
$DIMSHO
 70
     1
  9
$DIMPOST
  1

  9
$DIMAPOST
  1

  9
$DIMALT
 70
     0
  9
$DIMALTD
 70
     3
  9
$DIMALTF
 40
0.03937007874016
  9
$DIMLFAC
 40
1.0
  9
$DIMTOFL
 70
     1
  9
$DIMTVP
 40
0.0
  9
$DIMTIX
 70
     0
  9
$DIMSOXD
 70
     0
  9
$DIMSAH
 70
     0
  9
$DIMBLK1
  1

  9
$DIMBLK2
  1

  9
$DIMSTYLE
  2
ISO-25
  9
$DIMCLRD
 70
     0
  9
$DIMCLRE
 70
     0
  9
$DIMCLRT
 70
     0
  9
$DIMTFAC
 40
1.0
  9
$DIMGAP
 40
0.625
  9
$LUNITS
 70
     2
  9
$LUPREC
 70
     4
  9
$SKETCHINC
 40
1.0
  9
$FILLETRAD
 40
14.0
  9
$AUNITS
 70
     0
  9
$AUPREC
 70
     0
  9
$MENU
  1
.
  9
$ELEVATION
 40
0.0
  9
$PELEVATION
 40
0.0
  9
$THICKNESS
 40
0.0
  9
$LIMCHECK
 70
     0
  9
$BLIPMODE
 70
     0
  9
$CHAMFERA
 40
10.0
  9
$CHAMFERB
 40
10.0
  9
$SKPOLY
 70
     0
  9
$TDCREATE
 40
2453308.4431109261
  9
$TDUPDATE
 40
2453308.6766325231
  9
$TDINDWG
 40
0.2256629977
  9
$TDUSRTIMER
 40
0.2256629977
  9
$USRTIMER
 70
     1
  9
$ANGBASE
 50
0.0
  9
$ANGDIR
 70
     0
  9
$PDMODE
 70
     3
  9
$PDSIZE
 40
2.0
  9
$PLINEWID
 40
0.0
  9
$COORDS
 70
     0
  9
$SPLFRAME
 70
     0
  9
$SPLINETYPE
 70
     6
  9
$SPLINESEGS
 70
     8
  9
$ATTDIA
 70
     0
  9
$ATTREQ
 70
     1
  9
$HANDLING
 70
-16383
  9
$HANDSEED
  5
F45
  9
$SURFTAB1
 70
     6
  9
$SURFTAB2
 70
     6
  9
$SURFTYPE
 70
     6
  9
$SURFU
 70
     6
  9
$SURFV
 70
     6
  9
$UCSNAME
  2

  9
$UCSORG
 10
0.0
 20
0.0
 30
0.0
  9
$UCSXDIR
 10
1.0
 20
0.0
 30
0.0
  9
$UCSYDIR
 10
0.0
 20
1.0
 30
0.0
  9
$PUCSNAME
  2

  9
$PUCSORG
 10
0.0
 20
0.0
 30
0.0
  9
$PUCSXDIR
 10
1.0
 20
0.0
 30
0.0
  9
$PUCSYDIR
 10
0.0
 20
1.0
 30
0.0
  9
$USERI1
 70
     0
  9
$USERI2
 70
     0
  9
$USERI3
 70
     0
  9
$USERI4
 70
     0
  9
$USERI5
 70
     0
  9
$USERR1
 40
0.0
  9
$USERR2
 40
0.0
  9
$USERR3
 40
0.0
  9
$USERR4
 40
0.0
  9
$USERR5
 40
0.0
  9
$WORLDVIEW
 70
     1
  9
$SHADEDGE
 70
     3
  9
$SHADEDIF
 70
    70
  9
$TILEMODE
 70
     1
  9
$MAXACTVP
 70
    48
  9
$PLIMCHECK
 70
     0
  9
$PEXTMIN
 10
28.674485683441159
 20
19.97498331069945
 30
0.0
  9
$PEXTMAX
 10
258.0703711509704
 20
179.77484979629509
 30
0.0
  9
$PLIMMIN
 10
-5.027069091796875
 20
-5.0270833969116211
  9
$PLIMMAX
 10
291.98358154296869
 20
204.98858737945551
  9
$UNITMODE
 70
     0
  9
$VISRETAIN
 70
     1
  9
$PLINEGEN
 70
     0
  9
$PSLTSCALE
 70
     1
  0
ENDSEC
  0
SECTION
  2
TABLES
  0
TABLE
  2
VPORT
 70
     4
  0
VPORT
  2
*ACTIVE
 70
     0
 10
0.0
 20
0.0
 11
1.0
 21
1.0
 12
126.42970606726089
 22
845.51479652828971
 13
0.0
 23
0.0
 14
10.0
 24
10.0
 15
10.0
 25
10.0
 16
0.0
 26
0.0
 36
1.0
 17
0.0
 27
0.0
 37
0.0
 40
599.73091660900957
 41
1.4839901477832509
 42
50.0
 43
0.0
 44
0.0
 50
0.0
 51
0.0
 71
     0
 72
   100
 73
     1
 74
     2
 75
     0
 76
     0
 77
     0
 78
     0
  0
ENDTAB
  0
TABLE
  2
LTYPE
 70
     3
  0
LTYPE
  2
CONTINUOUS
 70
     0
  3
Solid line
 72
    65
 73
     0
 40
0.0
  0
LTYPE
  2
CENTER
 70
     0
  3
Center (.5x) ___ _ ___ _ ___ _ ___ _ ___ _ ___
 72
    65
 73
     4
 40
28.574999999999989
 49
19.050000000000001
 49
-3.1749999999999989
 49
3.1749999999999989
 49
-3.1749999999999989
  0
LTYPE
  2
DASHED
 70
     0
  3
Dashed (.5x) _ _ _ _ _ _ _ _ _ _ _ _ _ _ _ _ _
 72
    65
 73
     2
 40
9.5249999999999986
 49
6.3499999999999988
 49
-3.1749999999999989
  0
ENDTAB
  0
TABLE
  2
LAYER
 70
     1
  0
LAYER
  2
0
 70
     0
 62
     7
  6
CONTINUOUS
  0
ENDTAB
  0
TABLE
  2
STYLE
 70
     1
  0
STYLE
  2
STANDARD
 70
     0
 40
0.0
 41
1.0
 50
0.0
 71
     0
 42
2.5
  3
txt
  4

  0
ENDTAB
  0
TABLE
  2
VIEW
 70
     0
  0
ENDTAB
  0
TABLE
  2
UCS
 70
     0
  0
ENDTAB
  0
TABLE
  2
APPID
 70
     1
  0
APPID
  2
ACAD
 70
     0
  0
ENDTAB
  0
TABLE
  2
DIMSTYLE
 70
     1
  0
DIMSTYLE
  2
ISO-25
 70
     0
  3

  4

  5

  6

  7

 40
1.0
 41
2.5
 42
0.625
 43
3.75
 44
1.25
 45
0.0
 46
0.0
 47
0.0
 48
0.0
140
2.5
141
2.5
142
0.0
143
0.03937007874016
144
1.0
145
0.0
146
1.0
147
0.625
 71
     0
 72
     0
 73
     1
 74
     1
 75
     0
 76
     0
 77
     1
 78
     8
170
     0
171
     3
172
     1
173
     0
174
     0
175
     0
176
     0
177
     0
178
     0
  0
ENDTAB
  0
ENDSEC
  0
SECTION
  2
BLOCKS
  0
BLOCK
  8
0
  2
$MODEL_SPACE
 70
     0
 10
0.0
 20
0.0
 30
0.0
  3
$MODEL_SPACE
  1

  0
ENDBLK
  5
21
  8
0
  0
BLOCK
 67
     1
  8
0
  2
$PAPER_SPACE
 70
     0
 10
0.0
 20
0.0
 30
0.0
  3
$PAPER_SPACE
  1

  0
ENDBLK
  5
53
 67
     1
  8
0
  0
ENDSEC
  0
SECTION
  2
ENTITIES
  0
CIRCLE
  5
1CA
  8
0
 10
-271.32390448411542
 20
759.78152650324432
 30
0.0
 40
40.0
  0
LINE
  5
1CB
  8
0
  6
CENTER
 10
-271.32390448411542
 20
804.78152650324432
 30
0.0
 11
-271.32390448411542
 21
714.78152650324432
 31
0.0
  0
LINE
  5
1CC
  8
0
  6
CENTER
 10
-316.32390448411542
 20
759.78152650324432
 30
0.0
 11
-226.32390448411539
 21
759.78152650324432
 31
0.0
  0
CIRCLE
  5
1CD
  8
0
 10
-271.32390448411542
 20
759.78152650324432
 30
0.0
 40
14.5
  0
ARC
  5
1CE
  8
0
 10
-271.32390448411542
 20
759.78152650324432
 30
0.0
 40
17.5
 50
149.0502769211414
 51
210.9497230788607
  0
ARC
  5
1CF
  8
0
 10
-295.82390448411542
 20
759.78152650324432
 30
0.0
 40
9.0
 50
90.0
 51
270.0
  0
LINE
  5
1D0
  8
0
 10
-286.33223550391898
 20
750.78152650324432
 30
0.0
 11
-295.82390448411542
 21
750.78152650324432
 31
0.0
  0
LINE
  5
1D1
  8
0
 10
-286.33223550391898
 20
768.78152650324432
 30
0.0
 11
-295.82390448411542
 21
768.78152650324432
 31
0.0
  0
ARC
  5
1D2
  8
0
 10
-296.82390448411542
 20
759.78152650324432
 30
0.0
 40
14.5
 50
176.81526146328019
 51
183.18473853672131
  0
ARC
  5
1D3
  8
0
 10
-300.4481634636569
 20
760.48905086831485
 30
0.0
 40
10.95830990426267
 50
187.93652962080131
 51
270.68604462215973
  0
ARC
  5
1D4
  8
0
 10
-300.46677725650392
 20
689.50139700363434
 30
0.0
 40
80.530268868485066
 50
79.891174395873563
 51
89.893403973614895
  0
ARC
  5
1D5
  8
0
 10
-300.46677725650392
 20
830.06165600285419
 30
0.0
 40
80.530268868485066
 50
270.10659602638498
 51
280.10882560412642
  0
LINE
  5
1D6
  8
0
  6
CENTER
 10
-298.32390448411542
 20
766.28152650324432
 30
0.0
 11
-298.32390448411542
 21
753.28152650324432
 31
0.0
  0
ARC
  5
1D7
  8
0
 10
-300.4481634636569
 20
759.07400213817346
 30
0.0
 40
10.95830990426261
 50
89.313955377840202
 51
172.06347037919861
  0
ARC
  5
1D8
  8
0
 10
-242.18103171172689
 20
830.06165600285419
 30
0.0
 40
80.530268868485066
 50
259.89117439587352
 51
269.8934039736148
  0
LINE
  5
1D9
  8
0
 10
-256.31557346431191
 20
768.78152650324432
 30
0.0
 11
-246.82390448411539
 21
768.78152650324432
 31
0.0
  0
LINE
  5
1DA
  8
0
 10
-256.31557346431191
 20
750.78152650324432
 30
0.0
 11
-246.82390448411539
 21
750.78152650324432
 31
0.0
  0
ARC
  5
1DB
  8
0
 10
-245.82390448411539
 20
759.78152650324432
 30
0.0
 40
14.5
 50
356.8152614632786
 51
3.1847385367197072
  0
ARC
  5
1DC
  8
0
 10
-246.82390448411539
 20
759.78152650324432
 30
0.0
 40
9.0
 50
270.0
 51
90.0
  0
ARC
  5
1DE
  8
0
 10
-271.32390448411542
 20
759.78152650324432
 30
0.0
 40
17.5
 50
329.05027692113907
 51
30.949723078858572
  0
ARC
  5
1DF
  8
0
 10
-242.18103171172689
 20
689.50139700363434
 30
0.0
 40
80.530268868485066
 50
90.106596026385105
 51
100.10882560412639
  0
LINE
  5
1E1
  8
0
 10
-306.32390448411542
 20
886.03727440683554
 30
0.0
 11
-236.32390448411539
 21
886.03727440683531
 31
0.0
  0
LINE
  5
1E2
  8
0
  6
CENTER
 10
-271.32390448411542
 20
881.03727440683519
 30
0.0
 11
-271.32390448411542
 21
994.53727440683519
 31
0.0
  0
LINE
  5
1E3
  8
0
 10
-236.32390448411539
 20
886.03727440683531
 30
0.0
 11
-236.32390448411539
 21
889.03727440683519
 31
0.0
  0
LINE
  5
1E4
  8
0
 10
-306.32390448411542
 20
886.03727440683531
 30
0.0
 11
-306.32390448411542
 21
889.03727440683519
 31
0.0
  0
LINE
  5
1E5
  8
0
 10
-231.32390448411539
 20
889.03727440683519
 30
0.0
 11
-231.74552442134629
 21
891.41023390468217
 31
0.0
  0
LINE
  5
1E6
  8
0
 10
-246.66249692204781
 20
899.53727440683554
 30
0.0
 11
-240.58144445095121
 21
899.53727440683531
 31
0.0
  0
ARC
  5
1E7
  8
0
 10
-241.530669746684
 20
889.65242283636564
 30
0.0
 40
9.9303232189227195
 50
5.786327844332332
 51
84.514804023916284
  0
LINE
  5
1E8
  8
0
 10
-255.5927824717931
 20
905.03727440683531
 30
0.0
 11
-236.30735775548769
 21
905.03727440683542
 31
0.0
  0
LINE
  5
1E9
  8
0
 10
-231.74552442134629
 20
891.4102339046824
 30
0.0
 11
-235.34415755014339
 21
904.30605938488418
 31
0.0
  0
LINE
  5
1EA
  8
0
 10
-283.33620140551
 20
909.03727440683531
 30
0.0
 11
-259.31160756272089
 21
909.03727440683531
 31
0.0
  0
LINE
  5
1EC
  8
0
 10
-251.173489407696
 20
905.03727440683542
 30
0.0
 11
-251.17348940769591
 21
905.03727440683542
 31
0.0
  0
ARC
  5
1ED
  8
0
 10
-246.6624969220473
 20
909.53727440683542
 30
0.0
 40
10.0
 50
206.7436839504044
 51
269.9999999999967
  0
ARC
  5
1EE
  8
0
 10
-250.2268614824429
 20
908.60840606042893
 30
0.0
 40
6.445625598128391
 50
196.9470748742601
 51
213.64458840143499
  0
ARC
  5
1EF
  8
0
 10
-259.31160756272089
 20
906.03727440683519
 30
0.0
 40
3.0
 50
13.34236379708949
 51
90.0
  0
LINE
  5
1F0
  8
0
 10
-310.90228454688469
 20
891.41023390468217
 30
0.0
 11
-307.30365141808738
 21
904.30605938488441
 31
0.0
  0
LINE
  5
1F1
  8
0
 10
-306.32390448411542
 20
886.03727440683531
 30
0.0
 11
-306.32390448411542
 21
889.03727440683519
 31
0.0
  0
LINE
  5
1F2
  8
0
 10
-287.05502649643779
 20
905.03727440683531
 30
0.0
 11
-306.34045121274312
 21
905.03727440683565
 31
0.0
  0
ARC
  5
1F3
  8
0
 10
-292.42094748578791
 20
908.60840606042893
 30
0.0
 40
6.445625598128383
 50
326.3554115985649
 51
343.05292512573982
  0
ARC
  5
1F4
  8
0
 10
-283.33620140551
 20
906.03727440683519
 30
0.0
 40
3.0
 50
90.0
 51
166.65763620291051
  0
LINE
  5
1F5
  8
0
 10
-291.47431956053492
 20
905.03727440683542
 30
0.0
 11
-291.47431956053492
 21
905.03727440683542
 31
0.0
  0
LINE
  5
1F7
  8
0
 10
-311.32390448411542
 20
889.03727440683519
 30
0.0
 11
-310.90228454688457
 21
891.41023390468251
 31
0.0
  0
POLYLINE
  5
1F8
  8
0
 66
     1
 10
0.0
 20
0.0
 30
0.0
 70
     1
  0
VERTEX
  5
B20
  8
0
 10
-276.23138177222722
 20
768.28152650324432
 30
0.0
  0
VERTEX
  5
B21
  8
0
 10
-281.13885906033909
 20
759.78152650324432
 30
0.0
  0
VERTEX
  5
B22
  8
0
 10
-276.23138177222722
 20
751.28152650324432
 30
0.0
  0
VERTEX
  5
B23
  8
0
 10
-266.41642719600361
 20
751.28152650324432
 30
0.0
  0
VERTEX
  5
B24
  8
0
 10
-261.5089499078918
 20
759.78152650324432
 30
0.0
  0
VERTEX
  5
B25
  8
0
 10
-266.41642719600361
 20
768.28152650324432
 30
0.0
  0
SEQEND
  5
B26
  8
0
  0
CIRCLE
  5
1F9
  8
0
 10
-271.32390448411542
 20
759.78152650324432
 30
0.0
 40
8.0
  0
ARC
  5
1FA
  8
0
 10
-271.32390448411542
 20
759.78152650324432
 30
0.0
 40
7.0
 50
90.0
 51
0.0
  0
LINE
  5
1FB
  8
0
 10
-278.6851204162831
 20
912.53727440683519
 30
0.0
 11
-263.96268855194762
 21
912.53727440683542
 31
0.0
  0
LINE
  5
1FC
  8
0
 10
-278.68512041628321
 20
919.53727440683519
 30
0.0
 11
-263.96268855194768
 21
919.53727440683519
 31
0.0
  0
LINE
  5
1FD
  8
0
 10
-281.13885906033909
 20
913.53727440683531
 30
0.0
 11
-281.13885906033909
 21
918.53727440683542
 31
0.0
  0
LINE
  5
1FE
  8
0
 10
-276.23138177222722
 20
913.53727440683531
 30
0.0
 11
-276.23138177222722
 21
918.53727440683519
 31
0.0
  0
LINE
  5
1FF
  8
0
 10
-266.41642719600361
 20
913.53727440683531
 30
0.0
 11
-266.41642719600361
 21
918.53727440683519
 31
0.0
  0
LINE
  5
200
  8
0
 10
-261.5089499078918
 20
913.53727440683531
 30
0.0
 11
-261.5089499078918
 21
918.53727440683542
 31
0.0
  0
LINE
  5
201
  8
0
 10
-298.32390448411502
 20
899.53727440683531
 30
0.0
 11
-246.6624969220475
 21
899.53727440683554
 31
0.0
  0
ARC
  5
202
  8
0
 10
-271.32390448411559
 20
906.99560774016959
 30
0.0
 40
12.541666666665719
 50
66.964968236208776
 51
113.0350317637897
  0
ARC
  5
203
  8
0
 10
-278.68512041628321
 20
916.02685774016868
 30
0.0
 40
3.5104166666666541
 50
45.654143592517599
 51
90.0
  0
ARC
  5
204
  8
0
 10
-263.96268855194768
 20
916.02685774016868
 30
0.0
 40
3.5104166666666541
 50
90.0
 51
134.34585640748239
  0
ARC
  5
205
  8
0
 10
-263.96268855194768
 20
916.04769107350194
 30
0.0
 40
3.5104166666666541
 50
225.6541435925175
 51
270.0
  0
LINE
  5
206
  8
0
 10
-278.68512041628321
 20
912.53727440683542
 30
0.0
 11
-263.96268855194768
 21
912.53727440683542
 31
0.0
  0
ARC
  5
207
  8
0
 10
-278.68512041628321
 20
916.04769107350194
 30
0.0
 40
3.5104166666666541
 50
270.0
 51
314.3458564074823
  0
ARC
  5
208
  8
0
 10
-271.32390448411559
 20
925.07894107350091
 30
0.0
 40
12.541666666665719
 50
246.96496823621021
 51
293.03503176379121
  0
ARC
  5
209
  8
0
 10
-263.96268855194768
 20
916.02685774016868
 30
0.0
 40
3.5104166666666541
 50
45.654143592518743
 51
90.0
  0
ARC
  5
20A
  8
0
 10
-263.96268855194768
 20
916.04769107350194
 30
0.0
 40
3.5104166666666541
 50
270.0
 51
314.34585640748122
  0
ARC
  5
20B
  8
0
 10
-278.68512041628333
 20
916.02685774016868
 30
0.0
 40
3.5104166666666541
 50
90.0
 51
134.34585640748119
  0
ARC
  5
20C
  8
0
 10
-278.68512041628333
 20
916.04769107350194
 30
0.0
 40
3.5104166666666541
 50
225.65414359251869
 51
270.0
  0
LINE
  5
20D
  8
0
 10
-277.07390448411542
 20
910.85261447789981
 30
0.0
 11
-277.07390448411542
 21
912.53727440683519
 31
0.0
  0
LINE
  5
20E
  8
0
 10
-265.57390448411542
 20
910.85261447789981
 30
0.0
 11
-265.57390448411542
 21
912.53727440683519
 31
0.0
  0
LINE
  5
20F
  8
0
 10
-278.32390448411519
 20
989.53727440683531
 30
0.0
 11
-264.32390448411547
 21
989.53727440683508
 31
0.0
  0
LINE
  5
210
  8
0
 10
-263.32390448411542
 20
919.47866597474592
 30
0.0
 11
-263.32390448411542
 21
988.53727440683519
 31
0.0
  0
LINE
  5
211
  8
0
 10
-279.32390448411542
 20
919.47866597474592
 30
0.0
 11
-279.32390448411542
 21
988.53727440683519
 31
0.0
  0
LINE
  5
212
  8
0
 10
-264.32390448411542
 20
919.47866597474592
 30
0.0
 11
-264.32390448411547
 21
989.53727440683508
 31
0.0
  0
LINE
  5
213
  8
0
 10
-279.32390448411542
 20
988.53727440683531
 30
0.0
 11
-263.32390448411547
 21
988.53727440683497
 31
0.0
  0
LINE
  5
214
  8
0
 10
-264.32390448411547
 20
989.53727440683508
 30
0.0
 11
-263.32390448411547
 21
988.53727440683497
 31
0.0
  0
LINE
  5
215
  8
0
 10
-278.32390448411542
 20
989.53727440683508
 30
0.0
 11
-279.32390448411542
 21
988.53727440683497
 31
0.0
  0
LINE
  5
216
  8
0
 10
-278.32390448411559
 20
919.47866597474592
 30
0.0
 11
-278.32390448411547
 21
989.53727440683508
 31
0.0
  0
ARC
  5
217
  8
0
 10
-271.32390448411542
 20
906.03727440683519
 30
0.0
 40
7.5
 50
140.0554948101842
 51
156.42182152179581
  0
ARC
  5
218
  8
0
 10
-271.32390448411542
 20
906.03727440683519
 30
0.0
 40
7.5
 50
23.578178478204158
 51
39.944505189815771
  0
LINE
  5
219
  8
0
 10
-277.07390448411542
 20
910.85261447789981
 30
0.0
 11
-265.57390448411542
 21
910.85261447789981
 31
0.0
  0
LINE
  5
21B
  8
0
  6
CENTER
 10
-298.32390448411508
 20
883.03727440683542
 30
0.0
 11
-298.32390448411491
 21
908.03727440683542
 31
0.0
  0
LINE
  5
21C
  8
0
  6
CENTER
 10
-244.32390448411579
 20
883.03727440683542
 30
0.0
 11
-244.3239044841159
 21
908.03727440683542
 31
0.0
  0
LINE
  5
21D
  8
0
 10
-311.32390448411547
 20
889.03727440683508
 30
0.0
 11
-231.32390448411539
 21
889.03727440683519
 31
0.0
  0
CIRCLE
  5
21E
  8
0
  6
DASHED
 10
-298.32390448411542
 20
759.78152650324432
 30
0.0
 40
4.5
  0
LINE
  5
21F
  8
0
  6
CENTER
 10
-244.32390448411539
 20
766.28152650324432
 30
0.0
 11
-244.32390448411539
 21
753.28152650324432
 31
0.0
  0
CIRCLE
  5
220
  8
0
  6
DASHED
 10
-244.32390448411539
 20
759.78152650324432
 30
0.0
 40
4.5
  0
LINE
  5
25B
  8
0
 10
71.468371082629886
 20
986.53727440683519
 30
0.0
 11
89.468371082629915
 21
986.53727440683519
 31
0.0
  0
LINE
  5
25C
  8
0
 10
90.468371082629915
 20
985.53727440683519
 30
0.0
 11
90.468371082629886
 21
917.53727440683531
 31
0.0
  0
LINE
  5
25E
  8
0
 10
70.468371082629886
 20
985.53727440683519
 30
0.0
 11
70.468371082629886
 21
917.53727440683542
 31
0.0
  0
LINE
  5
25F
  8
0
 10
71.468371082629886
 20
986.53727440683519
 30
0.0
 11
71.468371082629886
 21
916.53727440683554
 31
0.0
  0
LINE
  5
260
  8
0
 10
89.468371082629886
 20
986.53727440683519
 30
0.0
 11
89.468371082629915
 21
916.53727440683531
 31
0.0
  0
LINE
  5
261
  8
0
 10
70.468371082629886
 20
985.53727440683519
 30
0.0
 11
90.468371082629886
 21
985.53727440683519
 31
0.0
  0
LINE
  5
262
  8
0
 10
70.468371082629886
 20
985.53727440683519
 30
0.0
 11
71.468371082629886
 21
986.53727440683519
 31
0.0
  0
LINE
  5
263
  8
0
 10
89.468371082629886
 20
986.53727440683519
 30
0.0
 11
90.468371082629915
 21
985.53727440683519
 31
0.0
  0
LINE
  5
265
  8
0
  6
CENTER
 10
80.468371082629886
 20
991.53727440683531
 30
0.0
 11
80.468371082629176
 21
879.03727440683554
 31
0.0
  0
LINE
  5
266
  8
0
 10
74.718371082629403
 20
912.53727440683542
 30
0.0
 11
74.718371082629403
 21
916.53727440683508
 31
0.0
  0
LINE
  5
267
  8
0
 10
86.218371082629403
 20
912.53727440683542
 30
0.0
 11
86.218371082629403
 21
916.53727440683508
 31
0.0
  0
LINE
  5
268
  8
0
 10
74.718371082629403
 20
912.53727440683542
 30
0.0
 11
86.218371082629403
 21
912.53727440683542
 31
0.0
  0
ARC
  5
26A
  8
0
 10
80.468371082628096
 20
907.7219343357707
 30
0.0
 40
7.5
 50
140.05549481016919
 51
153.76554495572901
  0
LINE
  5
26C
  8
0
 10
71.468371082629886
 20
916.53727440683554
 30
0.0
 11
70.468371082629886
 21
917.53727440683542
 31
0.0
  0
LINE
  5
26D
  8
0
 10
89.468371082629886
 20
916.53727440683531
 30
0.0
 11
90.468371082629886
 21
917.53727440683531
 31
0.0
  0
LINE
  5
274
  8
0
 10
71.468371082629602
 20
916.53727440683554
 30
0.0
 11
89.468371082629943
 21
916.53727440683531
 31
0.0
  0
ARC
  5
275
  8
0
 10
-301.11713922154689
 20
889.65242283636564
 30
0.0
 40
9.9303232189227106
 50
95.485195976083858
 51
174.21367215566761
  0
ARC
  5
276
  8
0
 10
-295.98531204618348
 20
909.53727440683542
 30
0.0
 40
10.0
 50
270.00000000000318
 51
333.25631604959551
  0
LINE
  5
277
  8
0
 10
-295.98531204618308
 20
899.53727440683554
 30
0.0
 11
-302.06636451727962
 21
899.53727440683531
 31
0.0
  0
LINE
  5
278
  8
0
  6
DASHED
 10
-293.82390448411502
 20
889.03727440683508
 30
0.0
 11
-293.82390448411502
 21
905.03727440683542
 31
0.0
  0
LINE
  5
279
  8
0
  6
DASHED
 10
-302.82390448411502
 20
889.03727440683485
 30
0.0
 11
-302.82390448411491
 21
905.03727440683542
 31
0.0
  0
LINE
  5
27A
  8
0
  6
DASHED
 10
-239.82390448411579
 20
889.03727440683519
 30
0.0
 11
-239.82390448411579
 21
905.03727440683565
 31
0.0
  0
LINE
  5
27B
  8
0
  6
DASHED
 10
-248.82390448411579
 20
889.03727440683519
 30
0.0
 11
-248.8239044841157
 21
905.03727440683565
 31
0.0
  0
CIRCLE
  5
426
  8
0
 10
-72.096075816572352
 20
759.78152650324432
 30
0.0
 40
52.5
  0
LINE
  5
428
  8
0
  6
CENTER
 10
-72.096075816572352
 20
817.28152650324432
 30
0.0
 11
-72.096075816572352
 21
702.28152650324432
 31
0.0
  0
LINE
  5
429
  8
0
  6
CENTER
 10
-129.5960758165723
 20
759.78152650324432
 30
0.0
 11
-14.59607581657235
 21
759.78152650324432
 31
0.0
  0
CIRCLE
  5
42A
  8
0
 10
-72.096075816572352
 20
759.78152650324432
 30
0.0
 40
17.5
  0
ARC
  5
433
  8
0
 10
-72.096075816572352
 20
759.78152650324432
 30
0.0
 40
22.0
 50
332.96430821058772
 51
27.035691789412311
  0
ARC
  5
434
  8
0
 10
-35.096075816572352
 20
759.78152650324432
 30
0.0
 40
10.999999999999989
 50
266.649738710458
 51
93.350261289541976
  0
LINE
  5
435
  8
0
 10
-52.500157874306971
 20
749.78152650324432
 30
0.0
 11
-35.738913342537209
 21
748.80032620841257
 31
0.0
  0
LINE
  5
436
  8
0
 10
-52.500157874306971
 20
769.78152650324432
 30
0.0
 11
-35.738913342537209
 21
770.76272679807585
 31
0.0
  0
POLYLINE
  5
43C
  8
0
 10
-39.441772544849478
 20
748.10148577013069
 30
0.0
 66
     1
 70
     8
  0
VERTEX
  8
0
  5
B35
 10
-39.4418
 20
748.101
 30
0.000000
  70
    32
  0
VERTEX
  8
0
  5
B36
 10
-38.9979
 20
748.029
 30
0.000000
  70
    32
  0
VERTEX
  8
0
  5
B37
 10
-38.5514
 20
747.965
 30
0.000000
  70
    32
  0
VERTEX
  8
0
  5
B38
 10
-38.1028
 20
747.911
 30
0.000000
  70
    32
  0
VERTEX
  8
0
  5
B39
 10
-37.6522
 20
747.866
 30
0.000000
  70
    32
  0
VERTEX
  8
0
  5
B3A
 10
-37.2001
 20
747.831
 30
0.000000
  70
    32
  0
VERTEX
  8
0
  5
B3B
 10
-36.7469
 20
747.805
 30
0.000000
  70
    32
  0
VERTEX
  8
0
  5
B3C
 10
-36.2929
 20
747.789
 30
0.000000
  70
    32
  0
VERTEX
  8
0
  5
B3D
 10
-35.8384
 20
747.782
 30
0.000000
  70
    32
  0
VERTEX
  8
0
  5
B3E
 10
-35.3838
 20
747.784
 30
0.000000
  70
    32
  0
VERTEX
  8
0
  5
B3F
 10
-34.9296
 20
747.797
 30
0.000000
  70
    32
  0
VERTEX
  8
0
  5
B40
 10
-34.4759
 20
747.818
 30
0.000000
  70
    32
  0
VERTEX
  8
0
  5
B41
 10
-34.0233
 20
747.849
 30
0.000000
  70
    32
  0
VERTEX
  8
0
  5
B42
 10
-33.5720
 20
747.890
 30
0.000000
  70
    32
  0
VERTEX
  8
0
  5
B43
 10
-33.1225
 20
747.940
 30
0.000000
  70
    32
  0
VERTEX
  8
0
  5
B44
 10
-32.6750
 20
748.000
 30
0.000000
  70
    32
  0
VERTEX
  8
0
  5
B45
 10
-32.2300
 20
748.068
 30
0.000000
  70
    32
  0
VERTEX
  8
0
  5
B46
 10
-31.7877
 20
748.147
 30
0.000000
  70
    32
  0
VERTEX
  8
0
  5
B47
 10
-31.3486
 20
748.234
 30
0.000000
  70
    32
  0
VERTEX
  8
0
  5
B48
 10
-30.9129
 20
748.330
 30
0.000000
  70
    32
  0
VERTEX
  8
0
  5
B49
 10
-30.4811
 20
748.436
 30
0.000000
  70
    32
  0
VERTEX
  8
0
  5
B4A
 10
-30.0535
 20
748.550
 30
0.000000
  70
    32
  0
VERTEX
  8
0
  5
B4B
 10
-29.6303
 20
748.674
 30
0.000000
  70
    32
  0
VERTEX
  8
0
  5
B4C
 10
-29.2120
 20
748.806
 30
0.000000
  70
    32
  0
VERTEX
  8
0
  5
B4D
 10
-28.7989
 20
748.947
 30
0.000000
  70
    32
  0
VERTEX
  8
0
  5
B4E
 10
-28.3913
 20
749.097
 30
0.000000
  70
    32
  0
VERTEX
  8
0
  5
B4F
 10
-27.9895
 20
749.255
 30
0.000000
  70
    32
  0
VERTEX
  8
0
  5
B50
 10
-27.5938
 20
749.421
 30
0.000000
  70
    32
  0
VERTEX
  8
0
  5
B51
 10
-27.2046
 20
749.596
 30
0.000000
  70
    32
  0
VERTEX
  8
0
  5
B52
 10
-26.8222
 20
749.778
 30
0.000000
  70
    32
  0
VERTEX
  8
0
  5
B53
 10
-26.4468
 20
749.969
 30
0.000000
  70
    32
  0
VERTEX
  8
0
  5
B54
 10
-26.0788
 20
750.167
 30
0.000000
  70
    32
  0
VERTEX
  8
0
  5
B55
 10
-25.7185
 20
750.373
 30
0.000000
  70
    32
  0
VERTEX
  8
0
  5
B56
 10
-25.3661
 20
750.587
 30
0.000000
  70
    32
  0
VERTEX
  8
0
  5
B57
 10
-25.0220
 20
750.807
 30
0.000000
  70
    32
  0
VERTEX
  8
0
  5
B58
 10
-24.6863
 20
751.035
 30
0.000000
  70
    32
  0
VERTEX
  8
0
  5
B59
 10
-24.3594
 20
751.270
 30
0.000000
  70
    32
  0
VERTEX
  8
0
  5
B5A
 10
-24.0416
 20
751.512
 30
0.000000
  70
    32
  0
VERTEX
  8
0
  5
B5B
 10
-23.7330
 20
751.760
 30
0.000000
  70
    32
  0
VERTEX
  8
0
  5
B5C
 10
-23.4339
 20
752.014
 30
0.000000
  70
    32
  0
VERTEX
  8
0
  5
B5D
 10
-23.1446
 20
752.275
 30
0.000000
  70
    32
  0
VERTEX
  8
0
  5
B5E
 10
-22.8652
 20
752.541
 30
0.000000
  70
    32
  0
VERTEX
  8
0
  5
B5F
 10
-22.5961
 20
752.814
 30
0.000000
  70
    32
  0
VERTEX
  8
0
  5
B60
 10
-22.3374
 20
753.092
 30
0.000000
  70
    32
  0
VERTEX
  8
0
  5
B61
 10
-22.0893
 20
753.375
 30
0.000000
  70
    32
  0
VERTEX
  8
0
  5
B62
 10
-21.8521
 20
753.663
 30
0.000000
  70
    32
  0
VERTEX
  8
0
  5
B63
 10
-21.6258
 20
753.956
 30
0.000000
  70
    32
  0
VERTEX
  8
0
  5
B64
 10
-21.4108
 20
754.254
 30
0.000000
  70
    32
  0
VERTEX
  8
0
  5
B65
 10
-21.2071
 20
754.556
 30
0.000000
  70
    32
  0
VERTEX
  8
0
  5
B66
 10
-21.0149
 20
754.862
 30
0.000000
  70
    32
  0
VERTEX
  8
0
  5
B67
 10
-20.8344
 20
755.172
 30
0.000000
  70
    32
  0
VERTEX
  8
0
  5
B68
 10
-20.6657
 20
755.486
 30
0.000000
  70
    32
  0
VERTEX
  8
0
  5
B69
 10
-20.5090
 20
755.803
 30
0.000000
  70
    32
  0
VERTEX
  8
0
  5
B6A
 10
-20.3644
 20
756.124
 30
0.000000
  70
    32
  0
VERTEX
  8
0
  5
B6B
 10
-20.2319
 20
756.447
 30
0.000000
  70
    32
  0
VERTEX
  8
0
  5
B6C
 10
-20.1117
 20
756.773
 30
0.000000
  70
    32
  0
VERTEX
  8
0
  5
B6D
 10
-20.0040
 20
757.101
 30
0.000000
  70
    32
  0
VERTEX
  8
0
  5
B6E
 10
-19.9087
 20
757.431
 30
0.000000
  70
    32
  0
VERTEX
  8
0
  5
B6F
 10
-19.8259
 20
757.764
 30
0.000000
  70
    32
  0
VERTEX
  8
0
  5
B70
 10
-19.7558
 20
758.098
 30
0.000000
  70
    32
  0
VERTEX
  8
0
  5
B71
 10
-19.6984
 20
758.433
 30
0.000000
  70
    32
  0
VERTEX
  8
0
  5
B72
 10
-19.6536
 20
758.769
 30
0.000000
  70
    32
  0
VERTEX
  8
0
  5
B73
 10
-19.6217
 20
759.106
 30
0.000000
  70
    32
  0
VERTEX
  8
0
  5
B74
 10
-19.6025
 20
759.444
 30
0.000000
  70
    32
  0
VERTEX
  8
0
  5
B75
 10
-19.5961
 20
759.782
 30
0.000000
  70
    32
  0
VERTEX
  8
0
  5
B76
 10
-19.6025
 20
760.119
 30
0.000000
  70
    32
  0
VERTEX
  8
0
  5
B77
 10
-19.6217
 20
760.457
 30
0.000000
  70
    32
  0
VERTEX
  8
0
  5
B78
 10
-19.6536
 20
760.794
 30
0.000000
  70
    32
  0
VERTEX
  8
0
  5
B79
 10
-19.6984
 20
761.130
 30
0.000000
  70
    32
  0
VERTEX
  8
0
  5
B7A
 10
-19.7558
 20
761.466
 30
0.000000
  70
    32
  0
VERTEX
  8
0
  5
B7B
 10
-19.8259
 20
761.799
 30
0.000000
  70
    32
  0
VERTEX
  8
0
  5
B7C
 10
-19.9087
 20
762.132
 30
0.000000
  70
    32
  0
VERTEX
  8
0
  5
B7D
 10
-20.0040
 20
762.462
 30
0.000000
  70
    32
  0
VERTEX
  8
0
  5
B7E
 10
-20.1117
 20
762.790
 30
0.000000
  70
    32
  0
VERTEX
  8
0
  5
B7F
 10
-20.2319
 20
763.116
 30
0.000000
  70
    32
  0
VERTEX
  8
0
  5
B80
 10
-20.3644
 20
763.439
 30
0.000000
  70
    32
  0
VERTEX
  8
0
  5
B81
 10
-20.5090
 20
763.760
 30
0.000000
  70
    32
  0
VERTEX
  8
0
  5
B82
 10
-20.6657
 20
764.077
 30
0.000000
  70
    32
  0
VERTEX
  8
0
  5
B83
 10
-20.8344
 20
764.391
 30
0.000000
  70
    32
  0
VERTEX
  8
0
  5
B84
 10
-21.0149
 20
764.701
 30
0.000000
  70
    32
  0
VERTEX
  8
0
  5
B85
 10
-21.2071
 20
765.007
 30
0.000000
  70
    32
  0
VERTEX
  8
0
  5
B86
 10
-21.4108
 20
765.309
 30
0.000000
  70
    32
  0
VERTEX
  8
0
  5
B87
 10
-21.6258
 20
765.607
 30
0.000000
  70
    32
  0
VERTEX
  8
0
  5
B88
 10
-21.8521
 20
765.900
 30
0.000000
  70
    32
  0
VERTEX
  8
0
  5
B89
 10
-22.0893
 20
766.188
 30
0.000000
  70
    32
  0
VERTEX
  8
0
  5
B8A
 10
-22.3374
 20
766.471
 30
0.000000
  70
    32
  0
VERTEX
  8
0
  5
B8B
 10
-22.5961
 20
766.749
 30
0.000000
  70
    32
  0
VERTEX
  8
0
  5
B8C
 10
-22.8652
 20
767.022
 30
0.000000
  70
    32
  0
VERTEX
  8
0
  5
B8D
 10
-23.1446
 20
767.288
 30
0.000000
  70
    32
  0
VERTEX
  8
0
  5
B8E
 10
-23.4339
 20
767.549
 30
0.000000
  70
    32
  0
VERTEX
  8
0
  5
B8F
 10
-23.7330
 20
767.803
 30
0.000000
  70
    32
  0
VERTEX
  8
0
  5
B90
 10
-24.0416
 20
768.051
 30
0.000000
  70
    32
  0
VERTEX
  8
0
  5
B91
 10
-24.3594
 20
768.293
 30
0.000000
  70
    32
  0
VERTEX
  8
0
  5
B92
 10
-24.6863
 20
768.528
 30
0.000000
  70
    32
  0
VERTEX
  8
0
  5
B93
 10
-25.0220
 20
768.756
 30
0.000000
  70
    32
  0
VERTEX
  8
0
  5
B94
 10
-25.3661
 20
768.976
 30
0.000000
  70
    32
  0
VERTEX
  8
0
  5
B95
 10
-25.7185
 20
769.190
 30
0.000000
  70
    32
  0
VERTEX
  8
0
  5
B96
 10
-26.0788
 20
769.396
 30
0.000000
  70
    32
  0
VERTEX
  8
0
  5
B97
 10
-26.4468
 20
769.594
 30
0.000000
  70
    32
  0
VERTEX
  8
0
  5
B98
 10
-26.8222
 20
769.785
 30
0.000000
  70
    32
  0
VERTEX
  8
0
  5
B99
 10
-27.2046
 20
769.967
 30
0.000000
  70
    32
  0
VERTEX
  8
0
  5
B9A
 10
-27.5938
 20
770.142
 30
0.000000
  70
    32
  0
VERTEX
  8
0
  5
B9B
 10
-27.9895
 20
770.308
 30
0.000000
  70
    32
  0
VERTEX
  8
0
  5
B9C
 10
-28.3913
 20
770.466
 30
0.000000
  70
    32
  0
VERTEX
  8
0
  5
B9D
 10
-28.7989
 20
770.616
 30
0.000000
  70
    32
  0
VERTEX
  8
0
  5
B9E
 10
-29.2120
 20
770.757
 30
0.000000
  70
    32
  0
VERTEX
  8
0
  5
B9F
 10
-29.6303
 20
770.889
 30
0.000000
  70
    32
  0
VERTEX
  8
0
  5
BA0
 10
-30.0535
 20
771.013
 30
0.000000
  70
    32
  0
VERTEX
  8
0
  5
BA1
 10
-30.4811
 20
771.127
 30
0.000000
  70
    32
  0
VERTEX
  8
0
  5
BA2
 10
-30.9129
 20
771.233
 30
0.000000
  70
    32
  0
VERTEX
  8
0
  5
BA3
 10
-31.3486
 20
771.329
 30
0.000000
  70
    32
  0
VERTEX
  8
0
  5
BA4
 10
-31.7877
 20
771.417
 30
0.000000
  70
    32
  0
VERTEX
  8
0
  5
BA5
 10
-32.2300
 20
771.495
 30
0.000000
  70
    32
  0
VERTEX
  8
0
  5
BA6
 10
-32.6750
 20
771.563
 30
0.000000
  70
    32
  0
VERTEX
  8
0
  5
BA7
 10
-33.1225
 20
771.623
 30
0.000000
  70
    32
  0
VERTEX
  8
0
  5
BA8
 10
-33.5720
 20
771.673
 30
0.000000
  70
    32
  0
VERTEX
  8
0
  5
BA9
 10
-34.0233
 20
771.714
 30
0.000000
  70
    32
  0
VERTEX
  8
0
  5
BAA
 10
-34.4759
 20
771.745
 30
0.000000
  70
    32
  0
VERTEX
  8
0
  5
BAB
 10
-34.9296
 20
771.766
 30
0.000000
  70
    32
  0
VERTEX
  8
0
  5
BAC
 10
-35.3838
 20
771.779
 30
0.000000
  70
    32
  0
VERTEX
  8
0
  5
BAD
 10
-35.8384
 20
771.781
 30
0.000000
  70
    32
  0
VERTEX
  8
0
  5
BAE
 10
-36.2929
 20
771.774
 30
0.000000
  70
    32
  0
VERTEX
  8
0
  5
BAF
 10
-36.7469
 20
771.758
 30
0.000000
  70
    32
  0
VERTEX
  8
0
  5
BB0
 10
-37.2001
 20
771.732
 30
0.000000
  70
    32
  0
VERTEX
  8
0
  5
BB1
 10
-37.6522
 20
771.697
 30
0.000000
  70
    32
  0
VERTEX
  8
0
  5
BB2
 10
-38.1028
 20
771.652
 30
0.000000
  70
    32
  0
VERTEX
  8
0
  5
BB3
 10
-38.5514
 20
771.598
 30
0.000000
  70
    32
  0
VERTEX
  8
0
  5
BB4
 10
-38.9979
 20
771.534
 30
0.000000
  70
    32
  0
VERTEX
  8
0
  5
BB5
 10
-39.4418
 20
771.462
 30
0.000000
  70
    32
  0
SEQEND
  8
0
  5
BB6
  0
LINE
  5
43D
  8
0
 10
-52.500157874306971
 20
769.78152650324432
 30
0.0
 11
-38.5244668921639
 21
771.60152169971275
 31
0.0
  0
LINE
  5
43E
  8
0
 10
-52.500157874306971
 20
749.78152650324432
 30
0.0
 11
-38.5244668921639
 21
747.9615313067759
 31
0.0
  0
POLYLINE
  5
43F
  8
0
 10
-104.75037908829518
 20
748.10148577013069
 30
0.0
 66
     1
 70
     8
  0
VERTEX
  8
0
  5
BB7
 10
-104.750
 20
748.101
 30
0.000000
  70
    32
  0
VERTEX
  8
0
  5
BB8
 10
-105.194
 20
748.029
 30
0.000000
  70
    32
  0
VERTEX
  8
0
  5
BB9
 10
-105.641
 20
747.965
 30
0.000000
  70
    32
  0
VERTEX
  8
0
  5
BBA
 10
-106.089
 20
747.911
 30
0.000000
  70
    32
  0
VERTEX
  8
0
  5
BBB
 10
-106.540
 20
747.866
 30
0.000000
  70
    32
  0
VERTEX
  8
0
  5
BBC
 10
-106.992
 20
747.831
 30
0.000000
  70
    32
  0
VERTEX
  8
0
  5
BBD
 10
-107.445
 20
747.805
 30
0.000000
  70
    32
  0
VERTEX
  8
0
  5
BBE
 10
-107.899
 20
747.789
 30
0.000000
  70
    32
  0
VERTEX
  8
0
  5
BBF
 10
-108.354
 20
747.782
 30
0.000000
  70
    32
  0
VERTEX
  8
0
  5
BC0
 10
-108.808
 20
747.784
 30
0.000000
  70
    32
  0
VERTEX
  8
0
  5
BC1
 10
-109.263
 20
747.797
 30
0.000000
  70
    32
  0
VERTEX
  8
0
  5
BC2
 10
-109.716
 20
747.818
 30
0.000000
  70
    32
  0
VERTEX
  8
0
  5
BC3
 10
-110.169
 20
747.849
 30
0.000000
  70
    32
  0
VERTEX
  8
0
  5
BC4
 10
-110.620
 20
747.890
 30
0.000000
  70
    32
  0
VERTEX
  8
0
  5
BC5
 10
-111.070
 20
747.940
 30
0.000000
  70
    32
  0
VERTEX
  8
0
  5
BC6
 10
-111.517
 20
748.000
 30
0.000000
  70
    32
  0
VERTEX
  8
0
  5
BC7
 10
-111.962
 20
748.068
 30
0.000000
  70
    32
  0
VERTEX
  8
0
  5
BC8
 10
-112.404
 20
748.147
 30
0.000000
  70
    32
  0
VERTEX
  8
0
  5
BC9
 10
-112.844
 20
748.234
 30
0.000000
  70
    32
  0
VERTEX
  8
0
  5
BCA
 10
-113.279
 20
748.330
 30
0.000000
  70
    32
  0
VERTEX
  8
0
  5
BCB
 10
-113.711
 20
748.436
 30
0.000000
  70
    32
  0
VERTEX
  8
0
  5
BCC
 10
-114.139
 20
748.550
 30
0.000000
  70
    32
  0
VERTEX
  8
0
  5
BCD
 10
-114.562
 20
748.674
 30
0.000000
  70
    32
  0
VERTEX
  8
0
  5
BCE
 10
-114.980
 20
748.806
 30
0.000000
  70
    32
  0
VERTEX
  8
0
  5
BCF
 10
-115.393
 20
748.947
 30
0.000000
  70
    32
  0
VERTEX
  8
0
  5
BD0
 10
-115.801
 20
749.097
 30
0.000000
  70
    32
  0
VERTEX
  8
0
  5
BD1
 10
-116.203
 20
749.255
 30
0.000000
  70
    32
  0
VERTEX
  8
0
  5
BD2
 10
-116.598
 20
749.421
 30
0.000000
  70
    32
  0
VERTEX
  8
0
  5
BD3
 10
-116.988
 20
749.596
 30
0.000000
  70
    32
  0
VERTEX
  8
0
  5
BD4
 10
-117.370
 20
749.778
 30
0.000000
  70
    32
  0
VERTEX
  8
0
  5
BD5
 10
-117.745
 20
749.969
 30
0.000000
  70
    32
  0
VERTEX
  8
0
  5
BD6
 10
-118.113
 20
750.167
 30
0.000000
  70
    32
  0
VERTEX
  8
0
  5
BD7
 10
-118.474
 20
750.373
 30
0.000000
  70
    32
  0
VERTEX
  8
0
  5
BD8
 10
-118.826
 20
750.587
 30
0.000000
  70
    32
  0
VERTEX
  8
0
  5
BD9
 10
-119.170
 20
750.807
 30
0.000000
  70
    32
  0
VERTEX
  8
0
  5
BDA
 10
-119.506
 20
751.035
 30
0.000000
  70
    32
  0
VERTEX
  8
0
  5
BDB
 10
-119.833
 20
751.270
 30
0.000000
  70
    32
  0
VERTEX
  8
0
  5
BDC
 10
-120.151
 20
751.512
 30
0.000000
  70
    32
  0
VERTEX
  8
0
  5
BDD
 10
-120.459
 20
751.760
 30
0.000000
  70
    32
  0
VERTEX
  8
0
  5
BDE
 10
-120.758
 20
752.014
 30
0.000000
  70
    32
  0
VERTEX
  8
0
  5
BDF
 10
-121.048
 20
752.275
 30
0.000000
  70
    32
  0
VERTEX
  8
0
  5
BE0
 10
-121.327
 20
752.541
 30
0.000000
  70
    32
  0
VERTEX
  8
0
  5
BE1
 10
-121.596
 20
752.814
 30
0.000000
  70
    32
  0
VERTEX
  8
0
  5
BE2
 10
-121.855
 20
753.092
 30
0.000000
  70
    32
  0
VERTEX
  8
0
  5
BE3
 10
-122.103
 20
753.375
 30
0.000000
  70
    32
  0
VERTEX
  8
0
  5
BE4
 10
-122.340
 20
753.663
 30
0.000000
  70
    32
  0
VERTEX
  8
0
  5
BE5
 10
-122.566
 20
753.956
 30
0.000000
  70
    32
  0
VERTEX
  8
0
  5
BE6
 10
-122.781
 20
754.254
 30
0.000000
  70
    32
  0
VERTEX
  8
0
  5
BE7
 10
-122.985
 20
754.556
 30
0.000000
  70
    32
  0
VERTEX
  8
0
  5
BE8
 10
-123.177
 20
754.862
 30
0.000000
  70
    32
  0
VERTEX
  8
0
  5
BE9
 10
-123.358
 20
755.172
 30
0.000000
  70
    32
  0
VERTEX
  8
0
  5
BEA
 10
-123.526
 20
755.486
 30
0.000000
  70
    32
  0
VERTEX
  8
0
  5
BEB
 10
-123.683
 20
755.803
 30
0.000000
  70
    32
  0
VERTEX
  8
0
  5
BEC
 10
-123.828
 20
756.124
 30
0.000000
  70
    32
  0
VERTEX
  8
0
  5
BED
 10
-123.960
 20
756.447
 30
0.000000
  70
    32
  0
VERTEX
  8
0
  5
BEE
 10
-124.080
 20
756.773
 30
0.000000
  70
    32
  0
VERTEX
  8
0
  5
BEF
 10
-124.188
 20
757.101
 30
0.000000
  70
    32
  0
VERTEX
  8
0
  5
BF0
 10
-124.283
 20
757.431
 30
0.000000
  70
    32
  0
VERTEX
  8
0
  5
BF1
 10
-124.366
 20
757.764
 30
0.000000
  70
    32
  0
VERTEX
  8
0
  5
BF2
 10
-124.436
 20
758.098
 30
0.000000
  70
    32
  0
VERTEX
  8
0
  5
BF3
 10
-124.494
 20
758.433
 30
0.000000
  70
    32
  0
VERTEX
  8
0
  5
BF4
 10
-124.539
 20
758.769
 30
0.000000
  70
    32
  0
VERTEX
  8
0
  5
BF5
 10
-124.570
 20
759.106
 30
0.000000
  70
    32
  0
VERTEX
  8
0
  5
BF6
 10
-124.590
 20
759.444
 30
0.000000
  70
    32
  0
VERTEX
  8
0
  5
BF7
 10
-124.596
 20
759.782
 30
0.000000
  70
    32
  0
VERTEX
  8
0
  5
BF8
 10
-124.590
 20
760.119
 30
0.000000
  70
    32
  0
VERTEX
  8
0
  5
BF9
 10
-124.570
 20
760.457
 30
0.000000
  70
    32
  0
VERTEX
  8
0
  5
BFA
 10
-124.539
 20
760.794
 30
0.000000
  70
    32
  0
VERTEX
  8
0
  5
BFB
 10
-124.494
 20
761.130
 30
0.000000
  70
    32
  0
VERTEX
  8
0
  5
BFC
 10
-124.436
 20
761.466
 30
0.000000
  70
    32
  0
VERTEX
  8
0
  5
BFD
 10
-124.366
 20
761.799
 30
0.000000
  70
    32
  0
VERTEX
  8
0
  5
BFE
 10
-124.283
 20
762.132
 30
0.000000
  70
    32
  0
VERTEX
  8
0
  5
BFF
 10
-124.188
 20
762.462
 30
0.000000
  70
    32
  0
VERTEX
  8
0
  5
C00
 10
-124.080
 20
762.790
 30
0.000000
  70
    32
  0
VERTEX
  8
0
  5
C01
 10
-123.960
 20
763.116
 30
0.000000
  70
    32
  0
VERTEX
  8
0
  5
C02
 10
-123.828
 20
763.439
 30
0.000000
  70
    32
  0
VERTEX
  8
0
  5
C03
 10
-123.683
 20
763.760
 30
0.000000
  70
    32
  0
VERTEX
  8
0
  5
C04
 10
-123.526
 20
764.077
 30
0.000000
  70
    32
  0
VERTEX
  8
0
  5
C05
 10
-123.358
 20
764.391
 30
0.000000
  70
    32
  0
VERTEX
  8
0
  5
C06
 10
-123.177
 20
764.701
 30
0.000000
  70
    32
  0
VERTEX
  8
0
  5
C07
 10
-122.985
 20
765.007
 30
0.000000
  70
    32
  0
VERTEX
  8
0
  5
C08
 10
-122.781
 20
765.309
 30
0.000000
  70
    32
  0
VERTEX
  8
0
  5
C09
 10
-122.566
 20
765.607
 30
0.000000
  70
    32
  0
VERTEX
  8
0
  5
C0A
 10
-122.340
 20
765.900
 30
0.000000
  70
    32
  0
VERTEX
  8
0
  5
C0B
 10
-122.103
 20
766.188
 30
0.000000
  70
    32
  0
VERTEX
  8
0
  5
C0C
 10
-121.855
 20
766.471
 30
0.000000
  70
    32
  0
VERTEX
  8
0
  5
C0D
 10
-121.596
 20
766.749
 30
0.000000
  70
    32
  0
VERTEX
  8
0
  5
C0E
 10
-121.327
 20
767.022
 30
0.000000
  70
    32
  0
VERTEX
  8
0
  5
C0F
 10
-121.048
 20
767.288
 30
0.000000
  70
    32
  0
VERTEX
  8
0
  5
C10
 10
-120.758
 20
767.549
 30
0.000000
  70
    32
  0
VERTEX
  8
0
  5
C11
 10
-120.459
 20
767.803
 30
0.000000
  70
    32
  0
VERTEX
  8
0
  5
C12
 10
-120.151
 20
768.051
 30
0.000000
  70
    32
  0
VERTEX
  8
0
  5
C13
 10
-119.833
 20
768.293
 30
0.000000
  70
    32
  0
VERTEX
  8
0
  5
C14
 10
-119.506
 20
768.528
 30
0.000000
  70
    32
  0
VERTEX
  8
0
  5
C15
 10
-119.170
 20
768.756
 30
0.000000
  70
    32
  0
VERTEX
  8
0
  5
C16
 10
-118.826
 20
768.976
 30
0.000000
  70
    32
  0
VERTEX
  8
0
  5
C17
 10
-118.474
 20
769.190
 30
0.000000
  70
    32
  0
VERTEX
  8
0
  5
C18
 10
-118.113
 20
769.396
 30
0.000000
  70
    32
  0
VERTEX
  8
0
  5
C19
 10
-117.745
 20
769.594
 30
0.000000
  70
    32
  0
VERTEX
  8
0
  5
C1A
 10
-117.370
 20
769.785
 30
0.000000
  70
    32
  0
VERTEX
  8
0
  5
C1B
 10
-116.988
 20
769.967
 30
0.000000
  70
    32
  0
VERTEX
  8
0
  5
C1C
 10
-116.598
 20
770.142
 30
0.000000
  70
    32
  0
VERTEX
  8
0
  5
C1D
 10
-116.203
 20
770.308
 30
0.000000
  70
    32
  0
VERTEX
  8
0
  5
C1E
 10
-115.801
 20
770.466
 30
0.000000
  70
    32
  0
VERTEX
  8
0
  5
C1F
 10
-115.393
 20
770.616
 30
0.000000
  70
    32
  0
VERTEX
  8
0
  5
C20
 10
-114.980
 20
770.757
 30
0.000000
  70
    32
  0
VERTEX
  8
0
  5
C21
 10
-114.562
 20
770.889
 30
0.000000
  70
    32
  0
VERTEX
  8
0
  5
C22
 10
-114.139
 20
771.013
 30
0.000000
  70
    32
  0
VERTEX
  8
0
  5
C23
 10
-113.711
 20
771.127
 30
0.000000
  70
    32
  0
VERTEX
  8
0
  5
C24
 10
-113.279
 20
771.233
 30
0.000000
  70
    32
  0
VERTEX
  8
0
  5
C25
 10
-112.844
 20
771.329
 30
0.000000
  70
    32
  0
VERTEX
  8
0
  5
C26
 10
-112.404
 20
771.417
 30
0.000000
  70
    32
  0
VERTEX
  8
0
  5
C27
 10
-111.962
 20
771.495
 30
0.000000
  70
    32
  0
VERTEX
  8
0
  5
C28
 10
-111.517
 20
771.563
 30
0.000000
  70
    32
  0
VERTEX
  8
0
  5
C29
 10
-111.070
 20
771.623
 30
0.000000
  70
    32
  0
VERTEX
  8
0
  5
C2A
 10
-110.620
 20
771.673
 30
0.000000
  70
    32
  0
VERTEX
  8
0
  5
C2B
 10
-110.169
 20
771.714
 30
0.000000
  70
    32
  0
VERTEX
  8
0
  5
C2C
 10
-109.716
 20
771.745
 30
0.000000
  70
    32
  0
VERTEX
  8
0
  5
C2D
 10
-109.263
 20
771.766
 30
0.000000
  70
    32
  0
VERTEX
  8
0
  5
C2E
 10
-108.808
 20
771.779
 30
0.000000
  70
    32
  0
VERTEX
  8
0
  5
C2F
 10
-108.354
 20
771.781
 30
0.000000
  70
    32
  0
VERTEX
  8
0
  5
C30
 10
-107.899
 20
771.774
 30
0.000000
  70
    32
  0
VERTEX
  8
0
  5
C31
 10
-107.445
 20
771.758
 30
0.000000
  70
    32
  0
VERTEX
  8
0
  5
C32
 10
-106.992
 20
771.732
 30
0.000000
  70
    32
  0
VERTEX
  8
0
  5
C33
 10
-106.540
 20
771.697
 30
0.000000
  70
    32
  0
VERTEX
  8
0
  5
C34
 10
-106.089
 20
771.652
 30
0.000000
  70
    32
  0
VERTEX
  8
0
  5
C35
 10
-105.641
 20
771.598
 30
0.000000
  70
    32
  0
VERTEX
  8
0
  5
C36
 10
-105.194
 20
771.534
 30
0.000000
  70
    32
  0
VERTEX
  8
0
  5
C37
 10
-104.750
 20
771.462
 30
0.000000
  70
    32
  0
SEQEND
  8
0
  5
C38
  0
ARC
  5
440
  8
0
 10
-109.0960758165723
 20
759.78152650324432
 30
0.0
 40
10.999999999999989
 50
86.649738710458038
 51
273.35026128954189
  0
ARC
  5
441
  8
0
 10
-72.096075816572352
 20
759.78152650324432
 30
0.0
 40
22.0
 50
152.9643082105876
 51
207.0356917894122
  0
LINE
  5
442
  8
0
 10
-91.691993758837725
 20
749.78152650324432
 30
0.0
 11
-105.6676847409808
 21
747.9615313067759
 31
0.0
  0
LINE
  5
443
  8
0
 10
-91.691993758837725
 20
749.78152650324432
 30
0.0
 11
-108.4532382906074
 21
748.80032620841257
 31
0.0
  0
LINE
  5
444
  8
0
 10
-91.691993758837725
 20
769.78152650324432
 30
0.0
 11
-105.6676847409808
 21
771.60152169971275
 31
0.0
  0
LINE
  5
445
  8
0
 10
-91.691993758837725
 20
769.78152650324432
 30
0.0
 11
-108.4532382906074
 21
770.76272679807585
 31
0.0
  0
ARC
  5
446
  8
0
 10
-242.19964550457399
 20
759.07400213817346
 30
0.0
 40
10.95830990426261
 50
7.9365296208013341
 51
90.686044622159784
  0
ARC
  5
447
  8
0
 10
-242.19964550457399
 20
760.48905086831485
 30
0.0
 40
10.95830990426267
 50
269.31395537784022
 51
352.06347037919869
  0
ARC
  5
48A
  8
0
 10
-72.096075816572352
 20
759.78152650324432
 30
0.0
 40
7.0
 50
90.0
 51
0.0
  0
CIRCLE
  5
48B
  8
0
 10
-72.096075816572352
 20
759.78152650324432
 30
0.0
 40
8.0
  0
POLYLINE
  5
48C
  8
0
 66
     1
 10
0.0
 20
0.0
 30
0.0
 70
     1
  0
VERTEX
  5
B27
  8
0
 10
-77.003553104684158
 20
768.28152650324432
 30
0.0
  0
VERTEX
  5
B28
  8
0
 10
-81.911030392795965
 20
759.78152650324432
 30
0.0
  0
VERTEX
  5
B29
  8
0
 10
-77.003553104684158
 20
751.28152650324432
 30
0.0
  0
VERTEX
  5
B2A
  8
0
 10
-67.188598528460545
 20
751.28152650324432
 30
0.0
  0
VERTEX
  5
B2B
  8
0
 10
-62.281121240348739
 20
759.78152650324432
 30
0.0
  0
VERTEX
  5
B2C
  8
0
 10
-67.188598528460545
 20
768.28152650324432
 30
0.0
  0
SEQEND
  5
B2D
  8
0
  0
CIRCLE
  5
4D0
  8
0
  6
DASHED
 10
-109.0960758165723
 20
759.78152650324432
 30
0.0
 40
5.5
  0
CIRCLE
  5
4D1
  8
0
  6
DASHED
 10
-35.096075816572352
 20
759.78152650324432
 30
0.0
 40
5.5
  0
LINE
  5
4D3
  8
0
  6
CENTER
 10
-35.096075816572352
 20
767.28152650324432
 30
0.0
 11
-35.096075816572352
 21
752.28152650324432
 31
0.0
  0
LINE
  5
4D4
  8
0
  6
CENTER
 10
-109.0960758165723
 20
767.28152650324432
 30
0.0
 11
-109.0960758165723
 21
752.28152650324432
 31
0.0
  0
LINE
  5
516
  8
0
 10
-124.5960758165723
 20
889.03727440683519
 30
0.0
 11
-19.596075816572348
 21
889.03727440683519
 31
0.0
  0
LINE
  5
519
  8
0
 10
-119.5960758165723
 20
884.03727440683531
 30
0.0
 11
-24.596075816572348
 21
884.03727440683531
 31
0.0
  0
LINE
  5
51A
  8
0
  6
CENTER
 10
-72.096075816572352
 20
879.03727440683554
 30
0.0
 11
-72.096075816572352
 21
1001.255254636112
 31
0.0
  0
LINE
  5
51B
  8
0
 10
-119.5960758165723
 20
884.03727440683531
 30
0.0
 11
-119.5960758165723
 21
889.03727440683542
 31
0.0
  0
LINE
  5
55F
  8
0
 10
-119.3407624098234
 20
907.03727440683519
 30
0.0
 11
-90.479231846765458
 21
907.03727440683519
 31
0.0
  0
LINE
  5
560
  8
0
 10
-87.771324163666236
 20
911.03727440683554
 30
0.0
 11
-56.420827469478461
 21
911.03727440683531
 31
0.0
  0
LINE
  5
561
  8
0
  6
DASHED
 10
-114.5960758165723
 20
889.03727440683542
 30
0.0
 11
-114.5960758165723
 21
907.03727440683519
 31
0.0
  0
LINE
  5
562
  8
0
  6
DASHED
 10
-103.5960758165723
 20
889.03727440683542
 30
0.0
 11
-103.5960758165723
 21
907.03727440683542
 31
0.0
  0
LINE
  5
5E9
  8
0
 10
-112.5960758165723
 20
901.53727440683542
 30
0.0
 11
-31.59607581657243
 21
901.53727440683576
 31
0.0
  0
LINE
  5
5EA
  8
0
 10
-124.5960758165723
 20
889.03727440683519
 30
0.0
 11
-124.5960758165723
 21
889.53727440683531
 31
0.0
  0
ARC
  5
5EC
  8
0
 10
-112.5960758165723
 20
889.53727440683531
 30
0.0
 40
12.0
 50
90.0
 51
180.0
  0
LINE
  5
5ED
  8
0
 10
-120.3026397787452
 20
906.3107555344402
 30
0.0
 11
-124.13860424363391
 21
892.81904793809485
 31
0.0
  0
ARC
  5
636
  8
0
 10
-99.096075816572352
 20
911.03727440683554
 30
0.0
 40
9.5
 50
270.0
 51
349.98458983174839
  0
LINE
  5
637
  8
0
 10
-24.85138922332132
 20
907.03727440683519
 30
0.0
 11
-53.712919786379267
 21
907.03727440683519
 31
0.0
  0
LINE
  5
639
  8
0
  6
DASHED
 10
-29.596075816572348
 20
889.03727440683542
 30
0.0
 11
-29.596075816572348
 21
907.03727440683519
 31
0.0
  0
LINE
  5
63A
  8
0
  6
DASHED
 10
-40.596075816572352
 20
889.03727440683542
 30
0.0
 11
-40.596075816572352
 21
907.03727440683542
 31
0.0
  0
LINE
  5
63B
  8
0
 10
-23.88951185439953
 20
906.3107555344402
 30
0.0
 11
-20.053547389510751
 21
892.81904793809485
 31
0.0
  0
ARC
  5
63C
  8
0
 10
-31.596075816572348
 20
889.53727440683531
 30
0.0
 40
12.0
 50
0.000000000000007
 51
90.0
  0
LINE
  5
63D
  8
0
 10
-19.596075816572348
 20
889.03727440683519
 30
0.0
 11
-19.596075816572348
 21
889.53727440683531
 31
0.0
  0
LINE
  5
63E
  8
0
 10
-24.596075816572348
 20
884.03727440683531
 30
0.0
 11
-24.596075816572348
 21
889.03727440683542
 31
0.0
  0
ARC
  5
63F
  8
0
 10
-45.096075816572352
 20
911.03727440683554
 30
0.0
 40
9.5
 50
190.01541016825149
 51
270.0
  0
LINE
  5
643
  8
0
  6
CENTER
 10
-109.0960758165723
 20
881.03727440683542
 30
0.0
 11
-109.0960758165722
 21
910.03727440683531
 31
0.0
  0
LINE
  5
644
  8
0
  6
CENTER
 10
-35.096075816572352
 20
881.03727440683542
 30
0.0
 11
-35.096075816572458
 21
910.03727440683531
 31
0.0
  0
ARC
  5
646
  8
0
 10
-56.420827469478461
 20
909.03727440683531
 30
0.0
 40
2.0
 50
10.015410168253331
 51
89.999999999999815
  0
ARC
  5
647
  8
0
 10
-87.771324163666236
 20
909.03727440683531
 30
0.0
 40
2.0
 50
89.999999999999588
 51
169.9845898317499
  0
LINE
  5
649
  8
0
 10
-79.096075816572466
 20
923.47866597474592
 30
0.0
 11
-79.096075816572395
 21
993.53727440683519
 31
0.0
  0
LINE
  5
64A
  8
0
 10
-65.096075816572352
 20
923.47866597474592
 30
0.0
 11
-65.096075816572409
 21
993.53727440683519
 31
0.0
  0
LINE
  5
64B
  8
0
 10
-80.096075816572352
 20
923.47866597474592
 30
0.0
 11
-80.096075816572295
 21
992.53727440683531
 31
0.0
  0
LINE
  5
64C
  8
0
 10
-64.096075816572352
 20
923.47866597474592
 30
0.0
 11
-64.096075816572352
 21
992.53727440683531
 31
0.0
  0
ARC
  5
64F
  8
0
 10
-72.096075816572522
 20
929.07894107350126
 30
0.0
 40
12.541666666665719
 50
246.96496823621021
 51
293.03503176379121
  0
LINE
  5
650
  8
0
 10
-79.45729174874009
 20
916.53727440683554
 30
0.0
 11
-64.734859884404614
 21
916.53727440683554
 31
0.0
  0
ARC
  5
651
  8
0
 10
-72.096075816572522
 20
910.9956077401697
 30
0.0
 40
12.541666666665719
 50
66.964968236208776
 51
113.0350317637897
  0
LINE
  5
652
  8
0
 10
-79.45729174874009
 20
923.53727440683554
 30
0.0
 11
-64.734859884404614
 21
923.53727440683531
 31
0.0
  0
LINE
  5
653
  8
0
 10
-79.457291748740033
 20
916.53727440683531
 30
0.0
 11
-64.734859884404557
 21
916.53727440683554
 31
0.0
  0
LINE
  5
654
  8
0
 10
-77.846075816572352
 20
912.53727440683542
 30
0.0
 11
-77.846075816572352
 21
916.53727440683531
 31
0.0
  0
ARC
  5
655
  8
0
 10
-72.096075816572352
 20
907.7219343357707
 30
0.0
 40
7.5
 50
140.0554948101842
 51
153.76554495573009
  0
ARC
  5
656
  8
0
 10
-79.45729174874009
 20
920.02685774016879
 30
0.0
 40
3.5104166666666541
 50
45.654143592517599
 51
90.0
  0
ARC
  5
657
  8
0
 10
-79.45729174874009
 20
920.04769107350194
 30
0.0
 40
3.5104166666666541
 50
270.0
 51
314.3458564074823
  0
ARC
  5
658
  8
0
 10
-79.457291748740204
 20
920.02685774016879
 30
0.0
 40
3.5104166666666541
 50
90.0
 51
134.34585640748119
  0
ARC
  5
659
  8
0
 10
-79.457291748740204
 20
920.04769107350194
 30
0.0
 40
3.5104166666666541
 50
225.65414359251869
 51
270.0
  0
LINE
  5
65A
  8
0
 10
-81.911030392795965
 20
917.53727440683542
 30
0.0
 11
-81.911030392795965
 21
922.53727440683554
 31
0.0
  0
LINE
  5
65B
  8
0
 10
-77.003553104684158
 20
917.53727440683542
 30
0.0
 11
-77.003553104684158
 21
922.53727440683531
 31
0.0
  0
LINE
  5
65C
  8
0
 10
-66.346075816572352
 20
912.53727440683542
 30
0.0
 11
-66.346075816572352
 21
916.53727440683531
 31
0.0
  0
ARC
  5
65D
  8
0
 10
-72.096075816572352
 20
907.7219343357707
 30
0.0
 40
7.5
 50
26.234455044268941
 51
39.944505189815771
  0
ARC
  5
65E
  8
0
 10
-64.734859884404614
 20
920.02685774016879
 30
0.0
 40
3.5104166666666541
 50
90.0
 51
134.34585640748239
  0
ARC
  5
65F
  8
0
 10
-64.734859884404614
 20
920.04769107350194
 30
0.0
 40
3.5104166666666541
 50
225.6541435925175
 51
270.0
  0
LINE
  5
660
  8
0
 10
-67.188598528460545
 20
917.53727440683542
 30
0.0
 11
-67.188598528460545
 21
922.53727440683531
 31
0.0
  0
ARC
  5
661
  8
0
 10
-64.734859884404614
 20
920.02685774016879
 30
0.0
 40
3.5104166666666541
 50
45.654143592518743
 51
90.0
  0
ARC
  5
662
  8
0
 10
-64.734859884404614
 20
920.04769107350194
 30
0.0
 40
3.5104166666666541
 50
270.0
 51
314.34585640748122
  0
LINE
  5
663
  8
0
 10
-62.281121240348739
 20
917.53727440683542
 30
0.0
 11
-62.281121240348739
 21
922.53727440683554
 31
0.0
  0
LINE
  5
664
  8
0
 10
-80.096075816572295
 20
992.53727440683542
 30
0.0
 11
-64.096075816572395
 21
992.53727440683531
 31
0.0
  0
LINE
  5
665
  8
0
 10
-79.096075816572068
 20
993.53727440683542
 30
0.0
 11
-65.096075816572409
 21
993.53727440683519
 31
0.0
  0
LINE
  5
666
  8
0
 10
-79.096075816572295
 20
993.53727440683519
 30
0.0
 11
-80.096075816572295
 21
992.53727440683531
 31
0.0
  0
LINE
  5
667
  8
0
 10
-65.096075816572409
 20
993.53727440683519
 30
0.0
 11
-64.096075816572395
 21
992.53727440683531
 31
0.0
  0
LINE
  5
669
  8
0
 10
-77.846075816572352
 20
912.53727440683542
 30
0.0
 11
-66.346075816572409
 21
912.53727440683542
 31
0.0
  0
LINE
  5
6AC
  8
0
 10
127.71305767588051
 20
907.03727440683519
 30
0.0
 11
98.851527112822538
 21
907.03727440683519
 31
0.0
  0
ARC
  5
6AD
  8
0
 10
107.4683710826294
 20
911.03727440683554
 30
0.0
 40
9.5
 50
190.01541016825149
 51
270.0
  0
LINE
  5
6AE
  8
0
 10
39.96837108262946
 20
901.53727440683542
 30
0.0
 11
120.9683710826293
 21
901.53727440683576
 31
0.0
  0
LINE
  5
6AF
  8
0
 10
32.96837108262946
 20
884.03727440683531
 30
0.0
 11
127.9683710826294
 21
884.03727440683531
 31
0.0
  0
LINE
  5
6B0
  8
0
 10
27.96837108262946
 20
889.03727440683519
 30
0.0
 11
132.9683710826294
 21
889.03727440683519
 31
0.0
  0
LINE
  5
6B1
  8
0
 10
33.223684489378407
 20
907.03727440683542
 30
0.0
 11
62.085215052436368
 21
907.03727440683519
 31
0.0
  0
LINE
  5
6B2
  8
0
  6
DASHED
 10
37.96837108262946
 20
889.03727440683542
 30
0.0
 11
37.968371082629439
 21
907.03727440683519
 31
0.0
  0
LINE
  5
6B3
  8
0
  6
DASHED
 10
48.968371082629439
 20
889.03727440683542
 30
0.0
 11
48.968371082629432
 21
907.03727440683542
 31
0.0
  0
LINE
  5
6B4
  8
0
  6
CENTER
 10
43.46837108262946
 20
881.03727440683542
 30
0.0
 11
43.468371082629567
 21
910.03727440683531
 31
0.0
  0
ARC
  5
6B5
  8
0
 10
39.96837108262946
 20
889.53727440683531
 30
0.0
 40
12.0
 50
90.0
 51
180.0
  0
LINE
  5
6B6
  8
0
 10
27.96837108262946
 20
889.03727440683519
 30
0.0
 11
27.96837108262946
 21
889.53727440683531
 31
0.0
  0
LINE
  5
6B7
  8
0
 10
32.96837108262946
 20
884.03727440683531
 30
0.0
 11
32.96837108262946
 21
889.03727440683542
 31
0.0
  0
LINE
  5
6B8
  8
0
 10
32.261807120456602
 20
906.31075553444032
 30
0.0
 11
28.425842655567831
 21
892.81904793809485
 31
0.0
  0
LINE
  5
6BC
  8
0
 10
64.79312273553559
 20
911.03727440683554
 30
0.0
 11
96.143619429723344
 21
911.03727440683531
 31
0.0
  0
ARC
  5
6BD
  8
0
 10
53.46837108262946
 20
911.03727440683554
 30
0.0
 40
9.5
 50
270.0
 51
349.98458983174839
  0
ARC
  5
6BE
  8
0
 10
64.793122735535576
 20
909.03727440683531
 30
0.0
 40
2.0
 50
89.999999999999588
 51
169.9845898317499
  0
ARC
  5
6C3
  8
0
 10
96.143619429723344
 20
909.03727440683531
 30
0.0
 40
2.0
 50
10.015410168253331
 51
89.999999999999815
  0
LINE
  5
6C4
  8
0
  6
DASHED
 10
111.9683710826294
 20
889.03727440683542
 30
0.0
 11
111.9683710826294
 21
907.03727440683542
 31
0.0
  0
LINE
  5
6C5
  8
0
  6
DASHED
 10
122.9683710826294
 20
889.03727440683542
 30
0.0
 11
122.9683710826294
 21
907.03727440683519
 31
0.0
  0
LINE
  5
6C6
  8
0
  6
CENTER
 10
117.4683710826294
 20
881.03727440683542
 30
0.0
 11
117.4683710826293
 21
910.03727440683531
 31
0.0
  0
ARC
  5
6C7
  8
0
 10
120.9683710826294
 20
889.53727440683531
 30
0.0
 40
12.0
 50
0.000000000000007
 51
90.0
  0
LINE
  5
6C8
  8
0
 10
127.9683710826294
 20
884.03727440683531
 30
0.0
 11
127.9683710826294
 21
889.03727440683542
 31
0.0
  0
LINE
  5
6C9
  8
0
 10
132.9683710826294
 20
889.03727440683519
 30
0.0
 11
132.9683710826294
 21
889.53727440683531
 31
0.0
  0
LINE
  5
6CA
  8
0
 10
128.67493504480231
 20
906.31075553443998
 30
0.0
 11
132.510899509691
 21
892.81904793809485
 31
0.0
  0
LINE
  5
6D0
  8
0
 10
86.968371082629545
 20
924.53727440683531
 30
0.0
 11
86.968371082629446
 21
916.53727440683508
 31
0.0
  0
LINE
  5
6D1
  8
0
 10
73.968371082629346
 20
924.53727440683554
 30
0.0
 11
73.968371082629346
 21
916.53727440683531
 31
0.0
  0
LINE
  5
6D4
  8
0
 10
73.968371082629346
 20
924.53727440683531
 30
0.0
 11
86.968371082629545
 21
924.53727440683531
 31
0.0
  0
LINE
  5
6D5
  8
0
 10
73.968371082629346
 20
916.53727440683554
 30
0.0
 11
86.968371082629545
 21
924.53727440683531
 31
0.0
  0
LINE
  5
6D6
  8
0
 10
86.968371082629446
 20
916.53727440683531
 30
0.0
 11
73.968371082629346
 21
924.53727440683531
 31
0.0
  0
ARC
  5
6D9
  8
0
 10
81.123283264744444
 20
908.00776356693132
 30
0.0
 40
6.817359336338022
 50
26.383797295827961
 51
41.636955798337937
  0
CIRCLE
  5
75D
  8
0
 10
80.468371082628536
 20
759.7815265032433
 30
0.0
 40
52.5
  0
LINE
  5
75E
  8
0
  6
CENTER
 10
80.468371082628536
 20
817.2815265032433
 30
0.0
 11
80.468371082628536
 21
702.28152650324319
 31
0.0
  0
LINE
  5
75F
  8
0
 10
100.06428902489399
 20
769.78152650324319
 30
0.0
 11
116.8255335566637
 21
770.76272679807494
 31
0.0
  0
LINE
  5
760
  8
0
 10
100.0642890248939
 20
769.78152650324319
 30
0.0
 11
114.039980007037
 21
771.60152169971172
 31
0.0
  0
LINE
  5
761
  8
0
 10
100.06428902489399
 20
749.7815265032433
 30
0.0
 11
116.8255335566637
 21
748.80032620841166
 31
0.0
  0
LINE
  5
762
  8
0
 10
100.0642890248939
 20
749.7815265032433
 30
0.0
 11
114.039980007037
 21
747.96153130677476
 31
0.0
  0
LINE
  5
763
  8
0
  6
CENTER
 10
22.968371082628551
 20
759.7815265032433
 30
0.0
 11
137.96837108262849
 21
759.7815265032433
 31
0.0
  0
ARC
  5
764
  8
0
 10
80.468371082628536
 20
759.7815265032433
 30
0.0
 40
22.0
 50
332.96430821058772
 51
27.035691789412311
  0
LINE
  5
765
  8
0
 10
60.872453140363177
 20
769.78152650324319
 30
0.0
 11
46.896762158220099
 21
771.60152169971172
 31
0.0
  0
LINE
  5
766
  8
0
 10
60.872453140363177
 20
769.78152650324319
 30
0.0
 11
44.111208608593408
 21
770.76272679807494
 31
0.0
  0
LINE
  5
767
  8
0
 10
60.872453140363177
 20
749.7815265032433
 30
0.0
 11
46.896762158220099
 21
747.96153130677476
 31
0.0
  0
LINE
  5
768
  8
0
 10
60.872453140363177
 20
749.7815265032433
 30
0.0
 11
44.111208608593408
 21
748.80032620841166
 31
0.0
  0
ARC
  5
769
  8
0
 10
43.468371082628551
 20
759.7815265032433
 30
0.0
 40
10.999999999999989
 50
86.649738710458038
 51
273.35026128954189
  0
POLYLINE
  5
76A
  8
0
 10
47.814067810905705
 20
748.10148577012967
 30
0.0
 66
     1
 70
     8
  0
VERTEX
  8
0
  5
C39
 10
47.8141
 20
748.101
 30
0.000000
  70
    32
  0
VERTEX
  8
0
  5
C3A
 10
47.3702
 20
748.029
 30
0.000000
  70
    32
  0
VERTEX
  8
0
  5
C3B
 10
46.9237
 20
747.965
 30
0.000000
  70
    32
  0
VERTEX
  8
0
  5
C3C
 10
46.4751
 20
747.911
 30
0.000000
  70
    32
  0
VERTEX
  8
0
  5
C3D
 10
46.0245
 20
747.866
 30
0.000000
  70
    32
  0
VERTEX
  8
0
  5
C3E
 10
45.5724
 20
747.831
 30
0.000000
  70
    32
  0
VERTEX
  8
0
  5
C3F
 10
45.1192
 20
747.805
 30
0.000000
  70
    32
  0
VERTEX
  8
0
  5
C40
 10
44.6652
 20
747.789
 30
0.000000
  70
    32
  0
VERTEX
  8
0
  5
C41
 10
44.2107
 20
747.782
 30
0.000000
  70
    32
  0
VERTEX
  8
0
  5
C42
 10
43.7561
 20
747.784
 30
0.000000
  70
    32
  0
VERTEX
  8
0
  5
C43
 10
43.3019
 20
747.797
 30
0.000000
  70
    32
  0
VERTEX
  8
0
  5
C44
 10
42.8482
 20
747.818
 30
0.000000
  70
    32
  0
VERTEX
  8
0
  5
C45
 10
42.3956
 20
747.849
 30
0.000000
  70
    32
  0
VERTEX
  8
0
  5
C46
 10
41.9443
 20
747.890
 30
0.000000
  70
    32
  0
VERTEX
  8
0
  5
C47
 10
41.4948
 20
747.940
 30
0.000000
  70
    32
  0
VERTEX
  8
0
  5
C48
 10
41.0473
 20
748.000
 30
0.000000
  70
    32
  0
VERTEX
  8
0
  5
C49
 10
40.6023
 20
748.068
 30
0.000000
  70
    32
  0
VERTEX
  8
0
  5
C4A
 10
40.1600
 20
748.147
 30
0.000000
  70
    32
  0
VERTEX
  8
0
  5
C4B
 10
39.7209
 20
748.234
 30
0.000000
  70
    32
  0
VERTEX
  8
0
  5
C4C
 10
39.2852
 20
748.330
 30
0.000000
  70
    32
  0
VERTEX
  8
0
  5
C4D
 10
38.8534
 20
748.436
 30
0.000000
  70
    32
  0
VERTEX
  8
0
  5
C4E
 10
38.4257
 20
748.550
 30
0.000000
  70
    32
  0
VERTEX
  8
0
  5
C4F
 10
38.0026
 20
748.674
 30
0.000000
  70
    32
  0
VERTEX
  8
0
  5
C50
 10
37.5843
 20
748.806
 30
0.000000
  70
    32
  0
VERTEX
  8
0
  5
C51
 10
37.1712
 20
748.947
 30
0.000000
  70
    32
  0
VERTEX
  8
0
  5
C52
 10
36.7636
 20
749.097
 30
0.000000
  70
    32
  0
VERTEX
  8
0
  5
C53
 10
36.3618
 20
749.255
 30
0.000000
  70
    32
  0
VERTEX
  8
0
  5
C54
 10
35.9661
 20
749.421
 30
0.000000
  70
    32
  0
VERTEX
  8
0
  5
C55
 10
35.5769
 20
749.596
 30
0.000000
  70
    32
  0
VERTEX
  8
0
  5
C56
 10
35.1945
 20
749.778
 30
0.000000
  70
    32
  0
VERTEX
  8
0
  5
C57
 10
34.8191
 20
749.969
 30
0.000000
  70
    32
  0
VERTEX
  8
0
  5
C58
 10
34.4511
 20
750.167
 30
0.000000
  70
    32
  0
VERTEX
  8
0
  5
C59
 10
34.0908
 20
750.373
 30
0.000000
  70
    32
  0
VERTEX
  8
0
  5
C5A
 10
33.7384
 20
750.587
 30
0.000000
  70
    32
  0
VERTEX
  8
0
  5
C5B
 10
33.3943
 20
750.807
 30
0.000000
  70
    32
  0
VERTEX
  8
0
  5
C5C
 10
33.0586
 20
751.035
 30
0.000000
  70
    32
  0
VERTEX
  8
0
  5
C5D
 10
32.7317
 20
751.270
 30
0.000000
  70
    32
  0
VERTEX
  8
0
  5
C5E
 10
32.4138
 20
751.512
 30
0.000000
  70
    32
  0
VERTEX
  8
0
  5
C5F
 10
32.1053
 20
751.760
 30
0.000000
  70
    32
  0
VERTEX
  8
0
  5
C60
 10
31.8062
 20
752.014
 30
0.000000
  70
    32
  0
VERTEX
  8
0
  5
C61
 10
31.5169
 20
752.275
 30
0.000000
  70
    32
  0
VERTEX
  8
0
  5
C62
 10
31.2375
 20
752.541
 30
0.000000
  70
    32
  0
VERTEX
  8
0
  5
C63
 10
30.9684
 20
752.814
 30
0.000000
  70
    32
  0
VERTEX
  8
0
  5
C64
 10
30.7097
 20
753.092
 30
0.000000
  70
    32
  0
VERTEX
  8
0
  5
C65
 10
30.4616
 20
753.375
 30
0.000000
  70
    32
  0
VERTEX
  8
0
  5
C66
 10
30.2244
 20
753.663
 30
0.000000
  70
    32
  0
VERTEX
  8
0
  5
C67
 10
29.9981
 20
753.956
 30
0.000000
  70
    32
  0
VERTEX
  8
0
  5
C68
 10
29.7831
 20
754.254
 30
0.000000
  70
    32
  0
VERTEX
  8
0
  5
C69
 10
29.5794
 20
754.556
 30
0.000000
  70
    32
  0
VERTEX
  8
0
  5
C6A
 10
29.3872
 20
754.862
 30
0.000000
  70
    32
  0
VERTEX
  8
0
  5
C6B
 10
29.2067
 20
755.172
 30
0.000000
  70
    32
  0
VERTEX
  8
0
  5
C6C
 10
29.0380
 20
755.486
 30
0.000000
  70
    32
  0
VERTEX
  8
0
  5
C6D
 10
28.8813
 20
755.803
 30
0.000000
  70
    32
  0
VERTEX
  8
0
  5
C6E
 10
28.7367
 20
756.124
 30
0.000000
  70
    32
  0
VERTEX
  8
0
  5
C6F
 10
28.6042
 20
756.447
 30
0.000000
  70
    32
  0
VERTEX
  8
0
  5
C70
 10
28.4840
 20
756.773
 30
0.000000
  70
    32
  0
VERTEX
  8
0
  5
C71
 10
28.3763
 20
757.101
 30
0.000000
  70
    32
  0
VERTEX
  8
0
  5
C72
 10
28.2810
 20
757.431
 30
0.000000
  70
    32
  0
VERTEX
  8
0
  5
C73
 10
28.1982
 20
757.764
 30
0.000000
  70
    32
  0
VERTEX
  8
0
  5
C74
 10
28.1281
 20
758.098
 30
0.000000
  70
    32
  0
VERTEX
  8
0
  5
C75
 10
28.0707
 20
758.433
 30
0.000000
  70
    32
  0
VERTEX
  8
0
  5
C76
 10
28.0259
 20
758.769
 30
0.000000
  70
    32
  0
VERTEX
  8
0
  5
C77
 10
27.9940
 20
759.106
 30
0.000000
  70
    32
  0
VERTEX
  8
0
  5
C78
 10
27.9748
 20
759.444
 30
0.000000
  70
    32
  0
VERTEX
  8
0
  5
C79
 10
27.9684
 20
759.782
 30
0.000000
  70
    32
  0
VERTEX
  8
0
  5
C7A
 10
27.9748
 20
760.119
 30
0.000000
  70
    32
  0
VERTEX
  8
0
  5
C7B
 10
27.9940
 20
760.457
 30
0.000000
  70
    32
  0
VERTEX
  8
0
  5
C7C
 10
28.0259
 20
760.794
 30
0.000000
  70
    32
  0
VERTEX
  8
0
  5
C7D
 10
28.0707
 20
761.130
 30
0.000000
  70
    32
  0
VERTEX
  8
0
  5
C7E
 10
28.1281
 20
761.466
 30
0.000000
  70
    32
  0
VERTEX
  8
0
  5
C7F
 10
28.1982
 20
761.799
 30
0.000000
  70
    32
  0
VERTEX
  8
0
  5
C80
 10
28.2810
 20
762.132
 30
0.000000
  70
    32
  0
VERTEX
  8
0
  5
C81
 10
28.3763
 20
762.462
 30
0.000000
  70
    32
  0
VERTEX
  8
0
  5
C82
 10
28.4840
 20
762.790
 30
0.000000
  70
    32
  0
VERTEX
  8
0
  5
C83
 10
28.6042
 20
763.116
 30
0.000000
  70
    32
  0
VERTEX
  8
0
  5
C84
 10
28.7367
 20
763.439
 30
0.000000
  70
    32
  0
VERTEX
  8
0
  5
C85
 10
28.8813
 20
763.760
 30
0.000000
  70
    32
  0
VERTEX
  8
0
  5
C86
 10
29.0380
 20
764.077
 30
0.000000
  70
    32
  0
VERTEX
  8
0
  5
C87
 10
29.2067
 20
764.391
 30
0.000000
  70
    32
  0
VERTEX
  8
0
  5
C88
 10
29.3872
 20
764.701
 30
0.000000
  70
    32
  0
VERTEX
  8
0
  5
C89
 10
29.5794
 20
765.007
 30
0.000000
  70
    32
  0
VERTEX
  8
0
  5
C8A
 10
29.7831
 20
765.309
 30
0.000000
  70
    32
  0
VERTEX
  8
0
  5
C8B
 10
29.9981
 20
765.607
 30
0.000000
  70
    32
  0
VERTEX
  8
0
  5
C8C
 10
30.2244
 20
765.900
 30
0.000000
  70
    32
  0
VERTEX
  8
0
  5
C8D
 10
30.4616
 20
766.188
 30
0.000000
  70
    32
  0
VERTEX
  8
0
  5
C8E
 10
30.7097
 20
766.471
 30
0.000000
  70
    32
  0
VERTEX
  8
0
  5
C8F
 10
30.9684
 20
766.749
 30
0.000000
  70
    32
  0
VERTEX
  8
0
  5
C90
 10
31.2375
 20
767.022
 30
0.000000
  70
    32
  0
VERTEX
  8
0
  5
C91
 10
31.5169
 20
767.288
 30
0.000000
  70
    32
  0
VERTEX
  8
0
  5
C92
 10
31.8062
 20
767.549
 30
0.000000
  70
    32
  0
VERTEX
  8
0
  5
C93
 10
32.1053
 20
767.803
 30
0.000000
  70
    32
  0
VERTEX
  8
0
  5
C94
 10
32.4138
 20
768.051
 30
0.000000
  70
    32
  0
VERTEX
  8
0
  5
C95
 10
32.7317
 20
768.293
 30
0.000000
  70
    32
  0
VERTEX
  8
0
  5
C96
 10
33.0586
 20
768.528
 30
0.000000
  70
    32
  0
VERTEX
  8
0
  5
C97
 10
33.3943
 20
768.756
 30
0.000000
  70
    32
  0
VERTEX
  8
0
  5
C98
 10
33.7384
 20
768.976
 30
0.000000
  70
    32
  0
VERTEX
  8
0
  5
C99
 10
34.0908
 20
769.190
 30
0.000000
  70
    32
  0
VERTEX
  8
0
  5
C9A
 10
34.4511
 20
769.396
 30
0.000000
  70
    32
  0
VERTEX
  8
0
  5
C9B
 10
34.8191
 20
769.594
 30
0.000000
  70
    32
  0
VERTEX
  8
0
  5
C9C
 10
35.1945
 20
769.785
 30
0.000000
  70
    32
  0
VERTEX
  8
0
  5
C9D
 10
35.5769
 20
769.967
 30
0.000000
  70
    32
  0
VERTEX
  8
0
  5
C9E
 10
35.9661
 20
770.142
 30
0.000000
  70
    32
  0
VERTEX
  8
0
  5
C9F
 10
36.3618
 20
770.308
 30
0.000000
  70
    32
  0
VERTEX
  8
0
  5
CA0
 10
36.7636
 20
770.466
 30
0.000000
  70
    32
  0
VERTEX
  8
0
  5
CA1
 10
37.1712
 20
770.616
 30
0.000000
  70
    32
  0
VERTEX
  8
0
  5
CA2
 10
37.5843
 20
770.757
 30
0.000000
  70
    32
  0
VERTEX
  8
0
  5
CA3
 10
38.0026
 20
770.889
 30
0.000000
  70
    32
  0
VERTEX
  8
0
  5
CA4
 10
38.4257
 20
771.013
 30
0.000000
  70
    32
  0
VERTEX
  8
0
  5
CA5
 10
38.8534
 20
771.127
 30
0.000000
  70
    32
  0
VERTEX
  8
0
  5
CA6
 10
39.2852
 20
771.233
 30
0.000000
  70
    32
  0
VERTEX
  8
0
  5
CA7
 10
39.7209
 20
771.329
 30
0.000000
  70
    32
  0
VERTEX
  8
0
  5
CA8
 10
40.1600
 20
771.417
 30
0.000000
  70
    32
  0
VERTEX
  8
0
  5
CA9
 10
40.6023
 20
771.495
 30
0.000000
  70
    32
  0
VERTEX
  8
0
  5
CAA
 10
41.0473
 20
771.563
 30
0.000000
  70
    32
  0
VERTEX
  8
0
  5
CAB
 10
41.4948
 20
771.623
 30
0.000000
  70
    32
  0
VERTEX
  8
0
  5
CAC
 10
41.9443
 20
771.673
 30
0.000000
  70
    32
  0
VERTEX
  8
0
  5
CAD
 10
42.3956
 20
771.714
 30
0.000000
  70
    32
  0
VERTEX
  8
0
  5
CAE
 10
42.8482
 20
771.745
 30
0.000000
  70
    32
  0
VERTEX
  8
0
  5
CAF
 10
43.3019
 20
771.766
 30
0.000000
  70
    32
  0
VERTEX
  8
0
  5
CB0
 10
43.7561
 20
771.779
 30
0.000000
  70
    32
  0
VERTEX
  8
0
  5
CB1
 10
44.2107
 20
771.781
 30
0.000000
  70
    32
  0
VERTEX
  8
0
  5
CB2
 10
44.6652
 20
771.774
 30
0.000000
  70
    32
  0
VERTEX
  8
0
  5
CB3
 10
45.1192
 20
771.758
 30
0.000000
  70
    32
  0
VERTEX
  8
0
  5
CB4
 10
45.5724
 20
771.732
 30
0.000000
  70
    32
  0
VERTEX
  8
0
  5
CB5
 10
46.0245
 20
771.697
 30
0.000000
  70
    32
  0
VERTEX
  8
0
  5
CB6
 10
46.4751
 20
771.652
 30
0.000000
  70
    32
  0
VERTEX
  8
0
  5
CB7
 10
46.9237
 20
771.598
 30
0.000000
  70
    32
  0
VERTEX
  8
0
  5
CB8
 10
47.3702
 20
771.534
 30
0.000000
  70
    32
  0
VERTEX
  8
0
  5
CB9
 10
47.8141
 20
771.462
 30
0.000000
  70
    32
  0
SEQEND
  8
0
  5
CBA
  0
CIRCLE
  5
76B
  8
0
  6
DASHED
 10
43.468371082628551
 20
759.7815265032433
 30
0.0
 40
5.5
  0
LINE
  5
76C
  8
0
  6
CENTER
 10
43.468371082628551
 20
767.2815265032433
 30
0.0
 11
43.468371082628551
 21
752.28152650324319
 31
0.0
  0
CIRCLE
  5
76D
  8
0
 10
80.468371082628536
 20
759.7815265032433
 30
0.0
 40
17.5
  0
ARC
  5
771
  8
0
 10
80.468371082628536
 20
759.7815265032433
 30
0.0
 40
22.0
 50
152.9643082105876
 51
207.0356917894122
  0
ARC
  5
772
  8
0
 10
117.46837108262849
 20
759.7815265032433
 30
0.0
 40
10.999999999999989
 50
266.649738710458
 51
93.350261289541976
  0
POLYLINE
  5
773
  8
0
 10
113.12267435435137
 20
748.10148577012967
 30
0.0
 66
     1
 70
     8
  0
VERTEX
  8
0
  5
CBB
 10
113.123
 20
748.101
 30
0.000000
  70
    32
  0
VERTEX
  8
0
  5
CBC
 10
113.567
 20
748.029
 30
0.000000
  70
    32
  0
VERTEX
  8
0
  5
CBD
 10
114.013
 20
747.965
 30
0.000000
  70
    32
  0
VERTEX
  8
0
  5
CBE
 10
114.462
 20
747.911
 30
0.000000
  70
    32
  0
VERTEX
  8
0
  5
CBF
 10
114.912
 20
747.866
 30
0.000000
  70
    32
  0
VERTEX
  8
0
  5
CC0
 10
115.364
 20
747.831
 30
0.000000
  70
    32
  0
VERTEX
  8
0
  5
CC1
 10
115.818
 20
747.805
 30
0.000000
  70
    32
  0
VERTEX
  8
0
  5
CC2
 10
116.272
 20
747.789
 30
0.000000
  70
    32
  0
VERTEX
  8
0
  5
CC3
 10
116.726
 20
747.782
 30
0.000000
  70
    32
  0
VERTEX
  8
0
  5
CC4
 10
117.181
 20
747.784
 30
0.000000
  70
    32
  0
VERTEX
  8
0
  5
CC5
 10
117.635
 20
747.797
 30
0.000000
  70
    32
  0
VERTEX
  8
0
  5
CC6
 10
118.089
 20
747.818
 30
0.000000
  70
    32
  0
VERTEX
  8
0
  5
CC7
 10
118.541
 20
747.849
 30
0.000000
  70
    32
  0
VERTEX
  8
0
  5
CC8
 10
118.992
 20
747.890
 30
0.000000
  70
    32
  0
VERTEX
  8
0
  5
CC9
 10
119.442
 20
747.940
 30
0.000000
  70
    32
  0
VERTEX
  8
0
  5
CCA
 10
119.889
 20
748.000
 30
0.000000
  70
    32
  0
VERTEX
  8
0
  5
CCB
 10
120.334
 20
748.068
 30
0.000000
  70
    32
  0
VERTEX
  8
0
  5
CCC
 10
120.777
 20
748.147
 30
0.000000
  70
    32
  0
VERTEX
  8
0
  5
CCD
 10
121.216
 20
748.234
 30
0.000000
  70
    32
  0
VERTEX
  8
0
  5
CCE
 10
121.652
 20
748.330
 30
0.000000
  70
    32
  0
VERTEX
  8
0
  5
CCF
 10
122.083
 20
748.436
 30
0.000000
  70
    32
  0
VERTEX
  8
0
  5
CD0
 10
122.511
 20
748.550
 30
0.000000
  70
    32
  0
VERTEX
  8
0
  5
CD1
 10
122.934
 20
748.674
 30
0.000000
  70
    32
  0
VERTEX
  8
0
  5
CD2
 10
123.352
 20
748.806
 30
0.000000
  70
    32
  0
VERTEX
  8
0
  5
CD3
 10
123.766
 20
748.947
 30
0.000000
  70
    32
  0
VERTEX
  8
0
  5
CD4
 10
124.173
 20
749.097
 30
0.000000
  70
    32
  0
VERTEX
  8
0
  5
CD5
 10
124.575
 20
749.255
 30
0.000000
  70
    32
  0
VERTEX
  8
0
  5
CD6
 10
124.971
 20
749.421
 30
0.000000
  70
    32
  0
VERTEX
  8
0
  5
CD7
 10
125.360
 20
749.596
 30
0.000000
  70
    32
  0
VERTEX
  8
0
  5
CD8
 10
125.742
 20
749.778
 30
0.000000
  70
    32
  0
VERTEX
  8
0
  5
CD9
 10
126.118
 20
749.969
 30
0.000000
  70
    32
  0
VERTEX
  8
0
  5
CDA
 10
126.486
 20
750.167
 30
0.000000
  70
    32
  0
VERTEX
  8
0
  5
CDB
 10
126.846
 20
750.373
 30
0.000000
  70
    32
  0
VERTEX
  8
0
  5
CDC
 10
127.198
 20
750.587
 30
0.000000
  70
    32
  0
VERTEX
  8
0
  5
CDD
 10
127.542
 20
750.807
 30
0.000000
  70
    32
  0
VERTEX
  8
0
  5
CDE
 10
127.878
 20
751.035
 30
0.000000
  70
    32
  0
VERTEX
  8
0
  5
CDF
 10
128.205
 20
751.270
 30
0.000000
  70
    32
  0
VERTEX
  8
0
  5
CE0
 10
128.523
 20
751.512
 30
0.000000
  70
    32
  0
VERTEX
  8
0
  5
CE1
 10
128.831
 20
751.760
 30
0.000000
  70
    32
  0
VERTEX
  8
0
  5
CE2
 10
129.131
 20
752.014
 30
0.000000
  70
    32
  0
VERTEX
  8
0
  5
CE3
 10
129.420
 20
752.275
 30
0.000000
  70
    32
  0
VERTEX
  8
0
  5
CE4
 10
129.699
 20
752.541
 30
0.000000
  70
    32
  0
VERTEX
  8
0
  5
CE5
 10
129.968
 20
752.814
 30
0.000000
  70
    32
  0
VERTEX
  8
0
  5
CE6
 10
130.227
 20
753.092
 30
0.000000
  70
    32
  0
VERTEX
  8
0
  5
CE7
 10
130.475
 20
753.375
 30
0.000000
  70
    32
  0
VERTEX
  8
0
  5
CE8
 10
130.712
 20
753.663
 30
0.000000
  70
    32
  0
VERTEX
  8
0
  5
CE9
 10
130.939
 20
753.956
 30
0.000000
  70
    32
  0
VERTEX
  8
0
  5
CEA
 10
131.154
 20
754.254
 30
0.000000
  70
    32
  0
VERTEX
  8
0
  5
CEB
 10
131.357
 20
754.556
 30
0.000000
  70
    32
  0
VERTEX
  8
0
  5
CEC
 10
131.550
 20
754.862
 30
0.000000
  70
    32
  0
VERTEX
  8
0
  5
CED
 10
131.730
 20
755.172
 30
0.000000
  70
    32
  0
VERTEX
  8
0
  5
CEE
 10
131.899
 20
755.486
 30
0.000000
  70
    32
  0
VERTEX
  8
0
  5
CEF
 10
132.055
 20
755.803
 30
0.000000
  70
    32
  0
VERTEX
  8
0
  5
CF0
 10
132.200
 20
756.124
 30
0.000000
  70
    32
  0
VERTEX
  8
0
  5
CF1
 10
132.333
 20
756.447
 30
0.000000
  70
    32
  0
VERTEX
  8
0
  5
CF2
 10
132.453
 20
756.773
 30
0.000000
  70
    32
  0
VERTEX
  8
0
  5
CF3
 10
132.560
 20
757.101
 30
0.000000
  70
    32
  0
VERTEX
  8
0
  5
CF4
 10
132.656
 20
757.431
 30
0.000000
  70
    32
  0
VERTEX
  8
0
  5
CF5
 10
132.739
 20
757.764
 30
0.000000
  70
    32
  0
VERTEX
  8
0
  5
CF6
 10
132.809
 20
758.098
 30
0.000000
  70
    32
  0
VERTEX
  8
0
  5
CF7
 10
132.866
 20
758.433
 30
0.000000
  70
    32
  0
VERTEX
  8
0
  5
CF8
 10
132.911
 20
758.769
 30
0.000000
  70
    32
  0
VERTEX
  8
0
  5
CF9
 10
132.943
 20
759.106
 30
0.000000
  70
    32
  0
VERTEX
  8
0
  5
CFA
 10
132.962
 20
759.444
 30
0.000000
  70
    32
  0
VERTEX
  8
0
  5
CFB
 10
132.968
 20
759.782
 30
0.000000
  70
    32
  0
VERTEX
  8
0
  5
CFC
 10
132.962
 20
760.119
 30
0.000000
  70
    32
  0
VERTEX
  8
0
  5
CFD
 10
132.943
 20
760.457
 30
0.000000
  70
    32
  0
VERTEX
  8
0
  5
CFE
 10
132.911
 20
760.794
 30
0.000000
  70
    32
  0
VERTEX
  8
0
  5
CFF
 10
132.866
 20
761.130
 30
0.000000
  70
    32
  0
VERTEX
  8
0
  5
D00
 10
132.809
 20
761.466
 30
0.000000
  70
    32
  0
VERTEX
  8
0
  5
D01
 10
132.739
 20
761.799
 30
0.000000
  70
    32
  0
VERTEX
  8
0
  5
D02
 10
132.656
 20
762.132
 30
0.000000
  70
    32
  0
VERTEX
  8
0
  5
D03
 10
132.560
 20
762.462
 30
0.000000
  70
    32
  0
VERTEX
  8
0
  5
D04
 10
132.453
 20
762.790
 30
0.000000
  70
    32
  0
VERTEX
  8
0
  5
D05
 10
132.333
 20
763.116
 30
0.000000
  70
    32
  0
VERTEX
  8
0
  5
D06
 10
132.200
 20
763.439
 30
0.000000
  70
    32
  0
VERTEX
  8
0
  5
D07
 10
132.055
 20
763.760
 30
0.000000
  70
    32
  0
VERTEX
  8
0
  5
D08
 10
131.899
 20
764.077
 30
0.000000
  70
    32
  0
VERTEX
  8
0
  5
D09
 10
131.730
 20
764.391
 30
0.000000
  70
    32
  0
VERTEX
  8
0
  5
D0A
 10
131.550
 20
764.701
 30
0.000000
  70
    32
  0
VERTEX
  8
0
  5
D0B
 10
131.357
 20
765.007
 30
0.000000
  70
    32
  0
VERTEX
  8
0
  5
D0C
 10
131.154
 20
765.309
 30
0.000000
  70
    32
  0
VERTEX
  8
0
  5
D0D
 10
130.939
 20
765.607
 30
0.000000
  70
    32
  0
VERTEX
  8
0
  5
D0E
 10
130.712
 20
765.900
 30
0.000000
  70
    32
  0
VERTEX
  8
0
  5
D0F
 10
130.475
 20
766.188
 30
0.000000
  70
    32
  0
VERTEX
  8
0
  5
D10
 10
130.227
 20
766.471
 30
0.000000
  70
    32
  0
VERTEX
  8
0
  5
D11
 10
129.968
 20
766.749
 30
0.000000
  70
    32
  0
VERTEX
  8
0
  5
D12
 10
129.699
 20
767.022
 30
0.000000
  70
    32
  0
VERTEX
  8
0
  5
D13
 10
129.420
 20
767.288
 30
0.000000
  70
    32
  0
VERTEX
  8
0
  5
D14
 10
129.131
 20
767.549
 30
0.000000
  70
    32
  0
VERTEX
  8
0
  5
D15
 10
128.831
 20
767.803
 30
0.000000
  70
    32
  0
VERTEX
  8
0
  5
D16
 10
128.523
 20
768.051
 30
0.000000
  70
    32
  0
VERTEX
  8
0
  5
D17
 10
128.205
 20
768.293
 30
0.000000
  70
    32
  0
VERTEX
  8
0
  5
D18
 10
127.878
 20
768.528
 30
0.000000
  70
    32
  0
VERTEX
  8
0
  5
D19
 10
127.542
 20
768.756
 30
0.000000
  70
    32
  0
VERTEX
  8
0
  5
D1A
 10
127.198
 20
768.976
 30
0.000000
  70
    32
  0
VERTEX
  8
0
  5
D1B
 10
126.846
 20
769.190
 30
0.000000
  70
    32
  0
VERTEX
  8
0
  5
D1C
 10
126.486
 20
769.396
 30
0.000000
  70
    32
  0
VERTEX
  8
0
  5
D1D
 10
126.118
 20
769.594
 30
0.000000
  70
    32
  0
VERTEX
  8
0
  5
D1E
 10
125.742
 20
769.785
 30
0.000000
  70
    32
  0
VERTEX
  8
0
  5
D1F
 10
125.360
 20
769.967
 30
0.000000
  70
    32
  0
VERTEX
  8
0
  5
D20
 10
124.971
 20
770.142
 30
0.000000
  70
    32
  0
VERTEX
  8
0
  5
D21
 10
124.575
 20
770.308
 30
0.000000
  70
    32
  0
VERTEX
  8
0
  5
D22
 10
124.173
 20
770.466
 30
0.000000
  70
    32
  0
VERTEX
  8
0
  5
D23
 10
123.766
 20
770.616
 30
0.000000
  70
    32
  0
VERTEX
  8
0
  5
D24
 10
123.352
 20
770.757
 30
0.000000
  70
    32
  0
VERTEX
  8
0
  5
D25
 10
122.934
 20
770.889
 30
0.000000
  70
    32
  0
VERTEX
  8
0
  5
D26
 10
122.511
 20
771.013
 30
0.000000
  70
    32
  0
VERTEX
  8
0
  5
D27
 10
122.083
 20
771.127
 30
0.000000
  70
    32
  0
VERTEX
  8
0
  5
D28
 10
121.652
 20
771.233
 30
0.000000
  70
    32
  0
VERTEX
  8
0
  5
D29
 10
121.216
 20
771.329
 30
0.000000
  70
    32
  0
VERTEX
  8
0
  5
D2A
 10
120.777
 20
771.417
 30
0.000000
  70
    32
  0
VERTEX
  8
0
  5
D2B
 10
120.334
 20
771.495
 30
0.000000
  70
    32
  0
VERTEX
  8
0
  5
D2C
 10
119.889
 20
771.563
 30
0.000000
  70
    32
  0
VERTEX
  8
0
  5
D2D
 10
119.442
 20
771.623
 30
0.000000
  70
    32
  0
VERTEX
  8
0
  5
D2E
 10
118.992
 20
771.673
 30
0.000000
  70
    32
  0
VERTEX
  8
0
  5
D2F
 10
118.541
 20
771.714
 30
0.000000
  70
    32
  0
VERTEX
  8
0
  5
D30
 10
118.089
 20
771.745
 30
0.000000
  70
    32
  0
VERTEX
  8
0
  5
D31
 10
117.635
 20
771.766
 30
0.000000
  70
    32
  0
VERTEX
  8
0
  5
D32
 10
117.181
 20
771.779
 30
0.000000
  70
    32
  0
VERTEX
  8
0
  5
D33
 10
116.726
 20
771.781
 30
0.000000
  70
    32
  0
VERTEX
  8
0
  5
D34
 10
116.272
 20
771.774
 30
0.000000
  70
    32
  0
VERTEX
  8
0
  5
D35
 10
115.818
 20
771.758
 30
0.000000
  70
    32
  0
VERTEX
  8
0
  5
D36
 10
115.364
 20
771.732
 30
0.000000
  70
    32
  0
VERTEX
  8
0
  5
D37
 10
114.912
 20
771.697
 30
0.000000
  70
    32
  0
VERTEX
  8
0
  5
D38
 10
114.462
 20
771.652
 30
0.000000
  70
    32
  0
VERTEX
  8
0
  5
D39
 10
114.013
 20
771.598
 30
0.000000
  70
    32
  0
VERTEX
  8
0
  5
D3A
 10
113.567
 20
771.534
 30
0.000000
  70
    32
  0
VERTEX
  8
0
  5
D3B
 10
113.123
 20
771.462
 30
0.000000
  70
    32
  0
SEQEND
  8
0
  5
D3C
  0
CIRCLE
  5
774
  8
0
  6
DASHED
 10
117.46837108262849
 20
759.7815265032433
 30
0.0
 40
5.5
  0
LINE
  5
775
  8
0
  6
CENTER
 10
117.46837108262849
 20
767.2815265032433
 30
0.0
 11
117.46837108262849
 21
752.28152650324319
 31
0.0
  0
CIRCLE
  5
776
  8
0
 10
80.468371082628536
 20
759.7815265032433
 30
0.0
 40
10.0
  0
ARC
  5
777
  8
0
 10
80.468371082628536
 20
759.7815265032433
 30
0.0
 40
8.75
 50
90.0
 51
0.0
  0
LINE
  5
7B9
  8
0
  6
CENTER
 10
246.35848188349371
 20
759.7815265032433
 30
0.0
 11
386.35848188349371
 21
759.7815265032433
 31
0.0
  0
CIRCLE
  5
7BB
  8
0
 10
316.35848188349371
 20
759.78152650324319
 30
0.0
 40
65.0
  0
LINE
  5
7BD
  8
0
  6
CENTER
 10
316.35848188349371
 20
829.78152650324307
 30
0.0
 11
316.35848188349371
 21
689.78152650324319
 31
0.0
  0
POLYLINE
  5
7BE
  8
0
 66
     1
 10
0.0
 20
0.0
 30
0.0
 70
     1
  0
VERTEX
  5
B2E
  8
0
 10
311.4510045953819
 20
768.2815265032433
 30
0.0
  0
VERTEX
  5
B2F
  8
0
 10
306.5435273072701
 20
759.7815265032433
 30
0.0
  0
VERTEX
  5
B30
  8
0
 10
311.4510045953819
 20
751.2815265032433
 30
0.0
  0
VERTEX
  5
B31
  8
0
 10
321.26595917160552
 20
751.2815265032433
 30
0.0
  0
VERTEX
  5
B32
  8
0
 10
326.17343645971732
 20
759.7815265032433
 30
0.0
  0
VERTEX
  5
B33
  8
0
 10
321.26595917160552
 20
768.2815265032433
 30
0.0
  0
SEQEND
  5
B34
  8
0
  0
CIRCLE
  5
7BF
  8
0
 10
316.35848188349371
 20
759.7815265032433
 30
0.0
 40
8.0
  0
ARC
  5
7C0
  8
0
 10
316.35848188349371
 20
759.7815265032433
 30
0.0
 40
7.0
 50
90.0
 51
0.0
  0
CIRCLE
  5
7C1
  8
0
 10
316.35848188349371
 20
759.7815265032433
 30
0.0
 40
20.0
  0
ARC
  5
805
  8
0
 10
365.85848188349371
 20
759.7815265032433
 30
0.0
 40
10.0
 50
268.83844414496622
 51
91.16155585503374
  0
ARC
  5
806
  8
0
 10
316.35848188349371
 20
759.7815265032433
 30
0.0
 40
26.5
 50
338.99247458018181
 51
21.007525419818109
  0
LINE
  5
808
  8
0
 10
341.09711563719969
 20
769.28152650324319
 30
0.0
 11
365.65576602881367
 21
769.77947160622625
 31
0.0
  0
LINE
  5
809
  8
0
 10
341.09711563719969
 20
750.2815265032433
 30
0.0
 11
365.65576602881367
 21
749.78358140026035
 31
0.0
  0
POLYLINE
  5
810
  8
0
 10
362.04859800996115
 20
748.4957564553722
 30
0.0
 66
     1
 70
     8
  0
VERTEX
  8
0
  5
D3D
 10
362.049
 20
748.496
 30
0.000000
  70
    32
  0
VERTEX
  8
0
  5
D3E
 10
362.491
 20
748.445
 30
0.000000
  70
    32
  0
VERTEX
  8
0
  5
D3F
 10
362.936
 20
748.404
 30
0.000000
  70
    32
  0
VERTEX
  8
0
  5
D40
 10
363.382
 20
748.370
 30
0.000000
  70
    32
  0
VERTEX
  8
0
  5
D41
 10
363.829
 20
748.345
 30
0.000000
  70
    32
  0
VERTEX
  8
0
  5
D42
 10
364.277
 20
748.329
 30
0.000000
  70
    32
  0
VERTEX
  8
0
  5
D43
 10
364.726
 20
748.321
 30
0.000000
  70
    32
  0
VERTEX
  8
0
  5
D44
 10
365.174
 20
748.322
 30
0.000000
  70
    32
  0
VERTEX
  8
0
  5
D45
 10
365.622
 20
748.331
 30
0.000000
  70
    32
  0
VERTEX
  8
0
  5
D46
 10
366.070
 20
748.349
 30
0.000000
  70
    32
  0
VERTEX
  8
0
  5
D47
 10
366.517
 20
748.375
 30
0.000000
  70
    32
  0
VERTEX
  8
0
  5
D48
 10
366.963
 20
748.410
 30
0.000000
  70
    32
  0
VERTEX
  8
0
  5
D49
 10
367.407
 20
748.453
 30
0.000000
  70
    32
  0
VERTEX
  8
0
  5
D4A
 10
367.850
 20
748.504
 30
0.000000
  70
    32
  0
VERTEX
  8
0
  5
D4B
 10
368.290
 20
748.564
 30
0.000000
  70
    32
  0
VERTEX
  8
0
  5
D4C
 10
368.728
 20
748.633
 30
0.000000
  70
    32
  0
VERTEX
  8
0
  5
D4D
 10
369.163
 20
748.709
 30
0.000000
  70
    32
  0
VERTEX
  8
0
  5
D4E
 10
369.595
 20
748.794
 30
0.000000
  70
    32
  0
VERTEX
  8
0
  5
D4F
 10
370.023
 20
748.887
 30
0.000000
  70
    32
  0
VERTEX
  8
0
  5
D50
 10
370.447
 20
748.988
 30
0.000000
  70
    32
  0
VERTEX
  8
0
  5
D51
 10
370.868
 20
749.098
 30
0.000000
  70
    32
  0
VERTEX
  8
0
  5
D52
 10
371.284
 20
749.215
 30
0.000000
  70
    32
  0
VERTEX
  8
0
  5
D53
 10
371.695
 20
749.340
 30
0.000000
  70
    32
  0
VERTEX
  8
0
  5
D54
 10
372.101
 20
749.473
 30
0.000000
  70
    32
  0
VERTEX
  8
0
  5
D55
 10
372.502
 20
749.613
 30
0.000000
  70
    32
  0
VERTEX
  8
0
  5
D56
 10
372.897
 20
749.761
 30
0.000000
  70
    32
  0
VERTEX
  8
0
  5
D57
 10
373.286
 20
749.917
 30
0.000000
  70
    32
  0
VERTEX
  8
0
  5
D58
 10
373.669
 20
750.079
 30
0.000000
  70
    32
  0
VERTEX
  8
0
  5
D59
 10
374.045
 20
750.250
 30
0.000000
  70
    32
  0
VERTEX
  8
0
  5
D5A
 10
374.415
 20
750.427
 30
0.000000
  70
    32
  0
VERTEX
  8
0
  5
D5B
 10
374.778
 20
750.611
 30
0.000000
  70
    32
  0
VERTEX
  8
0
  5
D5C
 10
375.133
 20
750.802
 30
0.000000
  70
    32
  0
VERTEX
  8
0
  5
D5D
 10
375.480
 20
750.999
 30
0.000000
  70
    32
  0
VERTEX
  8
0
  5
D5E
 10
375.820
 20
751.203
 30
0.000000
  70
    32
  0
VERTEX
  8
0
  5
D5F
 10
376.152
 20
751.414
 30
0.000000
  70
    32
  0
VERTEX
  8
0
  5
D60
 10
376.475
 20
751.631
 30
0.000000
  70
    32
  0
VERTEX
  8
0
  5
D61
 10
376.790
 20
751.854
 30
0.000000
  70
    32
  0
VERTEX
  8
0
  5
D62
 10
377.096
 20
752.082
 30
0.000000
  70
    32
  0
VERTEX
  8
0
  5
D63
 10
377.392
 20
752.317
 30
0.000000
  70
    32
  0
VERTEX
  8
0
  5
D64
 10
377.680
 20
752.557
 30
0.000000
  70
    32
  0
VERTEX
  8
0
  5
D65
 10
377.958
 20
752.802
 30
0.000000
  70
    32
  0
VERTEX
  8
0
  5
D66
 10
378.226
 20
753.053
 30
0.000000
  70
    32
  0
VERTEX
  8
0
  5
D67
 10
378.485
 20
753.308
 30
0.000000
  70
    32
  0
VERTEX
  8
0
  5
D68
 10
378.733
 20
753.569
 30
0.000000
  70
    32
  0
VERTEX
  8
0
  5
D69
 10
378.971
 20
753.834
 30
0.000000
  70
    32
  0
VERTEX
  8
0
  5
D6A
 10
379.198
 20
754.103
 30
0.000000
  70
    32
  0
VERTEX
  8
0
  5
D6B
 10
379.415
 20
754.377
 30
0.000000
  70
    32
  0
VERTEX
  8
0
  5
D6C
 10
379.622
 20
754.655
 30
0.000000
  70
    32
  0
VERTEX
  8
0
  5
D6D
 10
379.817
 20
754.936
 30
0.000000
  70
    32
  0
VERTEX
  8
0
  5
D6E
 10
380.001
 20
755.221
 30
0.000000
  70
    32
  0
VERTEX
  8
0
  5
D6F
 10
380.174
 20
755.510
 30
0.000000
  70
    32
  0
VERTEX
  8
0
  5
D70
 10
380.335
 20
755.801
 30
0.000000
  70
    32
  0
VERTEX
  8
0
  5
D71
 10
380.485
 20
756.096
 30
0.000000
  70
    32
  0
VERTEX
  8
0
  5
D72
 10
380.624
 20
756.393
 30
0.000000
  70
    32
  0
VERTEX
  8
0
  5
D73
 10
380.750
 20
756.693
 30
0.000000
  70
    32
  0
VERTEX
  8
0
  5
D74
 10
380.865
 20
756.996
 30
0.000000
  70
    32
  0
VERTEX
  8
0
  5
D75
 10
380.968
 20
757.300
 30
0.000000
  70
    32
  0
VERTEX
  8
0
  5
D76
 10
381.060
 20
757.606
 30
0.000000
  70
    32
  0
VERTEX
  8
0
  5
D77
 10
381.139
 20
757.914
 30
0.000000
  70
    32
  0
VERTEX
  8
0
  5
D78
 10
381.206
 20
758.223
 30
0.000000
  70
    32
  0
VERTEX
  8
0
  5
D79
 10
381.261
 20
758.533
 30
0.000000
  70
    32
  0
VERTEX
  8
0
  5
D7A
 10
381.303
 20
758.845
 30
0.000000
  70
    32
  0
VERTEX
  8
0
  5
D7B
 10
381.334
 20
759.156
 30
0.000000
  70
    32
  0
VERTEX
  8
0
  5
D7C
 10
381.352
 20
759.469
 30
0.000000
  70
    32
  0
VERTEX
  8
0
  5
D7D
 10
381.358
 20
759.782
 30
0.000000
  70
    32
  0
VERTEX
  8
0
  5
D7E
 10
381.352
 20
760.094
 30
0.000000
  70
    32
  0
VERTEX
  8
0
  5
D7F
 10
381.334
 20
760.407
 30
0.000000
  70
    32
  0
VERTEX
  8
0
  5
D80
 10
381.303
 20
760.719
 30
0.000000
  70
    32
  0
VERTEX
  8
0
  5
D81
 10
381.261
 20
761.030
 30
0.000000
  70
    32
  0
VERTEX
  8
0
  5
D82
 10
381.206
 20
761.340
 30
0.000000
  70
    32
  0
VERTEX
  8
0
  5
D83
 10
381.139
 20
761.649
 30
0.000000
  70
    32
  0
VERTEX
  8
0
  5
D84
 10
381.060
 20
761.957
 30
0.000000
  70
    32
  0
VERTEX
  8
0
  5
D85
 10
380.968
 20
762.263
 30
0.000000
  70
    32
  0
VERTEX
  8
0
  5
D86
 10
380.865
 20
762.567
 30
0.000000
  70
    32
  0
VERTEX
  8
0
  5
D87
 10
380.750
 20
762.870
 30
0.000000
  70
    32
  0
VERTEX
  8
0
  5
D88
 10
380.624
 20
763.170
 30
0.000000
  70
    32
  0
VERTEX
  8
0
  5
D89
 10
380.485
 20
763.467
 30
0.000000
  70
    32
  0
VERTEX
  8
0
  5
D8A
 10
380.335
 20
763.762
 30
0.000000
  70
    32
  0
VERTEX
  8
0
  5
D8B
 10
380.174
 20
764.053
 30
0.000000
  70
    32
  0
VERTEX
  8
0
  5
D8C
 10
380.001
 20
764.342
 30
0.000000
  70
    32
  0
VERTEX
  8
0
  5
D8D
 10
379.817
 20
764.627
 30
0.000000
  70
    32
  0
VERTEX
  8
0
  5
D8E
 10
379.622
 20
764.908
 30
0.000000
  70
    32
  0
VERTEX
  8
0
  5
D8F
 10
379.415
 20
765.186
 30
0.000000
  70
    32
  0
VERTEX
  8
0
  5
D90
 10
379.198
 20
765.460
 30
0.000000
  70
    32
  0
VERTEX
  8
0
  5
D91
 10
378.971
 20
765.729
 30
0.000000
  70
    32
  0
VERTEX
  8
0
  5
D92
 10
378.733
 20
765.994
 30
0.000000
  70
    32
  0
VERTEX
  8
0
  5
D93
 10
378.485
 20
766.255
 30
0.000000
  70
    32
  0
VERTEX
  8
0
  5
D94
 10
378.226
 20
766.510
 30
0.000000
  70
    32
  0
VERTEX
  8
0
  5
D95
 10
377.958
 20
766.761
 30
0.000000
  70
    32
  0
VERTEX
  8
0
  5
D96
 10
377.680
 20
767.006
 30
0.000000
  70
    32
  0
VERTEX
  8
0
  5
D97
 10
377.392
 20
767.246
 30
0.000000
  70
    32
  0
VERTEX
  8
0
  5
D98
 10
377.096
 20
767.481
 30
0.000000
  70
    32
  0
VERTEX
  8
0
  5
D99
 10
376.790
 20
767.709
 30
0.000000
  70
    32
  0
VERTEX
  8
0
  5
D9A
 10
376.475
 20
767.932
 30
0.000000
  70
    32
  0
VERTEX
  8
0
  5
D9B
 10
376.152
 20
768.149
 30
0.000000
  70
    32
  0
VERTEX
  8
0
  5
D9C
 10
375.820
 20
768.360
 30
0.000000
  70
    32
  0
VERTEX
  8
0
  5
D9D
 10
375.480
 20
768.564
 30
0.000000
  70
    32
  0
VERTEX
  8
0
  5
D9E
 10
375.133
 20
768.761
 30
0.000000
  70
    32
  0
VERTEX
  8
0
  5
D9F
 10
374.778
 20
768.952
 30
0.000000
  70
    32
  0
VERTEX
  8
0
  5
DA0
 10
374.415
 20
769.136
 30
0.000000
  70
    32
  0
VERTEX
  8
0
  5
DA1
 10
374.045
 20
769.314
 30
0.000000
  70
    32
  0
VERTEX
  8
0
  5
DA2
 10
373.669
 20
769.484
 30
0.000000
  70
    32
  0
VERTEX
  8
0
  5
DA3
 10
373.286
 20
769.646
 30
0.000000
  70
    32
  0
VERTEX
  8
0
  5
DA4
 10
372.897
 20
769.802
 30
0.000000
  70
    32
  0
VERTEX
  8
0
  5
DA5
 10
372.502
 20
769.950
 30
0.000000
  70
    32
  0
VERTEX
  8
0
  5
DA6
 10
372.101
 20
770.090
 30
0.000000
  70
    32
  0
VERTEX
  8
0
  5
DA7
 10
371.695
 20
770.223
 30
0.000000
  70
    32
  0
VERTEX
  8
0
  5
DA8
 10
371.284
 20
770.348
 30
0.000000
  70
    32
  0
VERTEX
  8
0
  5
DA9
 10
370.868
 20
770.465
 30
0.000000
  70
    32
  0
VERTEX
  8
0
  5
DAA
 10
370.447
 20
770.575
 30
0.000000
  70
    32
  0
VERTEX
  8
0
  5
DAB
 10
370.023
 20
770.676
 30
0.000000
  70
    32
  0
VERTEX
  8
0
  5
DAC
 10
369.595
 20
770.769
 30
0.000000
  70
    32
  0
VERTEX
  8
0
  5
DAD
 10
369.163
 20
770.854
 30
0.000000
  70
    32
  0
VERTEX
  8
0
  5
DAE
 10
368.728
 20
770.930
 30
0.000000
  70
    32
  0
VERTEX
  8
0
  5
DAF
 10
368.290
 20
770.999
 30
0.000000
  70
    32
  0
VERTEX
  8
0
  5
DB0
 10
367.850
 20
771.059
 30
0.000000
  70
    32
  0
VERTEX
  8
0
  5
DB1
 10
367.407
 20
771.110
 30
0.000000
  70
    32
  0
VERTEX
  8
0
  5
DB2
 10
366.963
 20
771.153
 30
0.000000
  70
    32
  0
VERTEX
  8
0
  5
DB3
 10
366.517
 20
771.188
 30
0.000000
  70
    32
  0
VERTEX
  8
0
  5
DB4
 10
366.070
 20
771.214
 30
0.000000
  70
    32
  0
VERTEX
  8
0
  5
DB5
 10
365.622
 20
771.232
 30
0.000000
  70
    32
  0
VERTEX
  8
0
  5
DB6
 10
365.174
 20
771.241
 30
0.000000
  70
    32
  0
VERTEX
  8
0
  5
DB7
 10
364.726
 20
771.242
 30
0.000000
  70
    32
  0
VERTEX
  8
0
  5
DB8
 10
364.277
 20
771.234
 30
0.000000
  70
    32
  0
VERTEX
  8
0
  5
DB9
 10
363.829
 20
771.218
 30
0.000000
  70
    32
  0
VERTEX
  8
0
  5
DBA
 10
363.382
 20
771.193
 30
0.000000
  70
    32
  0
VERTEX
  8
0
  5
DBB
 10
362.936
 20
771.159
 30
0.000000
  70
    32
  0
VERTEX
  8
0
  5
DBC
 10
362.491
 20
771.118
 30
0.000000
  70
    32
  0
VERTEX
  8
0
  5
DBD
 10
362.049
 20
771.067
 30
0.000000
  70
    32
  0
SEQEND
  8
0
  5
DBE
  0
LINE
  5
811
  8
0
 10
341.09711563719969
 20
769.28152650324319
 30
0.0
 11
362.90126280947823
 21
771.15649316201007
 31
0.0
  0
LINE
  5
812
  8
0
 10
341.09711563719969
 20
750.2815265032433
 30
0.0
 11
362.90126280947823
 21
748.40655984447653
 31
0.0
  0
LINE
  5
813
  8
0
 10
291.61984812978773
 20
750.2815265032433
 30
0.0
 11
269.81570095750908
 21
748.40655984447653
 31
0.0
  0
LINE
  5
814
  8
0
 10
291.61984812978773
 20
769.28152650324319
 30
0.0
 11
269.81570095750908
 21
771.15649316201007
 31
0.0
  0
ARC
  5
815
  8
0
 10
266.85848188349371
 20
759.7815265032433
 30
0.0
 40
10.0
 50
88.838444144966275
 51
271.16155585503373
  0
LINE
  5
816
  8
0
 10
291.61984812978773
 20
750.2815265032433
 30
0.0
 11
267.06119773817358
 21
749.78358140026035
 31
0.0
  0
LINE
  5
817
  8
0
 10
291.61984812978773
 20
769.28152650324319
 30
0.0
 11
267.06119773817358
 21
769.77947160622625
 31
0.0
  0
ARC
  5
818
  8
0
 10
316.35848188349371
 20
759.7815265032433
 30
0.0
 40
26.5
 50
158.99247458018181
 51
201.00752541981811
  0
POLYLINE
  5
819
  8
0
 10
270.66836575702615
 20
748.4957564553722
 30
0.0
 66
     1
 70
     8
  0
VERTEX
  8
0
  5
DBF
 10
270.668
 20
748.496
 30
0.000000
  70
    32
  0
VERTEX
  8
0
  5
DC0
 10
270.226
 20
748.445
 30
0.000000
  70
    32
  0
VERTEX
  8
0
  5
DC1
 10
269.781
 20
748.404
 30
0.000000
  70
    32
  0
VERTEX
  8
0
  5
DC2
 10
269.335
 20
748.370
 30
0.000000
  70
    32
  0
VERTEX
  8
0
  5
DC3
 10
268.888
 20
748.345
 30
0.000000
  70
    32
  0
VERTEX
  8
0
  5
DC4
 10
268.440
 20
748.329
 30
0.000000
  70
    32
  0
VERTEX
  8
0
  5
DC5
 10
267.991
 20
748.321
 30
0.000000
  70
    32
  0
VERTEX
  8
0
  5
DC6
 10
267.543
 20
748.322
 30
0.000000
  70
    32
  0
VERTEX
  8
0
  5
DC7
 10
267.094
 20
748.331
 30
0.000000
  70
    32
  0
VERTEX
  8
0
  5
DC8
 10
266.647
 20
748.349
 30
0.000000
  70
    32
  0
VERTEX
  8
0
  5
DC9
 10
266.200
 20
748.375
 30
0.000000
  70
    32
  0
VERTEX
  8
0
  5
DCA
 10
265.754
 20
748.410
 30
0.000000
  70
    32
  0
VERTEX
  8
0
  5
DCB
 10
265.309
 20
748.453
 30
0.000000
  70
    32
  0
VERTEX
  8
0
  5
DCC
 10
264.867
 20
748.504
 30
0.000000
  70
    32
  0
VERTEX
  8
0
  5
DCD
 10
264.427
 20
748.564
 30
0.000000
  70
    32
  0
VERTEX
  8
0
  5
DCE
 10
263.989
 20
748.633
 30
0.000000
  70
    32
  0
VERTEX
  8
0
  5
DCF
 10
263.554
 20
748.709
 30
0.000000
  70
    32
  0
VERTEX
  8
0
  5
DD0
 10
263.122
 20
748.794
 30
0.000000
  70
    32
  0
VERTEX
  8
0
  5
DD1
 10
262.694
 20
748.887
 30
0.000000
  70
    32
  0
VERTEX
  8
0
  5
DD2
 10
262.270
 20
748.988
 30
0.000000
  70
    32
  0
VERTEX
  8
0
  5
DD3
 10
261.849
 20
749.098
 30
0.000000
  70
    32
  0
VERTEX
  8
0
  5
DD4
 10
261.433
 20
749.215
 30
0.000000
  70
    32
  0
VERTEX
  8
0
  5
DD5
 10
261.022
 20
749.340
 30
0.000000
  70
    32
  0
VERTEX
  8
0
  5
DD6
 10
260.616
 20
749.473
 30
0.000000
  70
    32
  0
VERTEX
  8
0
  5
DD7
 10
260.215
 20
749.613
 30
0.000000
  70
    32
  0
VERTEX
  8
0
  5
DD8
 10
259.820
 20
749.761
 30
0.000000
  70
    32
  0
VERTEX
  8
0
  5
DD9
 10
259.431
 20
749.917
 30
0.000000
  70
    32
  0
VERTEX
  8
0
  5
DDA
 10
259.048
 20
750.079
 30
0.000000
  70
    32
  0
VERTEX
  8
0
  5
DDB
 10
258.672
 20
750.250
 30
0.000000
  70
    32
  0
VERTEX
  8
0
  5
DDC
 10
258.302
 20
750.427
 30
0.000000
  70
    32
  0
VERTEX
  8
0
  5
DDD
 10
257.939
 20
750.611
 30
0.000000
  70
    32
  0
VERTEX
  8
0
  5
DDE
 10
257.584
 20
750.802
 30
0.000000
  70
    32
  0
VERTEX
  8
0
  5
DDF
 10
257.237
 20
750.999
 30
0.000000
  70
    32
  0
VERTEX
  8
0
  5
DE0
 10
256.897
 20
751.203
 30
0.000000
  70
    32
  0
VERTEX
  8
0
  5
DE1
 10
256.565
 20
751.414
 30
0.000000
  70
    32
  0
VERTEX
  8
0
  5
DE2
 10
256.242
 20
751.631
 30
0.000000
  70
    32
  0
VERTEX
  8
0
  5
DE3
 10
255.927
 20
751.854
 30
0.000000
  70
    32
  0
VERTEX
  8
0
  5
DE4
 10
255.621
 20
752.082
 30
0.000000
  70
    32
  0
VERTEX
  8
0
  5
DE5
 10
255.325
 20
752.317
 30
0.000000
  70
    32
  0
VERTEX
  8
0
  5
DE6
 10
255.037
 20
752.557
 30
0.000000
  70
    32
  0
VERTEX
  8
0
  5
DE7
 10
254.759
 20
752.802
 30
0.000000
  70
    32
  0
VERTEX
  8
0
  5
DE8
 10
254.491
 20
753.053
 30
0.000000
  70
    32
  0
VERTEX
  8
0
  5
DE9
 10
254.232
 20
753.308
 30
0.000000
  70
    32
  0
VERTEX
  8
0
  5
DEA
 10
253.984
 20
753.569
 30
0.000000
  70
    32
  0
VERTEX
  8
0
  5
DEB
 10
253.746
 20
753.834
 30
0.000000
  70
    32
  0
VERTEX
  8
0
  5
DEC
 10
253.518
 20
754.103
 30
0.000000
  70
    32
  0
VERTEX
  8
0
  5
DED
 10
253.302
 20
754.377
 30
0.000000
  70
    32
  0
VERTEX
  8
0
  5
DEE
 10
253.095
 20
754.655
 30
0.000000
  70
    32
  0
VERTEX
  8
0
  5
DEF
 10
252.900
 20
754.936
 30
0.000000
  70
    32
  0
VERTEX
  8
0
  5
DF0
 10
252.716
 20
755.221
 30
0.000000
  70
    32
  0
VERTEX
  8
0
  5
DF1
 10
252.543
 20
755.510
 30
0.000000
  70
    32
  0
VERTEX
  8
0
  5
DF2
 10
252.382
 20
755.801
 30
0.000000
  70
    32
  0
VERTEX
  8
0
  5
DF3
 10
252.232
 20
756.096
 30
0.000000
  70
    32
  0
VERTEX
  8
0
  5
DF4
 10
252.093
 20
756.393
 30
0.000000
  70
    32
  0
VERTEX
  8
0
  5
DF5
 10
251.967
 20
756.693
 30
0.000000
  70
    32
  0
VERTEX
  8
0
  5
DF6
 10
251.852
 20
756.996
 30
0.000000
  70
    32
  0
VERTEX
  8
0
  5
DF7
 10
251.749
 20
757.300
 30
0.000000
  70
    32
  0
VERTEX
  8
0
  5
DF8
 10
251.657
 20
757.606
 30
0.000000
  70
    32
  0
VERTEX
  8
0
  5
DF9
 10
251.578
 20
757.914
 30
0.000000
  70
    32
  0
VERTEX
  8
0
  5
DFA
 10
251.511
 20
758.223
 30
0.000000
  70
    32
  0
VERTEX
  8
0
  5
DFB
 10
251.456
 20
758.533
 30
0.000000
  70
    32
  0
VERTEX
  8
0
  5
DFC
 10
251.414
 20
758.845
 30
0.000000
  70
    32
  0
VERTEX
  8
0
  5
DFD
 10
251.383
 20
759.156
 30
0.000000
  70
    32
  0
VERTEX
  8
0
  5
DFE
 10
251.365
 20
759.469
 30
0.000000
  70
    32
  0
VERTEX
  8
0
  5
DFF
 10
251.358
 20
759.782
 30
0.000000
  70
    32
  0
VERTEX
  8
0
  5
E00
 10
251.365
 20
760.094
 30
0.000000
  70
    32
  0
VERTEX
  8
0
  5
E01
 10
251.383
 20
760.407
 30
0.000000
  70
    32
  0
VERTEX
  8
0
  5
E02
 10
251.414
 20
760.719
 30
0.000000
  70
    32
  0
VERTEX
  8
0
  5
E03
 10
251.456
 20
761.030
 30
0.000000
  70
    32
  0
VERTEX
  8
0
  5
E04
 10
251.511
 20
761.340
 30
0.000000
  70
    32
  0
VERTEX
  8
0
  5
E05
 10
251.578
 20
761.649
 30
0.000000
  70
    32
  0
VERTEX
  8
0
  5
E06
 10
251.657
 20
761.957
 30
0.000000
  70
    32
  0
VERTEX
  8
0
  5
E07
 10
251.749
 20
762.263
 30
0.000000
  70
    32
  0
VERTEX
  8
0
  5
E08
 10
251.852
 20
762.567
 30
0.000000
  70
    32
  0
VERTEX
  8
0
  5
E09
 10
251.967
 20
762.870
 30
0.000000
  70
    32
  0
VERTEX
  8
0
  5
E0A
 10
252.093
 20
763.170
 30
0.000000
  70
    32
  0
VERTEX
  8
0
  5
E0B
 10
252.232
 20
763.467
 30
0.000000
  70
    32
  0
VERTEX
  8
0
  5
E0C
 10
252.382
 20
763.762
 30
0.000000
  70
    32
  0
VERTEX
  8
0
  5
E0D
 10
252.543
 20
764.053
 30
0.000000
  70
    32
  0
VERTEX
  8
0
  5
E0E
 10
252.716
 20
764.342
 30
0.000000
  70
    32
  0
VERTEX
  8
0
  5
E0F
 10
252.900
 20
764.627
 30
0.000000
  70
    32
  0
VERTEX
  8
0
  5
E10
 10
253.095
 20
764.908
 30
0.000000
  70
    32
  0
VERTEX
  8
0
  5
E11
 10
253.302
 20
765.186
 30
0.000000
  70
    32
  0
VERTEX
  8
0
  5
E12
 10
253.518
 20
765.460
 30
0.000000
  70
    32
  0
VERTEX
  8
0
  5
E13
 10
253.746
 20
765.729
 30
0.000000
  70
    32
  0
VERTEX
  8
0
  5
E14
 10
253.984
 20
765.994
 30
0.000000
  70
    32
  0
VERTEX
  8
0
  5
E15
 10
254.232
 20
766.255
 30
0.000000
  70
    32
  0
VERTEX
  8
0
  5
E16
 10
254.491
 20
766.510
 30
0.000000
  70
    32
  0
VERTEX
  8
0
  5
E17
 10
254.759
 20
766.761
 30
0.000000
  70
    32
  0
VERTEX
  8
0
  5
E18
 10
255.037
 20
767.006
 30
0.000000
  70
    32
  0
VERTEX
  8
0
  5
E19
 10
255.325
 20
767.246
 30
0.000000
  70
    32
  0
VERTEX
  8
0
  5
E1A
 10
255.621
 20
767.481
 30
0.000000
  70
    32
  0
VERTEX
  8
0
  5
E1B
 10
255.927
 20
767.709
 30
0.000000
  70
    32
  0
VERTEX
  8
0
  5
E1C
 10
256.242
 20
767.932
 30
0.000000
  70
    32
  0
VERTEX
  8
0
  5
E1D
 10
256.565
 20
768.149
 30
0.000000
  70
    32
  0
VERTEX
  8
0
  5
E1E
 10
256.897
 20
768.360
 30
0.000000
  70
    32
  0
VERTEX
  8
0
  5
E1F
 10
257.237
 20
768.564
 30
0.000000
  70
    32
  0
VERTEX
  8
0
  5
E20
 10
257.584
 20
768.761
 30
0.000000
  70
    32
  0
VERTEX
  8
0
  5
E21
 10
257.939
 20
768.952
 30
0.000000
  70
    32
  0
VERTEX
  8
0
  5
E22
 10
258.302
 20
769.136
 30
0.000000
  70
    32
  0
VERTEX
  8
0
  5
E23
 10
258.672
 20
769.314
 30
0.000000
  70
    32
  0
VERTEX
  8
0
  5
E24
 10
259.048
 20
769.484
 30
0.000000
  70
    32
  0
VERTEX
  8
0
  5
E25
 10
259.431
 20
769.646
 30
0.000000
  70
    32
  0
VERTEX
  8
0
  5
E26
 10
259.820
 20
769.802
 30
0.000000
  70
    32
  0
VERTEX
  8
0
  5
E27
 10
260.215
 20
769.950
 30
0.000000
  70
    32
  0
VERTEX
  8
0
  5
E28
 10
260.616
 20
770.090
 30
0.000000
  70
    32
  0
VERTEX
  8
0
  5
E29
 10
261.022
 20
770.223
 30
0.000000
  70
    32
  0
VERTEX
  8
0
  5
E2A
 10
261.433
 20
770.348
 30
0.000000
  70
    32
  0
VERTEX
  8
0
  5
E2B
 10
261.849
 20
770.465
 30
0.000000
  70
    32
  0
VERTEX
  8
0
  5
E2C
 10
262.270
 20
770.575
 30
0.000000
  70
    32
  0
VERTEX
  8
0
  5
E2D
 10
262.694
 20
770.676
 30
0.000000
  70
    32
  0
VERTEX
  8
0
  5
E2E
 10
263.122
 20
770.769
 30
0.000000
  70
    32
  0
VERTEX
  8
0
  5
E2F
 10
263.554
 20
770.854
 30
0.000000
  70
    32
  0
VERTEX
  8
0
  5
E30
 10
263.989
 20
770.930
 30
0.000000
  70
    32
  0
VERTEX
  8
0
  5
E31
 10
264.427
 20
770.999
 30
0.000000
  70
    32
  0
VERTEX
  8
0
  5
E32
 10
264.867
 20
771.059
 30
0.000000
  70
    32
  0
VERTEX
  8
0
  5
E33
 10
265.309
 20
771.110
 30
0.000000
  70
    32
  0
VERTEX
  8
0
  5
E34
 10
265.754
 20
771.153
 30
0.000000
  70
    32
  0
VERTEX
  8
0
  5
E35
 10
266.200
 20
771.188
 30
0.000000
  70
    32
  0
VERTEX
  8
0
  5
E36
 10
266.647
 20
771.214
 30
0.000000
  70
    32
  0
VERTEX
  8
0
  5
E37
 10
267.094
 20
771.232
 30
0.000000
  70
    32
  0
VERTEX
  8
0
  5
E38
 10
267.543
 20
771.241
 30
0.000000
  70
    32
  0
VERTEX
  8
0
  5
E39
 10
267.991
 20
771.242
 30
0.000000
  70
    32
  0
VERTEX
  8
0
  5
E3A
 10
268.440
 20
771.234
 30
0.000000
  70
    32
  0
VERTEX
  8
0
  5
E3B
 10
268.888
 20
771.218
 30
0.000000
  70
    32
  0
VERTEX
  8
0
  5
E3C
 10
269.335
 20
771.193
 30
0.000000
  70
    32
  0
VERTEX
  8
0
  5
E3D
 10
269.781
 20
771.159
 30
0.000000
  70
    32
  0
VERTEX
  8
0
  5
E3E
 10
270.226
 20
771.118
 30
0.000000
  70
    32
  0
VERTEX
  8
0
  5
E3F
 10
270.668
 20
771.067
 30
0.000000
  70
    32
  0
SEQEND
  8
0
  5
E40
  0
CIRCLE
  5
85B
  8
0
  6
DASHED
 10
266.85848188349371
 20
759.7815265032433
 30
0.0
 40
6.5
  0
CIRCLE
  5
85C
  8
0
  6
DASHED
 10
365.85848188349371
 20
759.7815265032433
 30
0.0
 40
6.5
  0
LINE
  5
85E
  8
0
  6
CENTER
 10
266.85848188349371
 20
768.2815265032433
 30
0.0
 11
266.85848188349371
 21
751.2815265032433
 31
0.0
  0
LINE
  5
85F
  8
0
  6
CENTER
 10
365.85848188349371
 20
768.2815265032433
 30
0.0
 11
365.85848188349371
 21
751.2815265032433
 31
0.0
  0
LINE
  5
862
  8
0
 10
251.35848188349371
 20
889.03727440683519
 30
0.0
 11
381.35848188349371
 21
889.03727440683519
 31
0.0
  0
LINE
  5
863
  8
0
 10
256.85848188349371
 20
884.03727440683531
 30
0.0
 11
375.85848188349371
 21
884.03727440683531
 31
0.0
  0
LINE
  5
864
  8
0
  6
CENTER
 10
316.35848188349371
 20
879.03727440683554
 30
0.0
 11
316.35848188349371
 21
1000.537274406835
 31
0.0
  0
LINE
  5
865
  8
0
 10
256.85848188349371
 20
884.03727440683531
 30
0.0
 11
256.85848188349371
 21
889.03727440683519
 31
0.0
  0
LINE
  5
867
  8
0
 10
257.13925828989812
 20
909.03727440683519
 30
0.0
 11
295.52363327340532
 21
909.03727440683497
 31
0.0
  0
LINE
  5
869
  8
0
 10
251.3584818834936
 20
889.03727440683519
 30
0.0
 11
256.16911578975242
 21
908.27981003187165
 31
0.0
  0
ARC
  5
86B
  8
0
 10
127.71305767588051
 20
906.03727440683519
 30
0.0
 40
1.0
 50
15.87151971824917
 51
90.000000000000185
  0
ARC
  5
86C
  8
0
 10
33.223684489378407
 20
906.03727440683542
 30
0.0
 40
1.0
 50
89.999999999999787
 51
164.1284802817508
  0
ARC
  5
86D
  8
0
 10
-119.3407624098234
 20
906.03727440683519
 30
0.0
 40
1.0
 50
89.999999999999787
 51
164.1284802817508
  0
ARC
  5
86E
  8
0
 10
-24.85138922332132
 20
906.03727440683519
 30
0.0
 40
1.0
 50
15.8715197182492
 51
90.000000000000185
  0
ARC
  5
86F
  8
0
 10
-306.34045121274312
 20
904.03727440683565
 30
0.0
 40
1.0
 50
89.999999999999645
 51
164.4080212409213
  0
ARC
  5
870
  8
0
 10
-236.30735775548769
 20
904.03727440683554
 30
0.0
 40
1.0
 50
15.59197875907844
 51
90.000000000000355
  0
ARC
  5
872
  8
0
 10
257.13925828989812
 20
908.03727440683519
 30
0.0
 40
1.0
 50
90.0
 51
165.96375653207329
  0
LINE
  5
873
  8
0
 10
297.31293303359701
 20
913.03727440683531
 30
0.0
 11
335.40403073339041
 21
913.03727440683531
 31
0.0
  0
LINE
  5
876
  8
0
 10
265.78935157315539
 20
903.03727440683531
 30
0.0
 11
366.92761219383198
 21
903.03727440683485
 31
0.0
  0
ARC
  5
878
  8
0
 10
286.35848188349371
 20
913.03727440683508
 30
0.0
 40
10.0
 50
270.0
 51
354.78409142954598
  0
ARC
  5
87A
  8
0
 10
297.31293303359701
 20
912.03727440683508
 30
0.0
 40
1.0
 50
90.0
 51
174.78409142954411
  0
ARC
  5
87B
  8
0
 10
265.78935157315539
 20
889.03727440683519
 30
0.0
 40
14.0
 50
89.999999999999787
 51
165.96375653207329
  0
LINE
  5
87C
  8
0
  6
DASHED
 10
273.35848188349399
 20
889.03727440683519
 30
0.0
 11
273.35848188349411
 21
909.03727440683497
 31
0.0
  0
LINE
  5
87D
  8
0
  6
DASHED
 10
260.35848188349399
 20
889.03727440683519
 30
0.0
 11
260.35848188349411
 21
909.03727440683497
 31
0.0
  0
LINE
  5
882
  8
0
  6
CENTER
 10
266.85848188349411
 20
912.03727440683485
 30
0.0
 11
266.85848188349411
 21
881.03727440683542
 31
0.0
  0
LINE
  5
884
  8
0
 10
375.57770547708918
 20
909.03727440683519
 30
0.0
 11
337.19333049358198
 21
909.03727440683497
 31
0.0
  0
ARC
  5
885
  8
0
 10
375.57770547708918
 20
908.03727440683519
 30
0.0
 40
1.0
 50
14.03624346792664
 51
90.0
  0
ARC
  5
886
  8
0
 10
366.92761219383192
 20
889.03727440683519
 30
0.0
 40
14.0
 50
14.03624346792664
 51
90.000000000000213
  0
LINE
  5
887
  8
0
 10
381.35848188349371
 20
889.03727440683519
 30
0.0
 11
376.54784797723499
 21
908.27981003187165
 31
0.0
  0
LINE
  5
888
  8
0
  6
CENTER
 10
365.8584818834932
 20
912.03727440683485
 30
0.0
 11
365.8584818834932
 21
881.03727440683542
 31
0.0
  0
LINE
  5
889
  8
0
  6
DASHED
 10
372.35848188349331
 20
889.03727440683519
 30
0.0
 11
372.3584818834932
 21
909.03727440683497
 31
0.0
  0
LINE
  5
88A
  8
0
 10
375.85848188349371
 20
884.03727440683531
 30
0.0
 11
375.85848188349371
 21
889.03727440683519
 31
0.0
  0
ARC
  5
88B
  8
0
 10
346.35848188349371
 20
913.03727440683508
 30
0.0
 40
10.0
 50
185.21590857045391
 51
270.0
  0
LINE
  5
88C
  8
0
  6
DASHED
 10
359.35848188349331
 20
889.03727440683519
 30
0.0
 11
359.3584818834932
 21
909.03727440683497
 31
0.0
  0
ARC
  5
88D
  8
0
 10
335.40403073339041
 20
912.03727440683508
 30
0.0
 40
1.0
 50
5.2159085704559072
 51
90.0
  0
LINE
  5
88F
  8
0
 10
326.17343645971732
 20
919.53727440683519
 30
0.0
 11
326.17343645971732
 21
924.53727440683554
 31
0.0
  0
LINE
  5
890
  8
0
 10
321.26595917160552
 20
919.53727440683542
 30
0.0
 11
321.26595917160552
 21
924.53727440683508
 31
0.0
  0
LINE
  5
891
  8
0
 10
311.4510045953819
 20
919.53727440683519
 30
0.0
 11
311.4510045953819
 21
924.53727440683508
 31
0.0
  0
LINE
  5
892
  8
0
 10
306.5435273072701
 20
919.53727440683519
 30
0.0
 11
306.5435273072701
 21
924.53727440683554
 31
0.0
  0
LINE
  5
893
  8
0
 10
308.99726595132603
 20
918.53727440683519
 30
0.0
 11
323.7196978156615
 21
918.53727440683542
 31
0.0
  0
LINE
  5
894
  8
0
 10
308.99726595132603
 20
918.53727440683519
 30
0.0
 11
323.7196978156615
 21
918.53727440683542
 31
0.0
  0
ARC
  5
895
  8
0
 10
316.3584818834936
 20
931.07894107350103
 30
0.0
 40
12.541666666665719
 50
246.96496823621021
 51
293.03503176379121
  0
ARC
  5
896
  8
0
 10
308.99726595132603
 20
922.04769107350194
 30
0.0
 40
3.5104166666666541
 50
270.0
 51
314.3458564074823
  0
ARC
  5
897
  8
0
 10
308.99726595132591
 20
922.04769107350194
 30
0.0
 40
3.5104166666666541
 50
225.65414359251869
 51
270.0
  0
ARC
  5
898
  8
0
 10
323.7196978156615
 20
922.04769107350194
 30
0.0
 40
3.5104166666666541
 50
270.0
 51
314.34585640748122
  0
ARC
  5
899
  8
0
 10
323.7196978156615
 20
922.04769107350194
 30
0.0
 40
3.5104166666666541
 50
225.6541435925175
 51
270.0
  0
LINE
  5
89A
  8
0
 10
324.35848188349371
 20
925.4786659747457
 30
0.0
 11
324.35848188349371
 21
994.53727440683519
 31
0.0
  0
LINE
  5
89B
  8
0
 10
308.35848188349371
 20
925.4786659747457
 30
0.0
 11
308.35848188349382
 21
994.53727440683519
 31
0.0
  0
LINE
  5
89C
  8
0
 10
323.35848188349371
 20
925.4786659747457
 30
0.0
 11
323.35848188349371
 21
995.53727440683519
 31
0.0
  0
LINE
  5
89D
  8
0
 10
309.3584818834936
 20
925.4786659747457
 30
0.0
 11
309.35848188349371
 21
995.53727440683519
 31
0.0
  0
LINE
  5
89E
  8
0
 10
308.99726595132603
 20
925.53727440683531
 30
0.0
 11
323.7196978156615
 21
925.53727440683508
 31
0.0
  0
ARC
  5
89F
  8
0
 10
316.3584818834936
 20
912.99560774016948
 30
0.0
 40
12.541666666665719
 50
66.964968236208776
 51
113.0350317637897
  0
ARC
  5
8A0
  8
0
 10
308.99726595132603
 20
922.02685774016857
 30
0.0
 40
3.5104166666666541
 50
45.654143592517599
 51
90.0
  0
ARC
  5
8A1
  8
0
 10
308.99726595132591
 20
922.02685774016857
 30
0.0
 40
3.5104166666666541
 50
90.0
 51
134.34585640748119
  0
ARC
  5
8A2
  8
0
 10
323.7196978156615
 20
922.02685774016857
 30
0.0
 40
3.5104166666666541
 50
45.654143592518743
 51
90.0
  0
ARC
  5
8A3
  8
0
 10
323.7196978156615
 20
922.02685774016857
 30
0.0
 40
3.5104166666666541
 50
90.0
 51
134.34585640748239
  0
LINE
  5
8A4
  8
0
 10
309.35848188349399
 20
995.53727440683542
 30
0.0
 11
323.35848188349371
 21
995.53727440683497
 31
0.0
  0
LINE
  5
8A5
  8
0
 10
308.35848188349382
 20
994.53727440683519
 30
0.0
 11
324.3584818834936
 21
994.53727440683497
 31
0.0
  0
LINE
  5
8A6
  8
0
 10
309.35848188349382
 20
995.53727440683497
 30
0.0
 11
308.35848188349382
 21
994.53727440683497
 31
0.0
  0
LINE
  5
8A7
  8
0
 10
323.35848188349371
 20
995.53727440683497
 30
0.0
 11
324.3584818834936
 21
994.53727440683497
 31
0.0
  0
LINE
  5
8A8
  8
0
 10
310.60848188349371
 20
914.53727440683508
 30
0.0
 11
322.10848188349371
 21
914.53727440683531
 31
0.0
  0
LINE
  5
8A9
  8
0
 10
310.60848188349371
 20
914.53727440683531
 30
0.0
 11
310.60848188349371
 21
918.53727440683519
 31
0.0
  0
ARC
  5
8AA
  8
0
 10
316.35848188349371
 20
909.7219343357707
 30
0.0
 40
7.5
 50
140.0554948101842
 51
153.765544955731
  0
LINE
  5
8AB
  8
0
 10
322.10848188349371
 20
914.53727440683531
 30
0.0
 11
322.10848188349371
 21
918.53727440683519
 31
0.0
  0
ARC
  5
8AC
  8
0
 10
316.35848188349371
 20
909.7219343357707
 30
0.0
 40
7.5
 50
26.234455044268959
 51
39.944505189815771
  0
LINE
  5
972
  8
0
 10
448.6550494689443
 20
903.03727440683531
 30
0.0
 11
549.79331008962083
 21
903.03727440683485
 31
0.0
  0
LINE
  5
97B
  8
0
 10
480.17863092938569
 20
913.03727440683531
 30
0.0
 11
518.26972862917921
 21
913.03727440683531
 31
0.0
  0
CIRCLE
  5
97C
  8
0
 10
499.22417977928251
 20
759.78152650324319
 30
0.0
 40
65.0
  0
LINE
  5
980
  8
0
  6
CENTER
 10
429.22417977928251
 20
759.7815265032433
 30
0.0
 11
569.22417977928239
 21
759.7815265032433
 31
0.0
  0
CIRCLE
  5
981
  8
0
 10
499.22417977928251
 20
759.7815265032433
 30
0.0
 40
20.0
  0
LINE
  5
982
  8
0
 10
434.22417977928251
 20
889.03727440683519
 30
0.0
 11
564.22417977928262
 21
889.03727440683519
 31
0.0
  0
LINE
  5
983
  8
0
 10
439.72417977928239
 20
884.03727440683531
 30
0.0
 11
558.72417977928251
 21
884.03727440683531
 31
0.0
  0
LINE
  5
984
  8
0
 10
474.48554602557653
 20
769.28152650324319
 30
0.0
 11
449.92689563396249
 21
769.77947160622625
 31
0.0
  0
LINE
  5
985
  8
0
 10
474.48554602557653
 20
750.2815265032433
 30
0.0
 11
449.92689563396249
 21
749.78358140026035
 31
0.0
  0
ARC
  5
986
  8
0
 10
449.72417977928251
 20
759.7815265032433
 30
0.0
 40
10.0
 50
88.838444144966275
 51
271.16155585503373
  0
CIRCLE
  5
987
  8
0
  6
DASHED
 10
449.72417977928251
 20
759.7815265032433
 30
0.0
 40
6.5
  0
POLYLINE
  5
988
  8
0
 10
453.53406365281495
 20
748.4957564553722
 30
0.0
 66
     1
 70
     8
  0
VERTEX
  8
0
  5
E41
 10
453.534
 20
748.496
 30
0.000000
  70
    32
  0
VERTEX
  8
0
  5
E42
 10
453.091
 20
748.445
 30
0.000000
  70
    32
  0
VERTEX
  8
0
  5
E43
 10
452.647
 20
748.404
 30
0.000000
  70
    32
  0
VERTEX
  8
0
  5
E44
 10
452.201
 20
748.370
 30
0.000000
  70
    32
  0
VERTEX
  8
0
  5
E45
 10
451.754
 20
748.345
 30
0.000000
  70
    32
  0
VERTEX
  8
0
  5
E46
 10
451.306
 20
748.329
 30
0.000000
  70
    32
  0
VERTEX
  8
0
  5
E47
 10
450.857
 20
748.321
 30
0.000000
  70
    32
  0
VERTEX
  8
0
  5
E48
 10
450.409
 20
748.322
 30
0.000000
  70
    32
  0
VERTEX
  8
0
  5
E49
 10
449.960
 20
748.331
 30
0.000000
  70
    32
  0
VERTEX
  8
0
  5
E4A
 10
449.512
 20
748.349
 30
0.000000
  70
    32
  0
VERTEX
  8
0
  5
E4B
 10
449.065
 20
748.375
 30
0.000000
  70
    32
  0
VERTEX
  8
0
  5
E4C
 10
448.619
 20
748.410
 30
0.000000
  70
    32
  0
VERTEX
  8
0
  5
E4D
 10
448.175
 20
748.453
 30
0.000000
  70
    32
  0
VERTEX
  8
0
  5
E4E
 10
447.733
 20
748.504
 30
0.000000
  70
    32
  0
VERTEX
  8
0
  5
E4F
 10
447.292
 20
748.564
 30
0.000000
  70
    32
  0
VERTEX
  8
0
  5
E50
 10
446.855
 20
748.633
 30
0.000000
  70
    32
  0
VERTEX
  8
0
  5
E51
 10
446.420
 20
748.709
 30
0.000000
  70
    32
  0
VERTEX
  8
0
  5
E52
 10
445.988
 20
748.794
 30
0.000000
  70
    32
  0
VERTEX
  8
0
  5
E53
 10
445.560
 20
748.887
 30
0.000000
  70
    32
  0
VERTEX
  8
0
  5
E54
 10
445.135
 20
748.988
 30
0.000000
  70
    32
  0
VERTEX
  8
0
  5
E55
 10
444.715
 20
749.098
 30
0.000000
  70
    32
  0
VERTEX
  8
0
  5
E56
 10
444.299
 20
749.215
 30
0.000000
  70
    32
  0
VERTEX
  8
0
  5
E57
 10
443.888
 20
749.340
 30
0.000000
  70
    32
  0
VERTEX
  8
0
  5
E58
 10
443.482
 20
749.473
 30
0.000000
  70
    32
  0
VERTEX
  8
0
  5
E59
 10
443.081
 20
749.613
 30
0.000000
  70
    32
  0
VERTEX
  8
0
  5
E5A
 10
442.686
 20
749.761
 30
0.000000
  70
    32
  0
VERTEX
  8
0
  5
E5B
 10
442.297
 20
749.917
 30
0.000000
  70
    32
  0
VERTEX
  8
0
  5
E5C
 10
441.914
 20
750.079
 30
0.000000
  70
    32
  0
VERTEX
  8
0
  5
E5D
 10
441.537
 20
750.250
 30
0.000000
  70
    32
  0
VERTEX
  8
0
  5
E5E
 10
441.168
 20
750.427
 30
0.000000
  70
    32
  0
VERTEX
  8
0
  5
E5F
 10
440.805
 20
750.611
 30
0.000000
  70
    32
  0
VERTEX
  8
0
  5
E60
 10
440.450
 20
750.802
 30
0.000000
  70
    32
  0
VERTEX
  8
0
  5
E61
 10
440.102
 20
750.999
 30
0.000000
  70
    32
  0
VERTEX
  8
0
  5
E62
 10
439.762
 20
751.203
 30
0.000000
  70
    32
  0
VERTEX
  8
0
  5
E63
 10
439.431
 20
751.414
 30
0.000000
  70
    32
  0
VERTEX
  8
0
  5
E64
 10
439.108
 20
751.631
 30
0.000000
  70
    32
  0
VERTEX
  8
0
  5
E65
 10
438.793
 20
751.854
 30
0.000000
  70
    32
  0
VERTEX
  8
0
  5
E66
 10
438.487
 20
752.082
 30
0.000000
  70
    32
  0
VERTEX
  8
0
  5
E67
 10
438.190
 20
752.317
 30
0.000000
  70
    32
  0
VERTEX
  8
0
  5
E68
 10
437.903
 20
752.557
 30
0.000000
  70
    32
  0
VERTEX
  8
0
  5
E69
 10
437.625
 20
752.802
 30
0.000000
  70
    32
  0
VERTEX
  8
0
  5
E6A
 10
437.356
 20
753.053
 30
0.000000
  70
    32
  0
VERTEX
  8
0
  5
E6B
 10
437.098
 20
753.308
 30
0.000000
  70
    32
  0
VERTEX
  8
0
  5
E6C
 10
436.850
 20
753.569
 30
0.000000
  70
    32
  0
VERTEX
  8
0
  5
E6D
 10
436.612
 20
753.834
 30
0.000000
  70
    32
  0
VERTEX
  8
0
  5
E6E
 10
436.384
 20
754.103
 30
0.000000
  70
    32
  0
VERTEX
  8
0
  5
E6F
 10
436.167
 20
754.377
 30
0.000000
  70
    32
  0
VERTEX
  8
0
  5
E70
 10
435.961
 20
754.655
 30
0.000000
  70
    32
  0
VERTEX
  8
0
  5
E71
 10
435.766
 20
754.936
 30
0.000000
  70
    32
  0
VERTEX
  8
0
  5
E72
 10
435.582
 20
755.221
 30
0.000000
  70
    32
  0
VERTEX
  8
0
  5
E73
 10
435.409
 20
755.510
 30
0.000000
  70
    32
  0
VERTEX
  8
0
  5
E74
 10
435.248
 20
755.801
 30
0.000000
  70
    32
  0
VERTEX
  8
0
  5
E75
 10
435.098
 20
756.096
 30
0.000000
  70
    32
  0
VERTEX
  8
0
  5
E76
 10
434.959
 20
756.393
 30
0.000000
  70
    32
  0
VERTEX
  8
0
  5
E77
 10
434.832
 20
756.693
 30
0.000000
  70
    32
  0
VERTEX
  8
0
  5
E78
 10
434.717
 20
756.996
 30
0.000000
  70
    32
  0
VERTEX
  8
0
  5
E79
 10
434.614
 20
757.300
 30
0.000000
  70
    32
  0
VERTEX
  8
0
  5
E7A
 10
434.523
 20
757.606
 30
0.000000
  70
    32
  0
VERTEX
  8
0
  5
E7B
 10
434.444
 20
757.914
 30
0.000000
  70
    32
  0
VERTEX
  8
0
  5
E7C
 10
434.377
 20
758.223
 30
0.000000
  70
    32
  0
VERTEX
  8
0
  5
E7D
 10
434.322
 20
758.533
 30
0.000000
  70
    32
  0
VERTEX
  8
0
  5
E7E
 10
434.279
 20
758.845
 30
0.000000
  70
    32
  0
VERTEX
  8
0
  5
E7F
 10
434.249
 20
759.156
 30
0.000000
  70
    32
  0
VERTEX
  8
0
  5
E80
 10
434.230
 20
759.469
 30
0.000000
  70
    32
  0
VERTEX
  8
0
  5
E81
 10
434.224
 20
759.782
 30
0.000000
  70
    32
  0
VERTEX
  8
0
  5
E82
 10
434.230
 20
760.094
 30
0.000000
  70
    32
  0
VERTEX
  8
0
  5
E83
 10
434.249
 20
760.407
 30
0.000000
  70
    32
  0
VERTEX
  8
0
  5
E84
 10
434.279
 20
760.719
 30
0.000000
  70
    32
  0
VERTEX
  8
0
  5
E85
 10
434.322
 20
761.030
 30
0.000000
  70
    32
  0
VERTEX
  8
0
  5
E86
 10
434.377
 20
761.340
 30
0.000000
  70
    32
  0
VERTEX
  8
0
  5
E87
 10
434.444
 20
761.649
 30
0.000000
  70
    32
  0
VERTEX
  8
0
  5
E88
 10
434.523
 20
761.957
 30
0.000000
  70
    32
  0
VERTEX
  8
0
  5
E89
 10
434.614
 20
762.263
 30
0.000000
  70
    32
  0
VERTEX
  8
0
  5
E8A
 10
434.717
 20
762.567
 30
0.000000
  70
    32
  0
VERTEX
  8
0
  5
E8B
 10
434.832
 20
762.870
 30
0.000000
  70
    32
  0
VERTEX
  8
0
  5
E8C
 10
434.959
 20
763.170
 30
0.000000
  70
    32
  0
VERTEX
  8
0
  5
E8D
 10
435.098
 20
763.467
 30
0.000000
  70
    32
  0
VERTEX
  8
0
  5
E8E
 10
435.248
 20
763.762
 30
0.000000
  70
    32
  0
VERTEX
  8
0
  5
E8F
 10
435.409
 20
764.053
 30
0.000000
  70
    32
  0
VERTEX
  8
0
  5
E90
 10
435.582
 20
764.342
 30
0.000000
  70
    32
  0
VERTEX
  8
0
  5
E91
 10
435.766
 20
764.627
 30
0.000000
  70
    32
  0
VERTEX
  8
0
  5
E92
 10
435.961
 20
764.908
 30
0.000000
  70
    32
  0
VERTEX
  8
0
  5
E93
 10
436.167
 20
765.186
 30
0.000000
  70
    32
  0
VERTEX
  8
0
  5
E94
 10
436.384
 20
765.460
 30
0.000000
  70
    32
  0
VERTEX
  8
0
  5
E95
 10
436.612
 20
765.729
 30
0.000000
  70
    32
  0
VERTEX
  8
0
  5
E96
 10
436.850
 20
765.994
 30
0.000000
  70
    32
  0
VERTEX
  8
0
  5
E97
 10
437.098
 20
766.255
 30
0.000000
  70
    32
  0
VERTEX
  8
0
  5
E98
 10
437.356
 20
766.510
 30
0.000000
  70
    32
  0
VERTEX
  8
0
  5
E99
 10
437.625
 20
766.761
 30
0.000000
  70
    32
  0
VERTEX
  8
0
  5
E9A
 10
437.903
 20
767.006
 30
0.000000
  70
    32
  0
VERTEX
  8
0
  5
E9B
 10
438.190
 20
767.246
 30
0.000000
  70
    32
  0
VERTEX
  8
0
  5
E9C
 10
438.487
 20
767.481
 30
0.000000
  70
    32
  0
VERTEX
  8
0
  5
E9D
 10
438.793
 20
767.709
 30
0.000000
  70
    32
  0
VERTEX
  8
0
  5
E9E
 10
439.108
 20
767.932
 30
0.000000
  70
    32
  0
VERTEX
  8
0
  5
E9F
 10
439.431
 20
768.149
 30
0.000000
  70
    32
  0
VERTEX
  8
0
  5
EA0
 10
439.762
 20
768.360
 30
0.000000
  70
    32
  0
VERTEX
  8
0
  5
EA1
 10
440.102
 20
768.564
 30
0.000000
  70
    32
  0
VERTEX
  8
0
  5
EA2
 10
440.450
 20
768.761
 30
0.000000
  70
    32
  0
VERTEX
  8
0
  5
EA3
 10
440.805
 20
768.952
 30
0.000000
  70
    32
  0
VERTEX
  8
0
  5
EA4
 10
441.168
 20
769.136
 30
0.000000
  70
    32
  0
VERTEX
  8
0
  5
EA5
 10
441.537
 20
769.314
 30
0.000000
  70
    32
  0
VERTEX
  8
0
  5
EA6
 10
441.914
 20
769.484
 30
0.000000
  70
    32
  0
VERTEX
  8
0
  5
EA7
 10
442.297
 20
769.646
 30
0.000000
  70
    32
  0
VERTEX
  8
0
  5
EA8
 10
442.686
 20
769.802
 30
0.000000
  70
    32
  0
VERTEX
  8
0
  5
EA9
 10
443.081
 20
769.950
 30
0.000000
  70
    32
  0
VERTEX
  8
0
  5
EAA
 10
443.482
 20
770.090
 30
0.000000
  70
    32
  0
VERTEX
  8
0
  5
EAB
 10
443.888
 20
770.223
 30
0.000000
  70
    32
  0
VERTEX
  8
0
  5
EAC
 10
444.299
 20
770.348
 30
0.000000
  70
    32
  0
VERTEX
  8
0
  5
EAD
 10
444.715
 20
770.465
 30
0.000000
  70
    32
  0
VERTEX
  8
0
  5
EAE
 10
445.135
 20
770.575
 30
0.000000
  70
    32
  0
VERTEX
  8
0
  5
EAF
 10
445.560
 20
770.676
 30
0.000000
  70
    32
  0
VERTEX
  8
0
  5
EB0
 10
445.988
 20
770.769
 30
0.000000
  70
    32
  0
VERTEX
  8
0
  5
EB1
 10
446.420
 20
770.854
 30
0.000000
  70
    32
  0
VERTEX
  8
0
  5
EB2
 10
446.855
 20
770.930
 30
0.000000
  70
    32
  0
VERTEX
  8
0
  5
EB3
 10
447.292
 20
770.999
 30
0.000000
  70
    32
  0
VERTEX
  8
0
  5
EB4
 10
447.733
 20
771.059
 30
0.000000
  70
    32
  0
VERTEX
  8
0
  5
EB5
 10
448.175
 20
771.110
 30
0.000000
  70
    32
  0
VERTEX
  8
0
  5
EB6
 10
448.619
 20
771.153
 30
0.000000
  70
    32
  0
VERTEX
  8
0
  5
EB7
 10
449.065
 20
771.188
 30
0.000000
  70
    32
  0
VERTEX
  8
0
  5
EB8
 10
449.512
 20
771.214
 30
0.000000
  70
    32
  0
VERTEX
  8
0
  5
EB9
 10
449.960
 20
771.232
 30
0.000000
  70
    32
  0
VERTEX
  8
0
  5
EBA
 10
450.409
 20
771.241
 30
0.000000
  70
    32
  0
VERTEX
  8
0
  5
EBB
 10
450.857
 20
771.242
 30
0.000000
  70
    32
  0
VERTEX
  8
0
  5
EBC
 10
451.306
 20
771.234
 30
0.000000
  70
    32
  0
VERTEX
  8
0
  5
EBD
 10
451.754
 20
771.218
 30
0.000000
  70
    32
  0
VERTEX
  8
0
  5
EBE
 10
452.201
 20
771.193
 30
0.000000
  70
    32
  0
VERTEX
  8
0
  5
EBF
 10
452.647
 20
771.159
 30
0.000000
  70
    32
  0
VERTEX
  8
0
  5
EC0
 10
453.091
 20
771.118
 30
0.000000
  70
    32
  0
VERTEX
  8
0
  5
EC1
 10
453.534
 20
771.067
 30
0.000000
  70
    32
  0
SEQEND
  8
0
  5
EC2
  0
LINE
  5
989
  8
0
  6
CENTER
 10
449.72417977928251
 20
768.2815265032433
 30
0.0
 11
449.72417977928251
 21
751.2815265032433
 31
0.0
  0
LINE
  5
98A
  8
0
  6
CENTER
 10
499.22417977928251
 20
829.78152650324307
 30
0.0
 11
499.22417977928251
 21
689.78152650324319
 31
0.0
  0
ARC
  5
98B
  8
0
 10
499.22417977928251
 20
759.7815265032433
 30
0.0
 40
26.5
 50
158.99247458018181
 51
201.00752541981811
  0
LINE
  5
98C
  8
0
 10
474.48554602557653
 20
750.2815265032433
 30
0.0
 11
452.68139885329788
 21
748.40655984447653
 31
0.0
  0
LINE
  5
98D
  8
0
 10
474.48554602557653
 20
769.28152650324319
 30
0.0
 11
452.68139885329788
 21
771.15649316201007
 31
0.0
  0
LINE
  5
98E
  8
0
 10
440.00495618568692
 20
909.03727440683519
 30
0.0
 11
478.38933116919412
 21
909.03727440683497
 31
0.0
  0
ARC
  5
98F
  8
0
 10
440.00495618568692
 20
908.03727440683519
 30
0.0
 40
1.0
 50
90.0
 51
165.96375653207329
  0
ARC
  5
990
  8
0
 10
448.65504946894418
 20
889.03727440683519
 30
0.0
 40
14.0
 50
89.999999999999787
 51
165.96375653207329
  0
LINE
  5
991
  8
0
 10
434.22417977928239
 20
889.03727440683519
 30
0.0
 11
439.03481368554122
 21
908.27981003187165
 31
0.0
  0
LINE
  5
992
  8
0
  6
CENTER
 10
449.72417977928291
 20
912.03727440683485
 30
0.0
 11
449.72417977928291
 21
881.03727440683542
 31
0.0
  0
LINE
  5
993
  8
0
  6
DASHED
 10
443.22417977928279
 20
889.03727440683519
 30
0.0
 11
443.22417977928291
 21
909.03727440683497
 31
0.0
  0
LINE
  5
994
  8
0
 10
439.72417977928239
 20
884.03727440683531
 30
0.0
 11
439.72417977928239
 21
889.03727440683519
 31
0.0
  0
LINE
  5
995
  8
0
  6
CENTER
 10
499.22417977928251
 20
879.03727440683554
 30
0.0
 11
499.22417977928251
 21
1000.537274406835
 31
0.0
  0
ARC
  5
999
  8
0
 10
469.22417977928239
 20
913.03727440683508
 30
0.0
 40
10.0
 50
270.0
 51
354.78409142954598
  0
LINE
  5
99A
  8
0
  6
DASHED
 10
456.22417977928279
 20
889.03727440683519
 30
0.0
 11
456.22417977928291
 21
909.03727440683497
 31
0.0
  0
ARC
  5
99C
  8
0
 10
480.17863092938569
 20
912.03727440683508
 30
0.0
 40
1.0
 50
90.0
 51
174.78409142954411
  0
POLYLINE
  5
9A9
  8
0
 10
544.9142959057499
 20
748.4957564553722
 30
0.0
 66
     1
 70
     8
  0
VERTEX
  8
0
  5
EC3
 10
544.914
 20
748.496
 30
0.000000
  70
    32
  0
VERTEX
  8
0
  5
EC4
 10
545.357
 20
748.445
 30
0.000000
  70
    32
  0
VERTEX
  8
0
  5
EC5
 10
545.802
 20
748.404
 30
0.000000
  70
    32
  0
VERTEX
  8
0
  5
EC6
 10
546.248
 20
748.370
 30
0.000000
  70
    32
  0
VERTEX
  8
0
  5
EC7
 10
546.695
 20
748.345
 30
0.000000
  70
    32
  0
VERTEX
  8
0
  5
EC8
 10
547.143
 20
748.329
 30
0.000000
  70
    32
  0
VERTEX
  8
0
  5
EC9
 10
547.591
 20
748.321
 30
0.000000
  70
    32
  0
VERTEX
  8
0
  5
ECA
 10
548.040
 20
748.322
 30
0.000000
  70
    32
  0
VERTEX
  8
0
  5
ECB
 10
548.488
 20
748.331
 30
0.000000
  70
    32
  0
VERTEX
  8
0
  5
ECC
 10
548.936
 20
748.349
 30
0.000000
  70
    32
  0
VERTEX
  8
0
  5
ECD
 10
549.383
 20
748.375
 30
0.000000
  70
    32
  0
VERTEX
  8
0
  5
ECE
 10
549.829
 20
748.410
 30
0.000000
  70
    32
  0
VERTEX
  8
0
  5
ECF
 10
550.273
 20
748.453
 30
0.000000
  70
    32
  0
VERTEX
  8
0
  5
ED0
 10
550.716
 20
748.504
 30
0.000000
  70
    32
  0
VERTEX
  8
0
  5
ED1
 10
551.156
 20
748.564
 30
0.000000
  70
    32
  0
VERTEX
  8
0
  5
ED2
 10
551.594
 20
748.633
 30
0.000000
  70
    32
  0
VERTEX
  8
0
  5
ED3
 10
552.029
 20
748.709
 30
0.000000
  70
    32
  0
VERTEX
  8
0
  5
ED4
 10
552.460
 20
748.794
 30
0.000000
  70
    32
  0
VERTEX
  8
0
  5
ED5
 10
552.889
 20
748.887
 30
0.000000
  70
    32
  0
VERTEX
  8
0
  5
ED6
 10
553.313
 20
748.988
 30
0.000000
  70
    32
  0
VERTEX
  8
0
  5
ED7
 10
553.733
 20
749.098
 30
0.000000
  70
    32
  0
VERTEX
  8
0
  5
ED8
 10
554.149
 20
749.215
 30
0.000000
  70
    32
  0
VERTEX
  8
0
  5
ED9
 10
554.560
 20
749.340
 30
0.000000
  70
    32
  0
VERTEX
  8
0
  5
EDA
 10
554.967
 20
749.473
 30
0.000000
  70
    32
  0
VERTEX
  8
0
  5
EDB
 10
555.367
 20
749.613
 30
0.000000
  70
    32
  0
VERTEX
  8
0
  5
EDC
 10
555.762
 20
749.761
 30
0.000000
  70
    32
  0
VERTEX
  8
0
  5
EDD
 10
556.152
 20
749.917
 30
0.000000
  70
    32
  0
VERTEX
  8
0
  5
EDE
 10
556.535
 20
750.079
 30
0.000000
  70
    32
  0
VERTEX
  8
0
  5
EDF
 10
556.911
 20
750.250
 30
0.000000
  70
    32
  0
VERTEX
  8
0
  5
EE0
 10
557.281
 20
750.427
 30
0.000000
  70
    32
  0
VERTEX
  8
0
  5
EE1
 10
557.643
 20
750.611
 30
0.000000
  70
    32
  0
VERTEX
  8
0
  5
EE2
 10
557.998
 20
750.802
 30
0.000000
  70
    32
  0
VERTEX
  8
0
  5
EE3
 10
558.346
 20
750.999
 30
0.000000
  70
    32
  0
VERTEX
  8
0
  5
EE4
 10
558.686
 20
751.203
 30
0.000000
  70
    32
  0
VERTEX
  8
0
  5
EE5
 10
559.018
 20
751.414
 30
0.000000
  70
    32
  0
VERTEX
  8
0
  5
EE6
 10
559.341
 20
751.631
 30
0.000000
  70
    32
  0
VERTEX
  8
0
  5
EE7
 10
559.656
 20
751.854
 30
0.000000
  70
    32
  0
VERTEX
  8
0
  5
EE8
 10
559.961
 20
752.082
 30
0.000000
  70
    32
  0
VERTEX
  8
0
  5
EE9
 10
560.258
 20
752.317
 30
0.000000
  70
    32
  0
VERTEX
  8
0
  5
EEA
 10
560.546
 20
752.557
 30
0.000000
  70
    32
  0
VERTEX
  8
0
  5
EEB
 10
560.824
 20
752.802
 30
0.000000
  70
    32
  0
VERTEX
  8
0
  5
EEC
 10
561.092
 20
753.053
 30
0.000000
  70
    32
  0
VERTEX
  8
0
  5
EED
 10
561.350
 20
753.308
 30
0.000000
  70
    32
  0
VERTEX
  8
0
  5
EEE
 10
561.599
 20
753.569
 30
0.000000
  70
    32
  0
VERTEX
  8
0
  5
EEF
 10
561.837
 20
753.834
 30
0.000000
  70
    32
  0
VERTEX
  8
0
  5
EF0
 10
562.064
 20
754.103
 30
0.000000
  70
    32
  0
VERTEX
  8
0
  5
EF1
 10
562.281
 20
754.377
 30
0.000000
  70
    32
  0
VERTEX
  8
0
  5
EF2
 10
562.487
 20
754.655
 30
0.000000
  70
    32
  0
VERTEX
  8
0
  5
EF3
 10
562.682
 20
754.936
 30
0.000000
  70
    32
  0
VERTEX
  8
0
  5
EF4
 10
562.866
 20
755.221
 30
0.000000
  70
    32
  0
VERTEX
  8
0
  5
EF5
 10
563.039
 20
755.510
 30
0.000000
  70
    32
  0
VERTEX
  8
0
  5
EF6
 10
563.201
 20
755.801
 30
0.000000
  70
    32
  0
VERTEX
  8
0
  5
EF7
 10
563.351
 20
756.096
 30
0.000000
  70
    32
  0
VERTEX
  8
0
  5
EF8
 10
563.489
 20
756.393
 30
0.000000
  70
    32
  0
VERTEX
  8
0
  5
EF9
 10
563.616
 20
756.693
 30
0.000000
  70
    32
  0
VERTEX
  8
0
  5
EFA
 10
563.731
 20
756.996
 30
0.000000
  70
    32
  0
VERTEX
  8
0
  5
EFB
 10
563.834
 20
757.300
 30
0.000000
  70
    32
  0
VERTEX
  8
0
  5
EFC
 10
563.925
 20
757.606
 30
0.000000
  70
    32
  0
VERTEX
  8
0
  5
EFD
 10
564.004
 20
757.914
 30
0.000000
  70
    32
  0
VERTEX
  8
0
  5
EFE
 10
564.071
 20
758.223
 30
0.000000
  70
    32
  0
VERTEX
  8
0
  5
EFF
 10
564.126
 20
758.533
 30
0.000000
  70
    32
  0
VERTEX
  8
0
  5
F00
 10
564.169
 20
758.845
 30
0.000000
  70
    32
  0
VERTEX
  8
0
  5
F01
 10
564.200
 20
759.156
 30
0.000000
  70
    32
  0
VERTEX
  8
0
  5
F02
 10
564.218
 20
759.469
 30
0.000000
  70
    32
  0
VERTEX
  8
0
  5
F03
 10
564.224
 20
759.782
 30
0.000000
  70
    32
  0
VERTEX
  8
0
  5
F04
 10
564.218
 20
760.094
 30
0.000000
  70
    32
  0
VERTEX
  8
0
  5
F05
 10
564.200
 20
760.407
 30
0.000000
  70
    32
  0
VERTEX
  8
0
  5
F06
 10
564.169
 20
760.719
 30
0.000000
  70
    32
  0
VERTEX
  8
0
  5
F07
 10
564.126
 20
761.030
 30
0.000000
  70
    32
  0
VERTEX
  8
0
  5
F08
 10
564.071
 20
761.340
 30
0.000000
  70
    32
  0
VERTEX
  8
0
  5
F09
 10
564.004
 20
761.649
 30
0.000000
  70
    32
  0
VERTEX
  8
0
  5
F0A
 10
563.925
 20
761.957
 30
0.000000
  70
    32
  0
VERTEX
  8
0
  5
F0B
 10
563.834
 20
762.263
 30
0.000000
  70
    32
  0
VERTEX
  8
0
  5
F0C
 10
563.731
 20
762.567
 30
0.000000
  70
    32
  0
VERTEX
  8
0
  5
F0D
 10
563.616
 20
762.870
 30
0.000000
  70
    32
  0
VERTEX
  8
0
  5
F0E
 10
563.489
 20
763.170
 30
0.000000
  70
    32
  0
VERTEX
  8
0
  5
F0F
 10
563.351
 20
763.467
 30
0.000000
  70
    32
  0
VERTEX
  8
0
  5
F10
 10
563.201
 20
763.762
 30
0.000000
  70
    32
  0
VERTEX
  8
0
  5
F11
 10
563.039
 20
764.053
 30
0.000000
  70
    32
  0
VERTEX
  8
0
  5
F12
 10
562.866
 20
764.342
 30
0.000000
  70
    32
  0
VERTEX
  8
0
  5
F13
 10
562.682
 20
764.627
 30
0.000000
  70
    32
  0
VERTEX
  8
0
  5
F14
 10
562.487
 20
764.908
 30
0.000000
  70
    32
  0
VERTEX
  8
0
  5
F15
 10
562.281
 20
765.186
 30
0.000000
  70
    32
  0
VERTEX
  8
0
  5
F16
 10
562.064
 20
765.460
 30
0.000000
  70
    32
  0
VERTEX
  8
0
  5
F17
 10
561.837
 20
765.729
 30
0.000000
  70
    32
  0
VERTEX
  8
0
  5
F18
 10
561.599
 20
765.994
 30
0.000000
  70
    32
  0
VERTEX
  8
0
  5
F19
 10
561.350
 20
766.255
 30
0.000000
  70
    32
  0
VERTEX
  8
0
  5
F1A
 10
561.092
 20
766.510
 30
0.000000
  70
    32
  0
VERTEX
  8
0
  5
F1B
 10
560.824
 20
766.761
 30
0.000000
  70
    32
  0
VERTEX
  8
0
  5
F1C
 10
560.546
 20
767.006
 30
0.000000
  70
    32
  0
VERTEX
  8
0
  5
F1D
 10
560.258
 20
767.246
 30
0.000000
  70
    32
  0
VERTEX
  8
0
  5
F1E
 10
559.961
 20
767.481
 30
0.000000
  70
    32
  0
VERTEX
  8
0
  5
F1F
 10
559.656
 20
767.709
 30
0.000000
  70
    32
  0
VERTEX
  8
0
  5
F20
 10
559.341
 20
767.932
 30
0.000000
  70
    32
  0
VERTEX
  8
0
  5
F21
 10
559.018
 20
768.149
 30
0.000000
  70
    32
  0
VERTEX
  8
0
  5
F22
 10
558.686
 20
768.360
 30
0.000000
  70
    32
  0
VERTEX
  8
0
  5
F23
 10
558.346
 20
768.564
 30
0.000000
  70
    32
  0
VERTEX
  8
0
  5
F24
 10
557.998
 20
768.761
 30
0.000000
  70
    32
  0
VERTEX
  8
0
  5
F25
 10
557.643
 20
768.952
 30
0.000000
  70
    32
  0
VERTEX
  8
0
  5
F26
 10
557.281
 20
769.136
 30
0.000000
  70
    32
  0
VERTEX
  8
0
  5
F27
 10
556.911
 20
769.314
 30
0.000000
  70
    32
  0
VERTEX
  8
0
  5
F28
 10
556.535
 20
769.484
 30
0.000000
  70
    32
  0
VERTEX
  8
0
  5
F29
 10
556.152
 20
769.646
 30
0.000000
  70
    32
  0
VERTEX
  8
0
  5
F2A
 10
555.762
 20
769.802
 30
0.000000
  70
    32
  0
VERTEX
  8
0
  5
F2B
 10
555.367
 20
769.950
 30
0.000000
  70
    32
  0
VERTEX
  8
0
  5
F2C
 10
554.967
 20
770.090
 30
0.000000
  70
    32
  0
VERTEX
  8
0
  5
F2D
 10
554.560
 20
770.223
 30
0.000000
  70
    32
  0
VERTEX
  8
0
  5
F2E
 10
554.149
 20
770.348
 30
0.000000
  70
    32
  0
VERTEX
  8
0
  5
F2F
 10
553.733
 20
770.465
 30
0.000000
  70
    32
  0
VERTEX
  8
0
  5
F30
 10
553.313
 20
770.575
 30
0.000000
  70
    32
  0
VERTEX
  8
0
  5
F31
 10
552.889
 20
770.676
 30
0.000000
  70
    32
  0
VERTEX
  8
0
  5
F32
 10
552.460
 20
770.769
 30
0.000000
  70
    32
  0
VERTEX
  8
0
  5
F33
 10
552.029
 20
770.854
 30
0.000000
  70
    32
  0
VERTEX
  8
0
  5
F34
 10
551.594
 20
770.930
 30
0.000000
  70
    32
  0
VERTEX
  8
0
  5
F35
 10
551.156
 20
770.999
 30
0.000000
  70
    32
  0
VERTEX
  8
0
  5
F36
 10
550.716
 20
771.059
 30
0.000000
  70
    32
  0
VERTEX
  8
0
  5
F37
 10
550.273
 20
771.110
 30
0.000000
  70
    32
  0
VERTEX
  8
0
  5
F38
 10
549.829
 20
771.153
 30
0.000000
  70
    32
  0
VERTEX
  8
0
  5
F39
 10
549.383
 20
771.188
 30
0.000000
  70
    32
  0
VERTEX
  8
0
  5
F3A
 10
548.936
 20
771.214
 30
0.000000
  70
    32
  0
VERTEX
  8
0
  5
F3B
 10
548.488
 20
771.232
 30
0.000000
  70
    32
  0
VERTEX
  8
0
  5
F3C
 10
548.040
 20
771.241
 30
0.000000
  70
    32
  0
VERTEX
  8
0
  5
F3D
 10
547.591
 20
771.242
 30
0.000000
  70
    32
  0
VERTEX
  8
0
  5
F3E
 10
547.143
 20
771.234
 30
0.000000
  70
    32
  0
VERTEX
  8
0
  5
F3F
 10
546.695
 20
771.218
 30
0.000000
  70
    32
  0
VERTEX
  8
0
  5
F40
 10
546.248
 20
771.193
 30
0.000000
  70
    32
  0
VERTEX
  8
0
  5
F41
 10
545.802
 20
771.159
 30
0.000000
  70
    32
  0
VERTEX
  8
0
  5
F42
 10
545.357
 20
771.118
 30
0.000000
  70
    32
  0
VERTEX
  8
0
  5
F43
 10
544.914
 20
771.067
 30
0.000000
  70
    32
  0
SEQEND
  8
0
  5
F44
  0
ARC
  5
9AA
  8
0
 10
548.72417977928251
 20
759.7815265032433
 30
0.0
 40
10.0
 50
268.83844414496622
 51
91.16155585503374
  0
CIRCLE
  5
9AB
  8
0
  6
DASHED
 10
548.72417977928251
 20
759.7815265032433
 30
0.0
 40
6.5
  0
LINE
  5
9AC
  8
0
  6
CENTER
 10
548.72417977928251
 20
768.2815265032433
 30
0.0
 11
548.72417977928251
 21
751.2815265032433
 31
0.0
  0
ARC
  5
9AD
  8
0
 10
499.22417977928251
 20
759.7815265032433
 30
0.0
 40
26.5
 50
338.99247458018181
 51
21.007525419818109
  0
LINE
  5
9AE
  8
0
 10
523.96281353298855
 20
750.2815265032433
 30
0.0
 11
548.52146392460247
 21
749.78358140026035
 31
0.0
  0
LINE
  5
9AF
  8
0
 10
523.96281353298855
 20
750.2815265032433
 30
0.0
 11
545.76696070526714
 21
748.40655984447653
 31
0.0
  0
LINE
  5
9B0
  8
0
 10
523.96281353298855
 20
769.28152650324319
 30
0.0
 11
548.52146392460247
 21
769.77947160622625
 31
0.0
  0
LINE
  5
9B1
  8
0
 10
523.96281353298855
 20
769.28152650324319
 30
0.0
 11
545.76696070526714
 21
771.15649316201007
 31
0.0
  0
ARC
  5
9B2
  8
0
 10
549.79331008962072
 20
889.03727440683519
 30
0.0
 40
14.0
 50
14.03624346792664
 51
90.000000000000213
  0
LINE
  5
9B3
  8
0
 10
558.44340337287804
 20
909.03727440683519
 30
0.0
 11
520.05902838937084
 21
909.03727440683497
 31
0.0
  0
ARC
  5
9B5
  8
0
 10
518.26972862917921
 20
912.03727440683508
 30
0.0
 40
1.0
 50
5.2159085704559072
 51
90.0
  0
ARC
  5
9B6
  8
0
 10
529.22417977928251
 20
913.03727440683508
 30
0.0
 40
10.0
 50
185.21590857045391
 51
270.0
  0
LINE
  5
9B8
  8
0
  6
DASHED
 10
542.22417977928205
 20
889.03727440683519
 30
0.0
 11
542.22417977928205
 21
909.03727440683497
 31
0.0
  0
LINE
  5
9B9
  8
0
  6
DASHED
 10
555.22417977928205
 20
889.03727440683519
 30
0.0
 11
555.22417977928205
 21
909.03727440683497
 31
0.0
  0
LINE
  5
9BA
  8
0
  6
CENTER
 10
548.72417977928205
 20
912.03727440683485
 30
0.0
 11
548.72417977928205
 21
881.03727440683542
 31
0.0
  0
LINE
  5
9BF
  8
0
 10
564.22417977928262
 20
889.03727440683519
 30
0.0
 11
559.41354587302385
 21
908.27981003187165
 31
0.0
  0
LINE
  5
9C0
  8
0
 10
558.72417977928251
 20
884.03727440683531
 30
0.0
 11
558.72417977928251
 21
889.03727440683519
 31
0.0
  0
ARC
  5
9C1
  8
0
 10
558.44340337287804
 20
908.03727440683519
 30
0.0
 40
1.0
 50
14.03624346792664
 51
90.0
  0
LINE
  5
9C3
  8
0
 10
508.22417977928291
 20
988.53727440683519
 30
0.0
 11
508.22417977928302
 21
918.53727440683519
 31
0.0
  0
LINE
  5
9C4
  8
0
 10
490.22417977928302
 20
988.53727440683519
 30
0.0
 11
490.22417977928302
 21
918.53727440683519
 31
0.0
  0
LINE
  5
9C5
  8
0
 10
489.22417977928291
 20
987.53727440683497
 30
0.0
 11
489.22417977928291
 21
919.53727440683519
 31
0.0
  0
LINE
  5
9C6
  8
0
 10
509.22417977928302
 20
987.53727440683497
 30
0.0
 11
509.22417977928291
 21
919.53727440683519
 31
0.0
  0
LINE
  5
9C7
  8
0
 10
490.22417977928268
 20
918.53727440683542
 30
0.0
 11
508.22417977928302
 21
918.53727440683519
 31
0.0
  0
LINE
  5
9C8
  8
0
 10
492.72417977928239
 20
926.53727440683519
 30
0.0
 11
505.72417977928251
 21
926.53727440683519
 31
0.0
  0
LINE
  5
9C9
  8
0
 10
492.72417977928239
 20
918.53727440683542
 30
0.0
 11
505.72417977928251
 21
926.53727440683519
 31
0.0
  0
LINE
  5
9CA
  8
0
 10
505.72417977928251
 20
918.53727440683519
 30
0.0
 11
492.72417977928239
 21
926.53727440683519
 31
0.0
  0
LINE
  5
9CB
  8
0
 10
490.22417977928302
 20
918.53727440683519
 30
0.0
 11
489.22417977928291
 21
919.53727440683519
 31
0.0
  0
LINE
  5
9CC
  8
0
 10
492.72417977928239
 20
926.53727440683519
 30
0.0
 11
492.72417977928239
 21
918.53727440683519
 31
0.0
  0
LINE
  5
9CD
  8
0
 10
505.72417977928251
 20
926.53727440683519
 30
0.0
 11
505.72417977928251
 21
918.53727440683508
 31
0.0
  0
LINE
  5
9CE
  8
0
 10
508.22417977928291
 20
918.53727440683519
 30
0.0
 11
509.22417977928291
 21
919.53727440683519
 31
0.0
  0
LINE
  5
9CF
  8
0
 10
489.22417977928291
 20
987.53727440683519
 30
0.0
 11
509.22417977928291
 21
987.53727440683519
 31
0.0
  0
LINE
  5
9D0
  8
0
 10
490.22417977928302
 20
988.53727440683519
 30
0.0
 11
508.22417977928302
 21
988.53727440683519
 31
0.0
  0
LINE
  5
9D1
  8
0
 10
489.22417977928291
 20
987.53727440683519
 30
0.0
 11
490.22417977928302
 21
988.53727440683519
 31
0.0
  0
LINE
  5
9D2
  8
0
 10
508.22417977928291
 20
988.53727440683519
 30
0.0
 11
509.22417977928302
 21
987.53727440683519
 31
0.0
  0
LINE
  5
9D3
  8
0
 10
493.47417977928251
 20
914.53727440683531
 30
0.0
 11
504.97417977928251
 21
914.53727440683531
 31
0.0
  0
LINE
  5
9D4
  8
0
 10
493.47417977928251
 20
914.53727440683531
 30
0.0
 11
493.47417977928251
 21
918.53727440683508
 31
0.0
  0
LINE
  5
9D5
  8
0
 10
504.97417977928251
 20
914.53727440683531
 30
0.0
 11
504.97417977928251
 21
918.53727440683508
 31
0.0
  0
ARC
  5
9D6
  8
0
 10
499.87909196139748
 20
910.00776356693109
 30
0.0
 40
6.817359336338022
 50
26.383797295827961
 51
41.636955798337937
  0
ARC
  5
9D7
  8
0
 10
499.2241797792812
 20
909.7219343357707
 30
0.0
 40
7.5
 50
140.05549481016919
 51
153.76554495572901
  0
CIRCLE
  5
A9C
  8
0
 10
499.22417977928251
 20
759.7815265032433
 30
0.0
 40
10.0
  0
ARC
  5
A9D
  8
0
 10
499.22417977928251
 20
759.7815265032433
 30
0.0
 40
8.75
 50
90.0
 51
0.0
  0
VIEWPORT
  5
8D
 67
     1
  8
0
 10
143.47825622558591
 20
99.980751991271987
 30
0.0
 40
339.12752973873143
 41
222.1965796813964
 68
     1
 69
     1
1001
ACAD
1000
MVIEW
1002
{
1070
    16
1010
0.0
1020
0.0
1030
0.0
1010
0.0
1020
0.0
1030
1.0
1040
0.0
1040
222.1965796813964
1040
143.47825622558591
1040
99.980751991271987
1040
50.0
1040
0.0
1040
0.0
1070
     0
1070
   100
1070
     1
1070
     1
1070
     0
1070
     0
1070
     0
1070
     0
1040
0.0
1040
0.0
1040
0.0
1040
10.0
1040
10.0
1040
10.0
1040
10.0
1070
     0
1002
{
1002
}
1002
}
  0
VIEWPORT
  5
8F
 67
     1
  8
0
 10
143.37242841720581
 20
99.874916553497314
 30
0.0
 40
229.3958854675293
 41
159.79986648559569
 68
     2
 69
     2
1001
ACAD
1000
MVIEW
1002
{
1070
    16
1010
0.0
1020
0.0
1030
0.0
1010
0.0
1020
0.0
1030
1.0
1040
0.0
1040
300.10452961672468
1040
210.0
1040
148.5
1040
50.0
1040
0.0
1040
0.0
1070
     0
1070
   100
1070
     1
1070
     2
1070
     0
1070
     0
1070
     0
1070
     0
1040
0.0
1040
0.0
1040
0.0
1040
10.0
1040
10.0
1040
10.0
1040
10.0
1070
     0
1002
{
1002
}
1002
}
  0
ENDSEC
  0
EOF
