  0
SECTION
  2
HEADER
  9
$ACADVER
  1
AC1009
  9
$INSBASE
 10
0.0
 20
0.0
 30
0.0
  9
$EXTMIN
 10
-150.27294956479221
 20
751.12113396696998
 30
-0.0015258207003583
  9
$EXTMAX
 10
51.599741585376933
 20
909.99932751881238
 30
0.0000000349246037
  9
$LIMMIN
 10
0.0
 20
0.0
  9
$LIMMAX
 10
420.0
 20
297.0
  9
$ORTHOMODE
 70
     1
  9
$REGENMODE
 70
     1
  9
$FILLMODE
 70
     1
  9
$QTEXTMODE
 70
     0
  9
$MIRRTEXT
 70
     1
  9
$DRAGMODE
 70
     2
  9
$LTSCALE
 40
1.0
  9
$OSMODE
 70
    40
  9
$ATTMODE
 70
     1
  9
$TEXTSIZE
 40
2.5
  9
$TRACEWID
 40
1.0
  9
$TEXTSTYLE
  7
STANDARD
  9
$CLAYER
  8
0
  9
$CELTYPE
  6
BYLAYER
  9
$CECOLOR
 62
   256
  9
$DIMSCALE
 40
1.0
  9
$DIMASZ
 40
2.5
  9
$DIMEXO
 40
0.625
  9
$DIMDLI
 40
3.75
  9
$DIMRND
 40
0.0
  9
$DIMDLE
 40
0.0
  9
$DIMEXE
 40
1.25
  9
$DIMTP
 40
0.0
  9
$DIMTM
 40
0.0
  9
$DIMTXT
 40
2.5
  9
$DIMCEN
 40
2.5
  9
$DIMTSZ
 40
0.0
  9
$DIMTOL
 70
     0
  9
$DIMLIM
 70
     0
  9
$DIMTIH
 70
     1
  9
$DIMTOH
 70
     1
  9
$DIMSE1
 70
     0
  9
$DIMSE2
 70
     0
  9
$DIMTAD
 70
     1
  9
$DIMZIN
 70
     8
  9
$DIMBLK
  1

  9
$DIMASO
 70
     1
  9
$DIMSHO
 70
     1
  9
$DIMPOST
  1

  9
$DIMAPOST
  1

  9
$DIMALT
 70
     0
  9
$DIMALTD
 70
     3
  9
$DIMALTF
 40
0.03937007874016
  9
$DIMLFAC
 40
1.0
  9
$DIMTOFL
 70
     1
  9
$DIMTVP
 40
0.0
  9
$DIMTIX
 70
     0
  9
$DIMSOXD
 70
     0
  9
$DIMSAH
 70
     0
  9
$DIMBLK1
  1

  9
$DIMBLK2
  1

  9
$DIMSTYLE
  2
ISO-25
  9
$DIMCLRD
 70
     0
  9
$DIMCLRE
 70
     0
  9
$DIMCLRT
 70
     0
  9
$DIMTFAC
 40
1.0
  9
$DIMGAP
 40
0.625
  9
$LUNITS
 70
     2
  9
$LUPREC
 70
     4
  9
$SKETCHINC
 40
1.0
  9
$FILLETRAD
 40
3.5
  9
$AUNITS
 70
     0
  9
$AUPREC
 70
     0
  9
$MENU
  1
.
  9
$ELEVATION
 40
0.0
  9
$PELEVATION
 40
0.0
  9
$THICKNESS
 40
0.0
  9
$LIMCHECK
 70
     0
  9
$BLIPMODE
 70
     0
  9
$CHAMFERA
 40
0.9
  9
$CHAMFERB
 40
0.9
  9
$SKPOLY
 70
     0
  9
$TDCREATE
 40
2452943.4853946641
  9
$TDUPDATE
 40
2452944.3949504509
  9
$TDINDWG
 40
0.1206971759
  9
$TDUSRTIMER
 40
0.1206971759
  9
$USRTIMER
 70
     1
  9
$ANGBASE
 50
0.0
  9
$ANGDIR
 70
     0
  9
$PDMODE
 70
     3
  9
$PDSIZE
 40
2.0
  9
$PLINEWID
 40
0.0
  9
$COORDS
 70
     0
  9
$SPLFRAME
 70
     0
  9
$SPLINETYPE
 70
     6
  9
$SPLINESEGS
 70
     8
  9
$ATTDIA
 70
     0
  9
$ATTREQ
 70
     1
  9
$HANDLING
 70
-16383
  9
$HANDSEED
  5
176A
  9
$SURFTAB1
 70
     6
  9
$SURFTAB2
 70
     6
  9
$SURFTYPE
 70
     6
  9
$SURFU
 70
     6
  9
$SURFV
 70
     6
  9
$UCSNAME
  2

  9
$UCSORG
 10
0.0
 20
0.0
 30
0.0
  9
$UCSXDIR
 10
1.0
 20
0.0
 30
0.0
  9
$UCSYDIR
 10
0.0
 20
1.0
 30
0.0
  9
$PUCSNAME
  2

  9
$PUCSORG
 10
0.0
 20
0.0
 30
0.0
  9
$PUCSXDIR
 10
1.0
 20
0.0
 30
0.0
  9
$PUCSYDIR
 10
0.0
 20
1.0
 30
0.0
  9
$USERI1
 70
     0
  9
$USERI2
 70
     0
  9
$USERI3
 70
     0
  9
$USERI4
 70
     0
  9
$USERI5
 70
     0
  9
$USERR1
 40
0.0
  9
$USERR2
 40
0.0
  9
$USERR3
 40
0.0
  9
$USERR4
 40
0.0
  9
$USERR5
 40
0.0
  9
$WORLDVIEW
 70
     1
  9
$SHADEDGE
 70
     3
  9
$SHADEDIF
 70
    70
  9
$TILEMODE
 70
     1
  9
$MAXACTVP
 70
    48
  9
$PLIMCHECK
 70
     0
  9
$PEXTMIN
 10
28.674485683441159
 20
19.97498331069945
 30
0.0
  9
$PEXTMAX
 10
258.0703711509704
 20
179.77484979629509
 30
0.0
  9
$PLIMMIN
 10
-5.027069091796875
 20
-5.0270833969116211
  9
$PLIMMAX
 10
291.98358154296869
 20
204.98858737945551
  9
$UNITMODE
 70
     0
  9
$VISRETAIN
 70
     1
  9
$PLINEGEN
 70
     0
  9
$PSLTSCALE
 70
     1
  0
ENDSEC
  0
SECTION
  2
TABLES
  0
TABLE
  2
VPORT
 70
    24
  0
VPORT
  2
*ACTIVE
 70
     0
 10
0.0
 20
0.0
 11
1.0
 21
1.0
 12
-49.336603989707662
 22
830.56023074289124
 13
0.0
 23
0.0
 14
10.0
 24
10.0
 15
10.0
 25
10.0
 16
0.0
 26
0.0
 36
1.0
 17
0.0
 27
0.0
 37
0.0
 40
160.0682923799458
 41
1.5262500000000001
 42
50.0
 43
0.0
 44
0.0
 50
0.0
 51
0.0
 71
     0
 72
   100
 73
     1
 74
     2
 75
     0
 76
     0
 77
     0
 78
     0
  0
ENDTAB
  0
TABLE
  2
LTYPE
 70
     2
  0
LTYPE
  2
CONTINUOUS
 70
     0
  3
Solid line
 72
    65
 73
     0
 40
0.0
  0
LTYPE
  2
DASHDOT_CENTER
 70
     0
  3
Center (.5x) ___ _ ___ _ ___ _ ___ _ ___ _ ___
 72
    65
 73
     4
 40
28.574999999999989
 49
19.050000000000001
 49
-3.1749999999999989
 49
3.1749999999999989
 49
-3.1749999999999989
  0
ENDTAB
  0
TABLE
  2
LAYER
 70
     2
  0
LAYER
  2
0
 70
     0
 62
     7
  6
CONTINUOUS
  0
ENDTAB
  0
TABLE
  2
STYLE
 70
     1
  0
STYLE
  2
STANDARD
 70
     0
 40
0.0
 41
1.0
 50
0.0
 71
     0
 42
2.5
  3
txt
  4

  0
ENDTAB
  0
TABLE
  2
VIEW
 70
     0
  0
ENDTAB
  0
TABLE
  2
UCS
 70
     0
  0
ENDTAB
  0
TABLE
  2
APPID
 70
     1
  0
APPID
  2
ACAD
 70
     0
  0
ENDTAB
  0
TABLE
  2
DIMSTYLE
 70
     1
  0
DIMSTYLE
  2
ISO-25
 70
     0
  3

  4

  5

  6

  7

 40
1.0
 41
2.5
 42
0.625
 43
3.75
 44
1.25
 45
0.0
 46
0.0
 47
0.0
 48
0.0
140
2.5
141
2.5
142
0.0
143
0.03937007874016
144
1.0
145
0.0
146
1.0
147
0.625
 71
     0
 72
     0
 73
     1
 74
     1
 75
     0
 76
     0
 77
     1
 78
     8
170
     0
171
     3
172
     1
173
     0
174
     0
175
     0
176
     0
177
     0
178
     0
  0
ENDTAB
  0
ENDSEC
  0
SECTION
  2
BLOCKS
  0
BLOCK
  8
0
  2
$MODEL_SPACE
 70
     0
 10
0.0
 20
0.0
 30
0.0
  3
$MODEL_SPACE
  1

  0
ENDBLK
  5
21
  8
0
  0
BLOCK
 67
     1
  8
0
  2
$PAPER_SPACE
 70
     0
 10
0.0
 20
0.0
 30
0.0
  3
$PAPER_SPACE
  1

  0
ENDBLK
  5
53
 67
     1
  8
0
  0
BLOCK
  8
0
  2
*X0
 70
     1
 10
0.0
 20
0.0
 30
0.0
  3
*X0
  1

  0
LINE
  5
16B6
  8
0
 62
     0
 10
-38.790495156037252
 20
834.28562399090345
 30
0.0
 11
-38.96820448986346
 21
834.46333332472955
 31
0.0
  0
LINE
  5
16B7
  8
0
 62
     0
 10
-38.790495156037252
 20
832.16430364734344
 30
0.0
 11
-41.089524833423127
 21
834.46333332472955
 31
0.0
  0
LINE
  5
16B8
  8
0
 62
     0
 10
-38.790495156037188
 20
830.04298330378401
 30
0.0
 11
-43.21084517698273
 21
834.46333332472955
 31
0.0
  0
LINE
  5
16B9
  8
0
 62
     0
 10
-39.832165520542212
 20
828.96333332472932
 30
0.0
 11
-45.332165520542389
 21
834.46333332472955
 31
0.0
  0
LINE
  5
16BA
  8
0
 62
     0
 10
-41.953485864101879
 20
828.96333332472932
 30
0.0
 11
-47.453485864102042
 21
834.46333332472955
 31
0.0
  0
LINE
  5
16BB
  8
0
 62
     0
 10
-44.074806207661531
 20
828.96333332472932
 30
0.0
 11
-49.574806207661652
 21
834.46333332472955
 31
0.0
  0
LINE
  5
16BC
  8
0
 62
     0
 10
-46.196126551221198
 20
828.96333332472932
 30
0.0
 11
-51.696126551221312
 21
834.46333332472955
 31
0.0
  0
LINE
  5
16BD
  8
0
 62
     0
 10
-48.317446894780851
 20
828.96333332472932
 30
0.0
 11
-51.790495156037188
 21
832.43638158598571
 31
0.0
  0
LINE
  5
16BE
  8
0
 62
     0
 10
-50.438767238340517
 20
828.96333332472943
 30
0.0
 11
-52.938767238340517
 21
831.46333332472955
 31
0.0
  0
LINE
  5
16BF
  8
0
 62
     0
 10
-52.56008758190017
 20
828.96333332472943
 30
0.0
 11
-55.060087581900291
 21
831.46333332472955
 31
0.0
  0
LINE
  5
16C0
  8
0
 62
     0
 10
-54.681407925459837
 20
828.96333332472943
 30
0.0
 11
-57.181407925460007
 21
831.46333332472955
 31
0.0
  0
LINE
  5
16C1
  8
0
 62
     0
 10
-56.802728269019553
 20
828.96333332472943
 30
0.0
 11
-59.30272826901966
 21
831.46333332472966
 31
0.0
  0
LINE
  5
16C2
  8
0
 62
     0
 10
-58.924048612579213
 20
828.96333332472943
 30
0.0
 11
-60.290495156037203
 21
830.32977986818753
 31
0.0
  0
LINE
  5
16C3
  8
0
 62
     0
 10
-40.77800753472394
 20
828.96333332472943
 30
0.0
 11
-38.790495156037252
 21
830.95084570341623
 31
0.0
  0
LINE
  5
16C4
  8
0
 62
     0
 10
-42.899327878283543
 20
828.96333332472943
 30
0.0
 11
-38.790495156037252
 21
833.07216604697567
 31
0.0
  0
LINE
  5
16C5
  8
0
 62
     0
 10
-45.020648221843203
 20
828.96333332472943
 30
0.0
 11
-39.520648221843139
 21
834.46333332472955
 31
0.0
  0
LINE
  5
16C6
  8
0
 62
     0
 10
-47.141968565402863
 20
828.96333332472943
 30
0.0
 11
-41.641968565402799
 21
834.46333332472955
 31
0.0
  0
LINE
  5
16C7
  8
0
 62
     0
 10
-49.263288908962522
 20
828.96333332472943
 30
0.0
 11
-43.763288908962458
 21
834.46333332472955
 31
0.0
  0
LINE
  5
16C8
  8
0
 62
     0
 10
-51.384609252522068
 20
828.96333332472943
 30
0.0
 11
-45.884609252522132
 21
834.46333332472955
 31
0.0
  0
LINE
  5
16C9
  8
0
 62
     0
 10
-53.505929596081728
 20
828.96333332472943
 30
0.0
 11
-48.005929596081778
 21
834.46333332472955
 31
0.0
  0
LINE
  5
16CA
  8
0
 62
     0
 10
-51.790495156037139
 20
832.80008810833374
 30
0.0
 11
-50.127249939641331
 21
834.46333332472955
 31
0.0
  0
LINE
  5
16CB
  8
0
 62
     0
 10
-55.627249939641331
 20
828.96333332472943
 30
0.0
 11
-53.127249939641281
 21
831.46333332472955
 31
0.0
  0
LINE
  5
16CC
  8
0
 62
     0
 10
-57.748570283200991
 20
828.96333332472943
 30
0.0
 11
-55.248570283200927
 21
831.46333332472955
 31
0.0
  0
LINE
  5
16CD
  8
0
 62
     0
 10
-59.869890626760593
 20
828.96333332472943
 30
0.0
 11
-57.369890626760537
 21
831.46333332472966
 31
0.0
  0
LINE
  5
16CE
  8
0
 62
     0
 10
-60.290495156037203
 20
830.6640491390126
 30
0.0
 11
-59.491210970320189
 21
831.46333332472966
 31
0.0
  0
ENDBLK
  5
16D0
  8
0
  0
BLOCK
  8
0
  2
*X1
 70
     1
 10
0.0
 20
0.0
 30
0.0
  3
*X1
  1

  0
LINE
  5
16D9
  8
0
 62
     0
 10
-111.2555480742618
 20
832.5044648845402
 30
0.0
 11
-112.7144165144494
 21
833.96333332472796
 31
0.0
  0
LINE
  5
16DA
  8
0
 62
     0
 10
-111.2555480742618
 20
830.38314454098065
 30
0.0
 11
-114.835736858009
 21
833.96333332472796
 31
0.0
  0
LINE
  5
16DB
  8
0
 62
     0
 10
-111.9570572015688
 20
828.96333332472818
 30
0.0
 11
-116.9570572015687
 21
833.96333332472796
 31
0.0
  0
LINE
  5
16DC
  8
0
 62
     0
 10
-114.0783775451285
 20
828.96333332472818
 30
0.0
 11
-119.0783775451283
 21
833.96333332472796
 31
0.0
  0
LINE
  5
16DD
  8
0
 62
     0
 10
-116.19969788868841
 20
828.96333332472841
 30
0.0
 11
-121.1555480742618
 21
833.91918351030165
 31
0.0
  0
LINE
  5
16DE
  8
0
 62
     0
 10
-118.32101823224809
 20
828.96333332472864
 30
0.0
 11
-121.1555480742618
 21
831.79786316674222
 31
0.0
  0
LINE
  5
16DF
  8
0
 62
     0
 10
-120.4423385758079
 20
828.96333332472864
 30
0.0
 11
-122.4423385758074
 21
830.96333332472818
 31
0.0
  0
LINE
  5
16E0
  8
0
 62
     0
 10
-122.5636589193675
 20
828.96333332472864
 30
0.0
 11
-124.563658919367
 21
830.96333332472818
 31
0.0
  0
LINE
  5
16E1
  8
0
 62
     0
 10
-124.6849792629273
 20
828.96333332472886
 30
0.0
 11
-126.6849792629266
 21
830.96333332472796
 31
0.0
  0
LINE
  5
16E2
  8
0
 62
     0
 10
-126.806299606487
 20
828.96333332472886
 30
0.0
 11
-128.25554807426181
 21
830.41258179250372
 31
0.0
  0
LINE
  5
16E3
  8
0
 62
     0
 10
-112.902899215753
 20
828.96333332472818
 30
0.0
 11
-111.2555480742618
 21
830.61068446621937
 31
0.0
  0
LINE
  5
16E4
  8
0
 62
     0
 10
-115.0242195593125
 20
828.96333332472841
 30
0.0
 11
-111.2555480742618
 21
832.73200480977903
 31
0.0
  0
LINE
  5
16E5
  8
0
 62
     0
 10
-117.145539902872
 20
828.96333332472841
 30
0.0
 11
-112.1455399028725
 21
833.96333332472796
 31
0.0
  0
LINE
  5
16E6
  8
0
 62
     0
 10
-119.26686024643161
 20
828.96333332472864
 30
0.0
 11
-114.2668602464322
 21
833.96333332472796
 31
0.0
  0
LINE
  5
16E7
  8
0
 62
     0
 10
-121.38818058999119
 20
828.96333332472864
 30
0.0
 11
-116.38818058999171
 21
833.96333332472807
 31
0.0
  0
LINE
  5
16E8
  8
0
 62
     0
 10
-121.1555480742619
 20
831.31728618401746
 30
0.0
 11
-118.50950093355129
 21
833.96333332472807
 31
0.0
  0
LINE
  5
16E9
  8
0
 62
     0
 10
-123.5095009335507
 20
828.96333332472875
 30
0.0
 11
-121.50950093355139
 21
830.96333332472796
 31
0.0
  0
LINE
  5
16EA
  8
0
 62
     0
 10
-121.1555480742618
 20
833.43860652757724
 30
0.0
 11
-120.6308212771109
 21
833.96333332472807
 31
0.0
  0
LINE
  5
16EB
  8
0
 62
     0
 10
-125.6308212771102
 20
828.96333332472886
 30
0.0
 11
-123.630821277111
 21
830.96333332472796
 31
0.0
  0
LINE
  5
16EC
  8
0
 62
     0
 10
-127.7521416206697
 20
828.96333332472886
 30
0.0
 11
-125.7521416206706
 21
830.96333332472818
 31
0.0
  0
LINE
  5
16ED
  8
0
 62
     0
 10
-128.25554807426181
 20
830.58124721469642
 30
0.0
 11
-127.8734619642302
 21
830.96333332472818
 31
0.0
  0
ENDBLK
  5
16EF
  8
0
  0
BLOCK
  8
0
  2
*X2
 70
     1
 10
0.0
 20
0.0
 30
0.0
  3
*X2
  1

  0
LINE
  5
16F1
  8
0
 62
     0
 10
-118.7555480742618
 20
845.66131913403274
 30
0.0
 11
-121.5575622649571
 21
848.46333332472818
 31
0.0
  0
LINE
  5
16F2
  8
0
 62
     0
 10
-108.53828240155561
 20
835.44405346132669
 30
0.0
 11
-113.2861974497453
 21
840.19196850951619
 31
0.0
  0
LINE
  5
16F3
  8
0
 62
     0
 10
-108.2555480742618
 20
832.33289200928652
 30
0.0
 11
-122.0748511754979
 21
846.15219511052248
 31
0.0
  0
LINE
  5
16F4
  8
0
 62
     0
 10
-112.7144165144496
 20
833.96333332472807
 30
0.0
 11
-122.39398913462379
 21
843.64290594490228
 31
0.0
  0
LINE
  5
16F5
  8
0
 62
     0
 10
-110.2144165144495
 20
831.46333332472796
 30
0.0
 11
-111.2555480742618
 21
832.5044648845402
 31
0.0
  0
LINE
  5
16F6
  8
0
 62
     0
 10
-115.5428436391957
 20
833.96333332472807
 30
0.0
 11
-123.3944734279396
 21
841.81496311347212
 31
0.0
  0
LINE
  5
16F7
  8
0
 62
     0
 10
-118.37127076394179
 20
833.96333332472807
 30
0.0
 11
-124.8743783188945
 21
840.46644087968059
 31
0.0
  0
LINE
  5
16F8
  8
0
 62
     0
 10
-121.1555480742616
 20
833.91918351030165
 30
0.0
 11
-125.89969788868829
 21
838.66333332472834
 31
0.0
  0
LINE
  5
16F9
  8
0
 62
     0
 10
-121.1555480742618
 20
831.09075638555578
 30
0.0
 11
-128.25554807426181
 21
838.19075638555557
 31
0.0
  0
LINE
  5
16FA
  8
0
 62
     0
 10
-123.8565521381805
 20
830.96333332472818
 30
0.0
 11
-128.25554807426181
 21
835.36232926080936
 31
0.0
  0
LINE
  5
16FB
  8
0
 62
     0
 10
-126.6849792629267
 20
830.96333332472796
 30
0.0
 11
-128.2555480742617
 21
832.53390213606303
 31
0.0
  0
LINE
  5
16FC
  8
0
 62
     0
 10
-110.402899215753
 20
831.46333332472796
 30
0.0
 11
-108.25684392695359
 21
833.60938861352747
 31
0.0
  0
LINE
  5
16FD
  8
0
 62
     0
 10
-111.2555480742618
 20
833.43911159096547
 30
0.0
 11
-108.71796254205
 21
835.97669712317725
 31
0.0
  0
LINE
  5
16FE
  8
0
 62
     0
 10
-113.55975346524529
 20
833.96333332472807
 30
0.0
 11
-109.7391573774859
 21
837.78392941248751
 31
0.0
  0
LINE
  5
16FF
  8
0
 62
     0
 10
-116.38818058999151
 20
833.96333332472807
 30
0.0
 11
-111.1832627666108
 21
839.16825114810877
 31
0.0
  0
LINE
  5
1700
  8
0
 62
     0
 10
-119.21660771473771
 20
833.96333332472807
 30
0.0
 11
-113.0588476574851
 21
840.1210933819807
 31
0.0
  0
LINE
  5
1701
  8
0
 62
     0
 10
-122.21660771473771
 20
830.96333332472796
 30
0.0
 11
-121.1555480742617
 21
832.02439296520402
 31
0.0
  0
LINE
  5
1702
  8
0
 62
     0
 10
-125.045034839484
 20
830.96333332472796
 30
0.0
 11
-115.362513715365
 21
840.64585444884688
 31
0.0
  0
LINE
  5
1703
  8
0
 62
     0
 10
-127.8734619642302
 20
830.96333332472796
 30
0.0
 11
-117.13824437712
 21
841.69855091183808
 31
0.0
  0
LINE
  5
1704
  8
0
 62
     0
 10
-128.2555480742617
 20
833.40967433944274
 30
0.0
 11
-118.3217482911235
 21
843.34347412258091
 31
0.0
  0
LINE
  5
1705
  8
0
 62
     0
 10
-125.7555480742617
 20
838.73810146418884
 30
0.0
 11
-118.7555480742618
 21
845.73810146418873
 31
0.0
  0
LINE
  5
1706
  8
0
 62
     0
 10
-128.25554807426181
 20
836.23810146418862
 30
0.0
 11
-125.8303162137222
 21
838.66333332472834
 31
0.0
  0
LINE
  5
1707
  8
0
 62
     0
 10
-122.0691460838835
 20
845.2529305793131
 30
0.0
 11
-119.5401319304254
 21
847.78194473277119
 31
0.0
  0
LINE
  5
1708
  8
0
 62
     0
 10
-122.1555480742617
 20
847.99495571368118
 30
0.0
 11
-121.6871704632149
 21
848.46333332472796
 31
0.0
  0
ENDBLK
  5
170A
  8
0
  0
BLOCK
  8
0
  2
*X3
 70
     1
 10
0.0
 20
0.0
 30
0.0
  3
*X3
  1

  0
LINE
  5
170C
  8
0
 62
     0
 10
36.034029410819301
 20
849.83801219707038
 30
0.0
 11
34.953106969450907
 21
850.91893463843883
 31
0.0
  0
LINE
  5
170D
  8
0
 62
     0
 10
47.580770400088788
 20
838.29127120780095
 30
0.0
 11
45.906365980181533
 21
839.96567562770815
 31
0.0
  0
LINE
  5
170E
  8
0
 62
     0
 10
36.578428097110191
 20
845.7580796048469
 30
0.0
 11
30.873174377227429
 21
851.46333332472955
 31
0.0
  0
LINE
  5
170F
  8
0
 62
     0
 10
49.573706882898477
 20
832.76280081905861
 30
0.0
 11
40.377895591439191
 21
841.95861211051783
 31
0.0
  0
LINE
  5
1710
  8
0
 62
     0
 10
44.437640471294742
 20
834.36333332472964
 30
0.0
 11
27.337640471294769
 21
851.46333332472955
 31
0.0
  0
LINE
  5
1711
  8
0
 62
     0
 10
47.337640471294613
 20
831.46333332472966
 30
0.0
 11
46.078428097110177
 21
832.72254569891413
 31
0.0
  0
LINE
  5
1712
  8
0
 62
     0
 10
40.902106565361969
 20
834.36333332472964
 30
0.0
 11
25.71457394321072
 21
849.55086594688066
 31
0.0
  0
LINE
  5
1713
  8
0
 62
     0
 10
37.36657265942921
 20
834.36333332472964
 30
0.0
 11
25.344715175876949
 21
846.38519080828166
 31
0.0
  0
LINE
  5
1714
  8
0
 62
     0
 10
33.831038753496379
 20
834.36333332472964
 30
0.0
 11
23.938731436540021
 21
844.255640641686
 31
0.0
  0
LINE
  5
1715
  8
0
 62
     0
 10
30.29550484756367
 20
834.36333332472964
 30
0.0
 11
22.07842809711024
 21
842.58041007518307
 31
0.0
  0
LINE
  5
1716
  8
0
 62
     0
 10
28.07842809711024
 20
833.0448761692503
 30
0.0
 11
19.578428097110191
 21
841.54487616925041
 31
0.0
  0
LINE
  5
1717
  8
0
 62
     0
 10
26.224437035698418
 20
831.36333332472941
 30
0.0
 11
19.578428097110191
 21
838.00934226331765
 31
0.0
  0
LINE
  5
1718
  8
0
 62
     0
 10
22.688903129765659
 20
831.36333332472952
 30
0.0
 11
19.57842809711024
 21
834.47380835738488
 31
0.0
  0
LINE
  5
1719
  8
0
 62
     0
 10
48.563371332367289
 20
831.46333332472966
 30
0.0
 11
49.578416184073092
 21
832.4783781764354
 31
0.0
  0
LINE
  5
171A
  8
0
 62
     0
 10
46.078428097110127
 20
832.51392399540509
 30
0.0
 11
49.076099817803602
 21
835.51159571609855
 31
0.0
  0
LINE
  5
171B
  8
0
 62
     0
 10
44.392303520501741
 20
834.3633333247293
 30
0.0
 11
47.893565363910788
 21
837.86459516813841
 31
0.0
  0
LINE
  5
171C
  8
0
 62
     0
 10
40.856769614568968
 20
834.36333332472952
 30
0.0
 11
46.211661192129668
 21
839.71822490229022
 31
0.0
  0
LINE
  5
171D
  8
0
 62
     0
 10
37.321235708636202
 20
834.36333332472952
 30
0.0
 11
44.050834978906948
 21
841.09293259500043
 31
0.0
  0
LINE
  5
171E
  8
0
 62
     0
 10
33.785701802703549
 20
834.36333332472964
 30
0.0
 11
41.306049263016291
 21
841.88368078504232
 31
0.0
  0
LINE
  5
171F
  8
0
 62
     0
 10
30.25016789677084
 20
834.36333332472964
 30
0.0
 11
38.322505892578242
 21
842.43567132053693
 31
0.0
  0
LINE
  5
1720
  8
0
 62
     0
 10
27.250167896770559
 20
831.36333332472918
 30
0.0
 11
28.078428097110301
 21
832.19159352506892
 31
0.0
  0
LINE
  5
1721
  8
0
 62
     0
 10
23.71463399083791
 20
831.36333332472941
 30
0.0
 11
36.745665518526998
 21
844.39436485241845
 31
0.0
  0
LINE
  5
1722
  8
0
 62
     0
 10
20.179100084905251
 20
831.36333332472941
 30
0.0
 11
36.578428097110191
 21
847.76266133693446
 31
0.0
  0
LINE
  5
1723
  8
0
 62
     0
 10
19.578428097110191
 20
834.29819524286722
 30
0.0
 11
35.634493116101559
 21
850.35426026185849
 31
0.0
  0
LINE
  5
1724
  8
0
 62
     0
 10
19.57842809711024
 20
837.83372914879976
 30
0.0
 11
33.20571687392902
 21
851.46101792561865
 31
0.0
  0
LINE
  5
1725
  8
0
 62
     0
 10
25.658390424625171
 20
847.4492253822475
 30
0.0
 11
29.672498367107089
 21
851.46333332472955
 31
0.0
  0
LINE
  5
1726
  8
0
 62
     0
 10
19.578428097110191
 20
841.36926305473276
 30
0.0
 11
19.97249836710688
 21
841.76333332472927
 31
0.0
  0
LINE
  5
1727
  8
0
 62
     0
 10
25.628428097110259
 20
850.95479696066536
 30
0.0
 11
26.136964461174269
 21
851.46333332472955
 31
0.0
  0
ENDBLK
  5
1729
  8
0
  0
BLOCK
  8
0
  2
*X4
 70
     1
 10
0.0
 20
0.0
 30
0.0
  3
*X4
  1

  0
LINE
  5
172B
  8
0
 62
     0
 10
46.078428097110177
 20
832.01543891772747
 30
0.0
 11
43.730533690108253
 21
834.36333332472952
 31
0.0
  0
LINE
  5
172C
  8
0
 62
     0
 10
46.078428097110177
 20
829.18701179298137
 30
0.0
 11
40.902106565362033
 21
834.36333332472952
 31
0.0
  0
LINE
  5
172D
  8
0
 62
     0
 10
43.47367944061574
 20
828.96333332472943
 30
0.0
 11
38.073679440615869
 21
834.36333332472952
 31
0.0
  0
LINE
  5
172E
  8
0
 62
     0
 10
40.645252315869577
 20
828.96333332472943
 30
0.0
 11
35.24525231586977
 21
834.3633333247293
 31
0.0
  0
LINE
  5
172F
  8
0
 62
     0
 10
37.816825191123421
 20
828.96333332472955
 30
0.0
 11
32.416825191123557
 21
834.3633333247293
 31
0.0
  0
LINE
  5
1730
  8
0
 62
     0
 10
34.988398066377208
 20
828.96333332472943
 30
0.0
 11
29.588398066377401
 21
834.3633333247293
 31
0.0
  0
LINE
  5
1731
  8
0
 62
     0
 10
32.159970941631002
 20
828.96333332472943
 30
0.0
 11
28.07842809711024
 21
833.0448761692503
 31
0.0
  0
LINE
  5
1732
  8
0
 62
     0
 10
29.331543816884789
 20
828.96333332472943
 30
0.0
 11
26.931543816884918
 21
831.36333332472941
 31
0.0
  0
LINE
  5
1733
  8
0
 62
     0
 10
26.503116692138629
 20
828.96333332472943
 30
0.0
 11
24.103116692138709
 21
831.36333332472952
 31
0.0
  0
LINE
  5
1734
  8
0
 62
     0
 10
23.67468956739247
 20
828.96333332472955
 30
0.0
 11
21.274689567392489
 21
831.36333332472952
 31
0.0
  0
LINE
  5
1735
  8
0
 62
     0
 10
20.84626244264626
 20
828.96333332472943
 30
0.0
 11
19.578428097110191
 21
830.23116767026556
 31
0.0
  0
LINE
  5
1736
  8
0
 62
     0
 10
43.942050988807686
 20
828.96333332472943
 30
0.0
 11
46.078428097110248
 21
831.09971043303199
 31
0.0
  0
LINE
  5
1737
  8
0
 62
     0
 10
41.113623864061417
 20
828.96333332472943
 30
0.0
 11
46.078428097110248
 21
833.92813755777831
 31
0.0
  0
LINE
  5
1738
  8
0
 62
     0
 10
38.285196739315268
 20
828.96333332472943
 30
0.0
 11
43.685196739315238
 21
834.3633333247293
 31
0.0
  0
LINE
  5
1739
  8
0
 62
     0
 10
35.456769614569112
 20
828.96333332472943
 30
0.0
 11
40.856769614569032
 21
834.3633333247293
 31
0.0
  0
LINE
  5
173A
  8
0
 62
     0
 10
32.628342489822899
 20
828.96333332472943
 30
0.0
 11
38.028342489822819
 21
834.3633333247293
 31
0.0
  0
LINE
  5
173B
  8
0
 62
     0
 10
29.799915365076739
 20
828.96333332472943
 30
0.0
 11
35.199915365076549
 21
834.3633333247293
 31
0.0
  0
LINE
  5
173C
  8
0
 62
     0
 10
26.97148824033059
 20
828.96333332472943
 30
0.0
 11
32.371488240330393
 21
834.3633333247293
 31
0.0
  0
LINE
  5
173D
  8
0
 62
     0
 10
28.07842809711024
 20
832.89870030625536
 30
0.0
 11
29.54306111558418
 21
834.3633333247293
 31
0.0
  0
LINE
  5
173E
  8
0
 62
     0
 10
24.14306111558437
 20
828.96333332472943
 30
0.0
 11
26.543061115584351
 21
831.36333332472941
 31
0.0
  0
LINE
  5
173F
  8
0
 62
     0
 10
21.314633990838161
 20
828.96333332472943
 30
0.0
 11
23.714633990838131
 21
831.36333332472952
 31
0.0
  0
LINE
  5
1740
  8
0
 62
     0
 10
19.57842809711024
 20
830.0555545557479
 30
0.0
 11
20.886206866091921
 21
831.36333332472952
 31
0.0
  0
ENDBLK
  5
1742
  8
0
  0
BLOCK
  8
0
  2
*X5
 70
     1
 10
0.0
 20
0.0
 30
0.0
  3
*X5
  1

  0
LINE
  5
174B
  8
0
 62
     0
 10
-36.688014194577022
 20
837.1328904977488
 30
0.0
 11
-39.120937983017711
 21
839.56581428618949
 31
0.0
  0
LINE
  5
174C
  8
0
 62
     0
 10
-49.322707416746603
 20
846.93915659517222
 30
0.0
 11
-51.564671885594571
 21
849.18112106402043
 31
0.0
  0
LINE
  5
174D
  8
0
 62
     0
 10
-35.302727060876059
 20
832.91917623930169
 30
0.0
 11
-43.334652241464823
 21
840.95110141989051
 31
0.0
  0
LINE
  5
174E
  8
0
 62
     0
 10
-39.67531127105002
 20
834.46333332472955
 30
0.0
 11
-46.421136232939887
 21
841.20915828661941
 31
0.0
  0
LINE
  5
174F
  8
0
 62
     0
 10
-48.794670194147159
 20
843.58269224782657
 30
0.0
 11
-54.190495156037173
 21
848.97851720971664
 31
0.0
  0
LINE
  5
1750
  8
0
 62
     0
 10
-36.675311271050298
 20
831.46333332472966
 30
0.0
 11
-38.790495156037252
 21
833.57851720971655
 31
0.0
  0
LINE
  5
1751
  8
0
 62
     0
 10
-42.503738395796233
 20
834.46333332472955
 30
0.0
 11
-54.137967617308561
 21
846.09756254624165
 31
0.0
  0
LINE
  5
1752
  8
0
 62
     0
 10
-45.332165520542439
 20
834.46333332472955
 30
0.0
 11
-54.818033619830942
 21
843.94920142401804
 31
0.0
  0
LINE
  5
1753
  8
0
 62
     0
 10
-48.160592645288538
 20
834.46333332472955
 30
0.0
 11
-56.043562404059337
 21
842.34630308350029
 31
0.0
  0
LINE
  5
1754
  8
0
 62
     0
 10
-50.989019770034758
 20
834.46333332472955
 30
0.0
 11
-57.738564184962691
 21
841.21287773965742
 31
0.0
  0
LINE
  5
1755
  8
0
 62
     0
 10
-51.790495156037188
 20
832.43638158598571
 30
0.0
 11
-59.01744689478096
 21
839.66333332472948
 31
0.0
  0
LINE
  5
1756
  8
0
 62
     0
 10
-53.645874019527291
 20
831.46333332472955
 30
0.0
 11
-60.290495156037203
 21
838.1079544612395
 31
0.0
  0
LINE
  5
1757
  8
0
 62
     0
 10
-56.474301144273447
 20
831.46333332472955
 30
0.0
 11
-60.290495156037203
 21
835.27952733649317
 31
0.0
  0
LINE
  5
1758
  8
0
 62
     0
 10
-59.302728269019497
 20
831.46333332472955
 30
0.0
 11
-60.290495156037139
 21
832.45110021174708
 31
0.0
  0
LINE
  5
1759
  8
0
 62
     0
 10
-36.863793972350379
 20
831.46333332472966
 30
0.0
 11
-35.308643475764711
 21
833.01848382131527
 31
0.0
  0
LINE
  5
175A
  8
0
 62
     0
 10
-38.790495156037139
 20
832.36505926578911
 30
0.0
 11
-35.798298288113578
 21
835.35725613371267
 31
0.0
  0
LINE
  5
175B
  8
0
 62
     0
 10
-39.520648221843032
 20
834.46333332472955
 30
0.0
 11
-36.753288340622021
 21
837.2306932059505
 31
0.0
  0
LINE
  5
175C
  8
0
 62
     0
 10
-42.349075346589238
 20
834.46333332472955
 30
0.0
 11
-38.065870108451797
 21
838.74653856286693
 31
0.0
  0
LINE
  5
175D
  8
0
 62
     0
 10
-45.177502471335401
 20
834.46333332472955
 30
0.0
 11
-39.717106638386952
 21
839.92372915767794
 31
0.0
  0
LINE
  5
175E
  8
0
 62
     0
 10
-48.005929596081558
 20
834.46333332472955
 30
0.0
 11
-41.753594442686897
 21
840.71566847812414
 31
0.0
  0
LINE
  5
175F
  8
0
 62
     0
 10
-50.83435672082777
 20
834.46333332472955
 30
0.0
 11
-44.334356720827877
 21
840.96333332472943
 31
0.0
  0
LINE
  5
1760
  8
0
 62
     0
 10
-53.83435672082765
 20
831.46333332472955
 30
0.0
 11
-51.790495156037188
 21
833.50719488952006
 31
0.0
  0
LINE
  5
1761
  8
0
 62
     0
 10
-56.662783845573983
 20
831.46333332472955
 30
0.0
 11
-46.769700605548053
 21
841.35641656475525
 31
0.0
  0
LINE
  5
1762
  8
0
 62
     0
 10
-59.491210970320189
 20
831.46333332472955
 30
0.0
 11
-48.30404869120013
 21
842.65049560384955
 31
0.0
  0
LINE
  5
1763
  8
0
 62
     0
 10
-60.290495156037203
 20
833.4924762637587
 30
0.0
 11
-49.034709032612
 21
844.74826238718379
 31
0.0
  0
LINE
  5
1764
  8
0
 62
     0
 10
-60.290495156037203
 20
836.3209033885048
 30
0.0
 11
-49.428820146183448
 21
847.1825783983586
 31
0.0
  0
LINE
  5
1765
  8
0
 62
     0
 10
-54.349377593236227
 20
845.09044807605198
 30
0.0
 11
-50.719053427263589
 21
848.72077224202462
 31
0.0
  0
LINE
  5
1766
  8
0
 62
     0
 10
-60.290495156037082
 20
839.14933051325113
 30
0.0
 11
-59.77649234455879
 21
839.66333332472936
 31
0.0
  0
LINE
  5
1767
  8
0
 62
     0
 10
-54.190495156037173
 20
848.07775763799725
 30
0.0
 11
-52.811480797722879
 21
849.45677199631143
 31
0.0
  0
ENDBLK
  5
1769
  8
0
  0
ENDSEC
  0
SECTION
  2
ENTITIES
  0
LINE
  5
198
  8
0
 10
-148.25554807426181
 20
831.46333332472966
 30
0.0
 11
-128.25554807426181
 21
831.46333332472886
 31
0.0
  0
LINE
  5
199
  8
0
 10
-108.2555480742618
 20
831.46333332472807
 30
0.0
 11
-108.2555480742618
 21
833.47470283681002
 31
0.0
1001
ACAD
1000
ASC_BOUNDS
1002
{
1070
    19
1005
1275
1002
}
  0
LINE
  5
19A
  8
0
  6
DASHDOT_CENTER
 10
-128.25554807426181
 20
826.96333332472807
 30
0.0
 11
-128.25554807426181
 21
908.27592310717284
 31
0.0
1001
ACAD
1000
ASC_BOUNDS
1002
{
1070
    19
1005
1275
1005
103F
1002
}
  0
LINE
  5
19B
  8
0
 10
-118.7555480742618
 20
845.38058373660078
 30
0.0
 11
-118.7555480742618
 21
845.96333332472796
 31
0.0
1001
ACAD
1000
ASC_BOUNDS
1002
{
1070
    19
1005
1275
1002
}
  0
ARC
  5
19C
  8
0
 10
-121.2555480742618
 20
845.96333332472796
 30
0.0
 40
2.5
 50
0.0
 51
90.0
1001
ACAD
1000
ASC_BOUNDS
1002
{
1070
    19
1005
1275
1002
}
  0
ARC
  5
19D
  8
0
 10
-115.2555480742618
 20
833.47470283681002
 30
0.0
 40
7.0
 50
0.0
 51
82.819244218541655
1001
ACAD
1000
ASC_BOUNDS
1002
{
1070
    19
1005
1275
1002
}
  0
ARC
  5
19E
  8
0
 10
-113.7555480742618
 20
845.38058373660078
 30
0.0
 40
5.0
 50
180.0
 51
262.8192442185416
1001
ACAD
1000
ASC_BOUNDS
1002
{
1070
    19
1005
1275
1002
}
  0
ARC
  5
19F
  8
0
 10
-135.25554807426181
 20
845.96333332472796
 30
0.0
 40
2.5
 50
90.0
 51
180.0
  0
ARC
  5
1A0
  8
0
 10
-142.75554807426181
 20
845.38058373660078
 30
0.0
 40
5.0
 50
277.18075578145829
 51
0.0
  0
LINE
  5
1A1
  8
0
 10
-137.75554807426181
 20
845.38058373660078
 30
0.0
 11
-137.75554807426181
 21
845.96333332472796
 31
0.0
  0
ARC
  5
1A2
  8
0
 10
-141.25554807426181
 20
833.47470283681002
 30
0.0
 40
7.0
 50
97.180755781458345
 51
180.0
  0
LINE
  5
1A3
  8
0
 10
-148.25554807426181
 20
831.46333332472807
 30
0.0
 11
-148.25554807426181
 21
833.47470283681002
 31
0.0
  0
LINE
  5
1A4
  8
0
 10
-135.25554807426181
 20
848.46333332472796
 30
0.0
 11
-128.25554807426181
 21
848.46333332472796
 31
0.0
  0
LINE
  5
1A5
  8
0
 10
-135.71530079343421
 20
840.41980002835442
 30
0.0
 11
-128.25554807426181
 21
840.41980002835464
 31
0.0
  0
LINE
  5
1A6
  8
0
 10
-133.7815896804216
 20
845.96333332472796
 30
0.0
 11
-128.25554807426181
 21
845.96333332472784
 31
0.0
  0
ARC
  5
1A7
  8
0
 10
-128.25554807426181
 20
845.663333324728
 30
0.0
 40
6.2000000000000002
 50
293.77999473141199
 51
14.592550602033601
1001
ACAD
1000
ASC_BOUNDS
1002
{
1070
    19
1005
1275
1002
}
  0
LINE
  5
1A8
  8
0
 10
-125.7555480742618
 20
838.66333332472811
 30
0.0
 11
-125.7555480742618
 21
839.98971014372626
 31
0.0
1001
ACAD
1000
ASC_BOUNDS
1002
{
1070
    19
1005
1275
1002
}
  0
LINE
  5
1A9
  8
0
 10
-128.25554807426181
 20
838.663333324728
 30
0.0
 11
-125.7555480742618
 21
838.66333332472811
 31
0.0
1001
ACAD
1000
ASC_BOUNDS
1002
{
1070
    19
1005
1275
1002
}
  0
LINE
  5
1AA
  8
0
 10
-128.25554807426181
 20
839.98971014372626
 30
0.0
 11
-125.7555480742618
 21
839.98971014372626
 31
0.0
  0
LINE
  5
1AD
  8
0
 10
-128.25554807426181
 20
830.96333332472796
 30
0.0
 11
-122.1555480742617
 21
830.96333332472796
 31
0.0
  0
LINE
  5
1AE
  8
0
 10
-121.1555480742617
 20
833.76333332472802
 30
0.0
 11
-121.1555480742617
 21
833.96333332472773
 31
0.0
  0
LINE
  5
1B0
  8
0
 10
-111.2555480742618
 20
831.71333332472818
 30
0.0
 11
-111.2555480742617
 21
833.96333332472796
 31
0.0
  0
ARC
  5
1B3
  8
0
 10
-128.25554807426181
 20
845.663333324728
 30
0.0
 40
6.2000000000000002
 50
307.44461903644901
 51
43.464023498338449
1001
ACAD
1000
ASC_BOUNDS
1002
{
1070
    19
1005
1275
1002
}
  0
LINE
  5
1B4
  8
0
 10
-123.7555480742618
 20
849.92830694715531
 30
0.0
 11
-123.7555480742618
 21
854.76333332472973
 31
0.0
  0
LINE
  5
1B5
  8
0
 10
-128.25554807426181
 20
840.74089672959849
 30
0.0
 11
-124.48598338229409
 21
840.74089672959849
 31
0.0
  0
LINE
  5
1B6
  8
0
 10
-128.25554807426181
 20
840.74089672959849
 30
0.0
 11
-124.6202859588287
 21
840.74089672959849
 31
0.0
  0
ARC
  5
1B7
  8
0
 10
-128.25554807426181
 20
845.663333324728
 30
0.0
 40
6.2000000000000002
 50
136.53597650166151
 51
153.1527866739969
  0
LINE
  5
1B9
  8
0
 10
-132.75554807426181
 20
849.92830694715531
 30
0.0
 11
-123.7555480742618
 21
849.92830694715531
 31
0.0
  0
LINE
  5
1BA
  8
0
 10
-135.6055480742618
 20
854.7633333247295
 30
0.0
 11
-120.9055480742617
 21
854.7633333247295
 31
0.0
  0
LINE
  5
1BB
  8
0
 10
-132.75554807426181
 20
849.92830694715531
 30
0.0
 11
-132.75554807426181
 21
854.76333332472973
 31
0.0
  0
LINE
  5
1BC
  8
0
 10
-135.6055480742618
 20
859.96333332472966
 30
0.0
 11
-120.9055480742617
 21
859.96333332472966
 31
0.0
  0
LINE
  5
1BD
  8
0
 10
-120.9055480742617
 20
854.7633333247295
 30
0.0
 11
-120.9055480742617
 21
859.96333332472955
 31
0.0
  0
LINE
  5
1BE
  8
0
 10
-135.6055480742618
 20
854.7633333247295
 30
0.0
 11
-135.6055480742618
 21
859.96333332472955
 31
0.0
  0
LINE
  5
1BF
  8
0
 10
-124.55554807426179
 20
854.7633333247295
 30
0.0
 11
-124.55554807426179
 21
859.96333332472966
 31
0.0
  0
LINE
  5
1C0
  8
0
 10
-131.93951599802631
 20
854.7633333247295
 30
0.0
 11
-131.93951599802631
 21
859.96333332472966
 31
0.0
  0
LINE
  5
1C1
  8
0
 10
-124.2555480742618
 20
859.96333332472966
 30
0.0
 11
-124.2555480742618
 21
904.36333332472975
 31
0.0
  0
LINE
  5
1C2
  8
0
 10
-132.25554807426181
 20
859.96333332472966
 30
0.0
 11
-132.25554807426181
 21
904.36333332472975
 31
0.0
  0
LINE
  5
1C8
  8
0
 10
-121.1555480742617
 20
833.96333332472807
 30
0.0
 11
-111.2555480742618
 21
833.96333332472807
 31
0.0
1001
ACAD
1000
ASC_BOUNDS
1002
{
1070
    19
1005
1275
1005
103F
1002
}
  0
LINE
  5
1C9
  8
0
 10
-111.2555480742618
 20
833.96333332472807
 30
0.0
 11
-111.2555480742619
 21
828.96333332472818
 31
0.0
1001
ACAD
1000
ASC_BOUNDS
1002
{
1070
    19
1005
1275
1005
103F
1002
}
  0
LINE
  5
1CA
  8
0
 10
-145.2555480742617
 20
828.96333332472955
 30
0.0
 11
-111.2555480742619
 21
828.96333332472818
 31
0.0
1001
ACAD
1000
ASC_BOUNDS
1002
{
1070
    19
1005
103F
1002
}
  0
LINE
  5
1CB
  8
0
 10
-145.2555480742617
 20
831.46333332472966
 30
0.0
 11
-145.2555480742617
 21
828.96333332472818
 31
0.0
  0
LINE
  5
1CC
  8
0
 10
-111.2555480742619
 20
831.46333332472818
 30
0.0
 11
-108.2555480742618
 21
831.46333332472807
 31
0.0
1001
ACAD
1000
ASC_BOUNDS
1002
{
1070
    19
1005
1275
1002
}
  0
LINE
  5
1CE
  8
0
 10
-121.1555480742617
 20
833.96333332472807
 30
0.0
 11
-121.1555480742618
 21
830.96333332472796
 31
0.0
1001
ACAD
1000
ASC_BOUNDS
1002
{
1070
    19
1005
1275
1005
103F
1002
}
  0
LINE
  5
1CF
  8
0
 10
-128.25554807426181
 20
830.96333332472796
 30
0.0
 11
-121.1555480742617
 21
830.96333332472796
 31
0.0
1001
ACAD
1000
ASC_BOUNDS
1002
{
1070
    19
1005
1275
1005
103F
1002
}
  0
LINE
  5
1D0
  8
0
 10
-122.72382139988601
 20
848.46333332472796
 30
0.0
 11
-121.2555480742618
 21
848.46333332472796
 31
0.0
1001
ACAD
1000
ASC_BOUNDS
1002
{
1070
    19
1005
1275
1002
}
  0
LINE
  5
23C
  8
0
  6
DASHDOT_CENTER
 10
-128.25554807426181
 20
805.13980865047085
 30
0.0
 11
-128.25554807426181
 21
761.13980865047085
 31
0.0
  0
CIRCLE
  5
23D
  8
0
 10
-128.25554807426181
 20
783.13980865047085
 30
0.0
 40
20.0
  0
LINE
  5
23E
  8
0
  6
DASHDOT_CENTER
 10
-150.25554807426181
 20
783.13980865047085
 30
0.0
 11
-106.2555480742618
 21
783.13980865047085
 31
0.0
  0
POLYLINE
  5
23F
  8
0
 66
     1
 10
0.0
 20
0.0
 30
0.0
 70
     1
  0
VERTEX
  5
16AE
  8
0
 10
-132.00832482399429
 20
789.63980865047085
 30
0.0
  0
VERTEX
  5
16AF
  8
0
 10
-135.7611015737269
 20
783.13980865047085
 30
0.0
  0
VERTEX
  5
16B0
  8
0
 10
-132.00832482399429
 20
776.63980865047085
 30
0.0
  0
VERTEX
  5
16B1
  8
0
 10
-124.50277132452921
 20
776.63980865047085
 30
0.0
  0
VERTEX
  5
16B2
  8
0
 10
-120.7499945747966
 20
783.13980865047085
 30
0.0
  0
VERTEX
  5
16B3
  8
0
 10
-124.50277132452921
 20
789.63980865047085
 30
0.0
  0
SEQEND
  5
16B4
  8
0
  0
CIRCLE
  5
240
  8
0
 10
-128.25554807426181
 20
783.13980865047085
 30
0.0
 40
4.0
  0
LINE
  5
49B
  8
0
 10
-131.65554807426179
 20
904.96333332472977
 30
0.0
 11
-124.8555480742618
 21
904.96333332472977
 31
0.0
  0
LINE
  5
49F
  8
0
 10
-131.65554807426179
 20
904.96333332472977
 30
0.0
 11
-132.25554807426181
 21
904.36333332472975
 31
0.0
  0
LINE
  5
4A0
  8
0
 10
-124.8555480742618
 20
904.96333332472977
 30
0.0
 11
-124.2555480742618
 21
904.36333332472975
 31
0.0
  0
LINE
  5
4A1
  8
0
 10
-132.25554807426181
 20
904.36333332472975
 30
0.0
 11
-124.2555480742618
 21
904.36333332472975
 31
0.0
  0
LINE
  5
4A2
  8
0
 10
-131.65554807426179
 20
904.96333332472977
 30
0.0
 11
-131.65554807426179
 21
859.96333332472966
 31
0.0
  0
LINE
  5
4A3
  8
0
 10
-124.8555480742618
 20
904.96333332472977
 30
0.0
 11
-124.8555480742618
 21
859.96333332472966
 31
0.0
  0
ARC
  5
54C
  8
0
 10
-128.25554807426181
 20
783.13980865047085
 30
0.0
 40
3.399999999999999
 50
90.0
 51
0.0
  0
LINE
  5
634
  8
0
 10
-81.790495156037196
 20
828.96333332472943
 30
0.0
 11
-38.790495156037188
 21
828.96333332472943
 31
0.0
1001
ACAD
1000
ASC_BOUNDS
1002
{
1070
    19
1005
B60
1002
}
  0
LINE
  5
672
  8
0
 10
-85.290495156037196
 20
831.46333332472966
 30
0.0
 11
-60.290495156037203
 21
831.46333332472955
 31
0.0
  0
LINE
  5
676
  8
0
  6
DASHDOT_CENTER
 10
-60.290495156037203
 20
826.96333332472955
 30
0.0
 11
-60.290495156037188
 21
907.96333332472966
 31
0.0
1001
ACAD
1000
ASC_BOUNDS
1002
{
1070
    19
1005
1632
1005
B60
1002
}
  0
LINE
  5
6B5
  8
0
 10
-81.790495156037196
 20
828.96333332472943
 30
0.0
 11
-81.790495156037196
 21
831.46333332472966
 31
0.0
  0
LINE
  5
6B6
  8
0
 10
-38.790495156037188
 20
828.96333332472943
 30
0.0
 11
-38.790495156037188
 21
834.46333332472955
 31
0.0
1001
ACAD
1000
ASC_BOUNDS
1002
{
1070
    19
1005
1632
1005
B60
1002
}
  0
LINE
  5
6F3
  8
0
 10
-76.790495156037224
 20
840.96333332472955
 30
0.0
 11
-75.540495156037181
 21
840.96333332472943
 31
0.0
  0
LINE
  5
6F5
  8
0
 10
-35.290495156037188
 20
831.46333332472966
 30
0.0
 11
-35.290495156037188
 21
832.46333332472955
 31
0.0
1001
ACAD
1000
ASC_BOUNDS
1002
{
1070
    19
1005
1632
1002
}
  0
ARC
  5
6F6
  8
0
 10
-43.790495156037188
 20
832.46333332472955
 30
0.0
 40
8.5
 50
0.0
 51
90.0
1001
ACAD
1000
ASC_BOUNDS
1002
{
1070
    19
1005
1632
1002
}
  0
LINE
  5
6F7
  8
0
 10
-85.290495156037196
 20
831.46333332472966
 30
0.0
 11
-85.290495156037196
 21
832.46333332472955
 31
0.0
  0
ARC
  5
6F8
  8
0
 10
-76.790495156037196
 20
832.46333332472955
 30
0.0
 40
8.5
 50
90.0
 51
180.0
  0
LINE
  5
736
  8
0
 10
-67.54049515603721
 20
849.46333332472943
 30
0.0
 11
-60.290495156037203
 21
849.46333332472955
 31
0.0
  0
LINE
  5
737
  8
0
 10
-71.540495156037196
 20
844.96333332472955
 30
0.0
 11
-71.54049515603721
 21
845.46333332472955
 31
0.0
  0
ARC
  5
774
  8
0
 10
-67.54049515603721
 20
845.46333332472955
 30
0.0
 40
4.0
 50
90.0
 51
180.0
  0
ARC
  5
775
  8
0
 10
-75.540495156037196
 20
844.96333332472955
 30
0.0
 40
4.0
 50
270.00000000000023
 51
0.0000000000000382
  0
LINE
  5
776
  8
0
 10
-43.790495156037167
 20
840.96333332472955
 30
0.0
 11
-45.040495156037203
 21
840.96333332472943
 31
0.0
1001
ACAD
1000
ASC_BOUNDS
1002
{
1070
    19
1005
1632
1002
}
  0
LINE
  5
777
  8
0
 10
-49.040495156037203
 20
844.96333332472955
 30
0.0
 11
-49.040495156037181
 21
845.46333332472955
 31
0.0
1001
ACAD
1000
ASC_BOUNDS
1002
{
1070
    19
1005
1632
1002
}
  0
ARC
  5
778
  8
0
 10
-53.040495156037181
 20
845.46333332472955
 30
0.0
 40
4.0
 50
0.000000000000007
 51
90.0
1001
ACAD
1000
ASC_BOUNDS
1002
{
1070
    19
1005
1632
1002
}
  0
ARC
  5
779
  8
0
 10
-45.040495156037188
 20
844.96333332472955
 30
0.0
 40
4.0
 50
179.99999999999989
 51
269.99999999999972
1001
ACAD
1000
ASC_BOUNDS
1002
{
1070
    19
1005
1632
1002
}
  0
LINE
  5
86B
  8
0
 10
-67.540495156037196
 20
860.96333332472955
 30
0.0
 11
-53.040495156037188
 21
860.96333332472955
 31
0.0
  0
LINE
  5
86C
  8
0
 10
-67.540495156037196
 20
855.96333332472955
 30
0.0
 11
-67.540495156037196
 21
860.96333332472955
 31
0.0
  0
LINE
  5
86D
  8
0
 10
-67.540495156037196
 20
855.96333332472955
 30
0.0
 11
-53.040495156037188
 21
855.96333332472955
 31
0.0
  0
LINE
  5
86E
  8
0
 10
-53.040495156037188
 20
855.96333332472955
 30
0.0
 11
-53.040495156037188
 21
860.96333332472955
 31
0.0
  0
LINE
  5
873
  8
0
 10
-64.043271905769757
 20
855.96333332472955
 30
0.0
 11
-64.043271905769757
 21
860.96333332472955
 31
0.0
  0
LINE
  5
874
  8
0
 10
-56.537718406304627
 20
855.96333332472955
 30
0.0
 11
-56.537718406304627
 21
860.96333332472955
 31
0.0
  0
LINE
  5
875
  8
0
 10
-64.890495156037204
 20
850.96333332472955
 30
0.0
 11
-55.690495156037187
 21
850.96333332472955
 31
0.0
  0
LINE
  5
876
  8
0
 10
-64.89049515603719
 20
850.96333332472955
 30
0.0
 11
-64.89049515603719
 21
855.96333332472955
 31
0.0
  0
LINE
  5
877
  8
0
 10
-55.690495156037201
 20
850.96333332472955
 30
0.0
 11
-55.690495156037201
 21
855.96333332472955
 31
0.0
  0
LINE
  5
8B4
  8
0
 10
-60.290495156037188
 20
839.66333332472936
 30
0.0
 11
-57.790495156037188
 21
839.66333332472936
 31
0.0
1001
ACAD
1000
ASC_BOUNDS
1002
{
1070
    19
1005
1632
1002
}
  0
LINE
  5
8B6
  8
0
 10
-57.790495156037203
 20
839.66333332472948
 30
0.0
 11
-57.790495156037203
 21
841.18971014372767
 31
0.0
1001
ACAD
1000
ASC_BOUNDS
1002
{
1070
    19
1005
1632
1002
}
  0
ARC
  5
932
  8
0
 10
-60.290495156037203
 20
846.86333332472952
 30
0.0
 40
6.2000000000000002
 50
137.89655112925419
 51
155.2061375369442
  0
LINE
  5
936
  8
0
 10
-54.661996244249103
 20
849.46333332472943
 30
0.0
 11
-53.040495156037181
 21
849.46333332472943
 31
0.0
1001
ACAD
1000
ASC_BOUNDS
1002
{
1070
    19
1005
1632
1002
}
  0
ARC
  5
937
  8
0
 10
-60.290495156037203
 20
846.86333332472952
 30
0.0
 40
6.2000000000000002
 50
270.0
 51
42.103448870745659
1001
ACAD
1000
ASC_BOUNDS
1002
{
1070
    19
1005
1632
1002
}
  0
LINE
  5
A03
  8
0
 10
-38.790495156037188
 20
831.46333332472966
 30
0.0
 11
-35.290495156037188
 21
831.46333332472966
 31
0.0
1001
ACAD
1000
ASC_BOUNDS
1002
{
1070
    19
1005
1632
1002
}
  0
LINE
  5
AB8
  8
0
 10
-51.790495156037203
 20
834.46333332472955
 30
0.0
 11
-38.790495156037188
 21
834.46333332472955
 31
0.0
1001
ACAD
1000
ASC_BOUNDS
1002
{
1070
    19
1005
1632
1005
B60
1002
}
  0
LINE
  5
AB9
  8
0
 10
-81.790495156037196
 20
831.46333332472955
 30
0.0
 11
-60.290495156037188
 21
831.46333332472955
 31
0.0
  0
LINE
  5
ABA
  8
0
 10
-51.790495156037188
 20
831.46333332472955
 30
0.0
 11
-51.790495156037188
 21
834.46333332472955
 31
0.0
1001
ACAD
1000
ASC_BOUNDS
1002
{
1070
    19
1005
1632
1005
B60
1002
}
  0
LINE
  5
ABB
  8
0
 10
-51.790495156037188
 20
831.46333332472955
 30
0.0
 11
-60.290495156037203
 21
831.46333332472955
 31
0.0
1001
ACAD
1000
ASC_BOUNDS
1002
{
1070
    19
1005
1632
1005
B60
1002
}
  0
INSERT
  5
B60
  8
0
  6
CONTINUOUS
  2
*X0
 10
0.0
 20
0.0
 30
0.0
1001
ACAD
1000
HATCH
1002
{
1070
    19
1000
_USER
1040
1.5
1040
0.7853981633974483
1000
ASC_BOUNDS
1070
     1
1070
     1
1070
     6
1005
6B6
1005
634
1005
676
1005
ABB
1005
ABA
1005
AB8
1000
ASC_SEEDPOINT
1011
-48.149961010049417
1021
-0.0
1031
0.0
1021
831.28448492846417
1031
0.0
1000
R14_HATCH_DATA
1000
B60
1011
1.0
1021
-0.0
1031
0.0
1021
0.0
1031
0.0
1011
0.0
1021
-0.0
1031
0.0
1021
1.0
1031
0.0
1011
0.0
1021
-0.0
1031
0.0
1021
0.0
1031
1.0
1040
0.0
1010
0.0
1020
0.0
1030
1.0
1000
_USER
1070
     0
1070
     1
1071
        1
1071
        7
1070
     0
1070
     1
1071
        6
1040
-38.790495156037188
1040
828.96333332472943
1040
-38.790495156037188
1040
834.46333332472955
1040
-51.790495156037188
1040
834.46333332472955
1040
-51.790495156037188
1040
831.46333332472955
1040
-60.290495156037203
1040
831.46333332472966
1040
-60.290495156037203
1040
828.96333332472943
1071
        6
1005
AB8
1005
ABA
1005
ABB
1005
676
1005
634
1005
6B6
1070
     0
1070
     0
1040
0.7853981633974483
1040
1.5
1070
     1
1070
     2
1040
0.7853981633974483
1040
0.0
1040
0.0
1040
-1.060660171779821
1040
1.060660171779821
1070
     0
1040
2.3561944901923439
1040
0.0
1040
0.0
1040
-1.060660171779821
1040
-1.060660171779821
1070
     0
1040
0.1667795352686596
1071
        1
1040
-48.149961010049417
1040
831.28448492846417
1040
0.0
1002
}
  0
LINE
  5
B9D
  8
0
 10
-64.540495156037196
 20
905.96333332472955
 30
0.0
 11
-56.040495156037089
 21
905.96333332472943
 31
0.0
  0
LINE
  5
B9E
  8
0
 10
-65.290495156037196
 20
860.96333332472955
 30
0.0
 11
-65.290495156037196
 21
905.21333332472955
 31
0.0
  0
LINE
  5
BA0
  8
0
 10
-65.290495156037196
 20
905.21333332472955
 30
0.0
 11
-64.540495156037196
 21
905.96333332472955
 31
0.0
  0
LINE
  5
BA1
  8
0
 10
-55.290495156037181
 20
905.21333332472955
 30
0.0
 11
-56.040495156037181
 21
905.96333332472955
 31
0.0
  0
LINE
  5
BA2
  8
0
 10
-55.290495156037188
 20
860.96333332472955
 30
0.0
 11
-55.290495156037181
 21
905.21333332472955
 31
0.0
  0
LINE
  5
BA3
  8
0
 10
-64.540495156037196
 20
905.96333332472955
 30
0.0
 11
-64.540495156037196
 21
860.96333332472955
 31
0.0
  0
LINE
  5
BA4
  8
0
 10
-56.040495156037181
 20
905.96333332472955
 30
0.0
 11
-56.040495156037181
 21
860.96333332472955
 31
0.0
  0
LINE
  5
BA5
  8
0
 10
-65.290495156037196
 20
905.21333332472955
 30
0.0
 11
-55.290495156037181
 21
905.21333332472955
 31
0.0
  0
LINE
  5
C5A
  8
0
 10
-69.775749601463986
 20
840.96333332472955
 30
0.0
 11
-60.290495156037188
 21
840.96333332472955
 31
0.0
  0
LINE
  5
C5B
  8
0
 10
-66.875183204901873
 20
845.46333332472943
 30
0.0
 11
-60.290495156037188
 21
845.46333332472943
 31
0.0
  0
LINE
  5
C99
  8
0
  6
DASHDOT_CENTER
 10
-60.290495156037203
 20
810.13980865047085
 30
0.0
 11
-60.290495156037203
 21
756.13980865047085
 31
0.0
  0
CIRCLE
  5
C9A
  8
0
 10
-60.290495156037203
 20
783.13980865047085
 30
0.0
 40
25.0
  0
LINE
  5
CD8
  8
0
  6
DASHDOT_CENTER
 10
-87.290495156037196
 20
783.13980865047085
 30
0.0
 11
-33.290495156037203
 21
783.13980865047085
 31
0.0
  0
CIRCLE
  5
D15
  8
0
 10
-60.290495156037203
 20
783.13980865047085
 30
0.0
 40
5.0
  0
ARC
  5
D17
  8
0
 10
-60.290495156037203
 20
783.13980865047085
 30
0.0
 40
4.25
 50
90.0
 51
0.0
  0
POLYLINE
  5
D54
  8
0
 66
     1
 10
0.0
 20
0.0
 30
0.0
 70
     1
  0
VERTEX
  5
16D1
  8
0
 10
-64.043271905769757
 20
789.63980865047085
 30
0.0
  0
VERTEX
  5
16D2
  8
0
 10
-67.796048655502318
 20
783.13980865047085
 30
0.0
  0
VERTEX
  5
16D3
  8
0
 10
-64.043271905769757
 20
776.63980865047085
 30
0.0
  0
VERTEX
  5
16D4
  8
0
 10
-56.537718406304627
 20
776.63980865047085
 30
0.0
  0
VERTEX
  5
16D5
  8
0
 10
-52.784941656572073
 20
783.13980865047085
 30
0.0
  0
VERTEX
  5
16D6
  8
0
 10
-56.537718406304627
 20
789.63980865047085
 30
0.0
  0
SEQEND
  5
16D7
  8
0
  0
LINE
  5
E47
  8
0
 10
-6.9215719028898022
 20
828.96333332472943
 30
0.0
 11
46.078428097110177
 21
828.96333332472943
 31
0.0
  0
LINE
  5
E48
  8
0
 10
-10.4215719028898
 20
831.46333332472955
 30
0.0
 11
19.578428097110191
 21
831.46333332472955
 31
0.0
  0
LINE
  5
E49
  8
0
 10
-6.9215719028898022
 20
828.96333332472943
 30
0.0
 11
-6.9215719028898022
 21
831.46333332472955
 31
0.0
  0
LINE
  5
E4A
  8
0
 10
46.078428097110177
 20
828.96333332472943
 30
0.0
 11
46.078428097110191
 21
834.36333332472964
 31
0.0
  0
LINE
  5
E87
  8
0
 10
-10.4215719028898
 20
831.46333332472955
 30
0.0
 11
-10.4215719028898
 21
832.46333332472955
 31
0.0
  0
LINE
  5
E88
  8
0
 10
-0.9215719028898021
 20
841.96333332472966
 30
0.0
 11
-0.9215719028898092
 21
841.96333332472966
 31
0.0
  0
ARC
  5
E89
  8
0
 10
-0.9215719028898021
 20
832.46333332472955
 30
0.0
 40
9.5
 50
90.0
 51
180.0
  0
LINE
  5
E8A
  8
0
  6
DASHDOT_CENTER
 10
19.578428097110191
 20
826.96333332472955
 30
0.0
 11
19.578428097110191
 21
909.96333332472966
 31
0.0
  0
LINE
  5
F03
  8
0
 10
2.5784280971101969
 20
845.46333332472966
 30
0.0
 11
2.5784280971101898
 21
847.96333332472943
 31
0.0
  0
ARC
  5
F40
  8
0
 10
-0.9215719028898021
 20
845.46333332472966
 30
0.0
 40
3.5
 50
269.99999999999977
 51
0.0
  0
LINE
  5
F41
  8
0
 10
6.0784280971101898
 20
851.46333332472943
 30
0.0
 11
33.078428097110177
 21
851.46333332472955
 31
0.0
  0
ARC
  5
F42
  8
0
 10
6.0784280971101898
 20
847.96333332472943
 30
0.0
 40
3.5
 50
90.0
 51
180.0
  0
LINE
  5
F43
  8
0
 10
49.578428097110191
 20
831.46333332472955
 30
0.0
 11
49.578428097110191
 21
832.46333332472955
 31
0.0
  0
LINE
  5
F44
  8
0
 10
40.078428097110191
 20
841.96333332472966
 30
0.0
 11
40.078428097110212
 21
841.96333332472966
 31
0.0
  0
ARC
  5
F45
  8
0
 10
40.078428097110191
 20
832.46333332472955
 30
0.0
 40
9.5
 50
0.000000000000007
 51
90.0
  0
LINE
  5
F46
  8
0
 10
36.578428097110191
 20
845.46333332472966
 30
0.0
 11
36.578428097110191
 21
847.96333332472943
 31
0.0
  0
ARC
  5
F47
  8
0
 10
40.078428097110191
 20
845.46333332472966
 30
0.0
 40
3.5
 50
180.0
 51
270.00000000000011
  0
ARC
  5
F48
  8
0
 10
33.078428097110191
 20
847.96333332472943
 30
0.0
 40
3.5
 50
0.000000000000007
 51
90.0
  0
INSERT
  5
103F
  8
0
  6
CONTINUOUS
  2
*X1
 10
0.0
 20
0.0
 30
0.0
1001
ACAD
1000
HATCH
1002
{
1070
    19
1000
_USER
1040
1.5
1040
0.7853981633974483
1000
ASC_BOUNDS
1070
     1
1070
     1
1070
     6
1005
1C9
1005
1CA
1005
19A
1005
1CF
1005
1CE
1005
1C8
1000
ASC_SEEDPOINT
1011
-119.0483731720614
1021
-0.0
1031
0.0
1021
830.1222588432363
1031
0.0
1000
R14_HATCH_DATA
1000
103F
1011
1.0
1021
-0.0
1031
0.0
1021
0.0
1031
0.0
1011
0.0
1021
-0.0
1031
0.0
1021
1.0
1031
0.0
1011
0.0
1021
-0.0
1031
0.0
1021
0.0
1031
1.0
1040
0.0
1010
0.0
1020
0.0
1030
1.0
1000
_USER
1070
     0
1070
     1
1071
        1
1071
        7
1070
     0
1070
     1
1071
        6
1040
-111.2555480742619
1040
828.96333332472818
1040
-111.2555480742617
1040
833.96333332472796
1040
-121.1555480742617
1040
833.96333332472807
1040
-121.1555480742618
1040
830.96333332472796
1040
-128.2555480742617
1040
830.96333332472796
1040
-128.25554807426181
1040
828.96333332472886
1071
        6
1005
1C8
1005
1CE
1005
1CF
1005
19A
1005
1CA
1005
1C9
1070
     0
1070
     0
1040
0.7853981633974483
1040
1.5
1070
     1
1070
     2
1040
0.7853981633974483
1040
0.0
1040
0.0
1040
-1.060660171779821
1040
1.060660171779821
1070
     0
1040
2.3561944901923439
1040
0.0
1040
0.0
1040
-1.060660171779821
1040
-1.060660171779821
1070
     0
1040
0.0546861384076959
1071
        1
1040
-119.0483731720614
1040
830.1222588432363
1040
0.0
1002
}
  0
LINE
  5
10DC
  8
0
 10
19.578428097110191
 20
841.76333332472962
 30
0.0
 11
22.07842809711018
 21
841.7633333247295
 31
0.0
  0
LINE
  5
10DE
  8
0
 10
22.07842809711018
 20
841.7633333247295
 30
0.0
 11
22.07842809711018
 21
842.98971014372785
 31
0.0
  0
LINE
  5
10E2
  8
0
 10
25.628428097110191
 20
850.01887749590219
 30
0.0
 11
25.628428097110191
 21
851.46333332472943
 31
0.0
  0
LINE
  5
1199
  8
0
 10
46.078428097110177
 20
831.46333332472966
 30
0.0
 11
49.578428097110191
 21
831.46333332472955
 31
0.0
  0
LINE
  5
1213
  8
0
 10
-54.190495156037187
 20
847.97238697537045
 30
0.0
 11
-54.190495156037187
 21
849.46333332472943
 31
0.0
1001
ACAD
1000
ASC_BOUNDS
1002
{
1070
    19
1005
1632
1002
}
  0
LINE
  5
1263
  8
0
 10
-122.1555480742618
 20
846.77238697536905
 30
0.0
 11
-122.1555480742618
 21
848.46333332472818
 31
0.0
1001
ACAD
1000
ASC_BOUNDS
1002
{
1070
    19
1005
1275
1002
}
  0
INSERT
  5
1275
  8
0
  6
CONTINUOUS
  2
*X2
 10
0.0
 20
0.0
 30
0.0
1001
ACAD
1000
HATCH
1002
{
1070
    19
1000
_USER
1040
2.0
1040
0.7853981633974483
1000
ASC_BOUNDS
1070
     1
1070
     1
1070
    17
1005
19D
1005
199
1005
1CC
1005
1C9
1005
1C8
1005
1CE
1005
1CF
1005
19A
1005
1A9
1005
1A8
1005
1A7
1005
1B3
1005
1263
1005
1D0
1005
19C
1005
19B
1005
19E
1000
ASC_SEEDPOINT
1011
-118.21879221835211
1021
-0.0
1031
0.0
1021
839.31367866415906
1031
0.0
1000
R14_HATCH_DATA
1000
1275
1011
1.0
1021
-0.0
1031
0.0
1021
0.0
1031
0.0
1011
0.0
1021
-0.0
1031
0.0
1021
1.0
1031
0.0
1011
0.0
1021
-0.0
1031
0.0
1021
0.0
1031
1.0
1040
0.0
1010
0.0
1020
0.0
1030
1.0
1000
_USER
1070
     0
1070
     1
1071
        1
1071
        7
1070
     1
1070
     1
1071
       17
1040
-118.7555480742618
1040
845.38058373660078
1040
0.0
1040
-118.7555480742618
1040
845.96333332472796
1040
0.4142135623730951
1040
-121.2555480742618
1040
848.46333332472796
1040
0.0
1040
-122.1555480742618
1040
848.46333332472818
1040
0.0
1040
-122.1555480742618
1040
846.77238697536916
1040
-0.2813693038569537
1040
-124.48598338229419
1040
840.74089672959849
1040
-0.0596939238211516
1040
-125.7555480742618
1040
839.98971014372626
1040
0.0
1040
-125.7555480742618
1040
838.66333332472834
1040
0.0
1040
-128.25554807426181
1040
838.663333324728
1040
0.0
1040
-128.25554807426181
1040
830.96333332472796
1040
0.0
1040
-121.1555480742618
1040
830.96333332472796
1040
0.0
1040
-121.1555480742617
1040
833.96333332472807
1040
0.0
1040
-111.2555480742617
1040
833.96333332472807
1040
0.0
1040
-111.2555480742618
1040
831.46333332472818
1040
0.0
1040
-108.2555480742618
1040
831.46333332472796
1040
0.0
1040
-108.2555480742618
1040
833.47470283681002
1040
0.3779644730092269
1040
-114.3805480742617
1040
840.41980002835464
1040
-0.3779644730092275
1071
       17
1005
19E
1005
19B
1005
19C
1005
1D0
1005
1263
1005
1B3
1005
1A7
1005
1A8
1005
1A9
1005
19A
1005
1CF
1005
1CE
1005
1C8
1005
1C9
1005
1CC
1005
199
1005
19D
1070
     0
1070
     0
1040
0.7853981633974483
1040
2.0
1070
     1
1070
     2
1040
0.7853981633974483
1040
0.0
1040
0.0
1040
-1.414213562373094
1040
1.4142135623730949
1070
     0
1040
2.3561944901923439
1040
0.0
1040
0.0
1040
-1.4142135623730949
1040
-1.414213562373094
1070
     0
1040
0.0477063862494825
1071
        1
1040
-118.21879221835211
1040
839.31367866415906
1040
0.0
1002
}
  0
LINE
  5
12C8
  8
0
 10
12.328428097110219
 20
862.96333332472955
 30
0.0
 11
26.828428097110219
 21
862.96333332472955
 31
0.0
  0
LINE
  5
12C9
  8
0
 10
12.328428097110219
 20
857.96333332472966
 30
0.0
 11
12.328428097110219
 21
862.96333332472977
 31
0.0
  0
LINE
  5
12CA
  8
0
 10
12.328428097110219
 20
857.96333332472966
 30
0.0
 11
26.828428097110219
 21
857.96333332472966
 31
0.0
  0
LINE
  5
12CB
  8
0
 10
26.828428097110219
 20
857.96333332472966
 30
0.0
 11
26.828428097110219
 21
862.96333332472977
 31
0.0
  0
LINE
  5
12CC
  8
0
 10
15.825651347377651
 20
857.96333332472966
 30
0.0
 11
15.825651347377651
 21
862.96333332472955
 31
0.0
  0
LINE
  5
12CD
  8
0
 10
23.33120484684278
 20
857.96333332472966
 30
0.0
 11
23.33120484684278
 21
862.96333332472955
 31
0.0
  0
LINE
  5
12CE
  8
0
 10
14.978428097110211
 20
852.76333332472962
 30
0.0
 11
24.178428097110221
 21
852.76333332472962
 31
0.0
  0
LINE
  5
12CF
  8
0
 10
14.978428097110219
 20
852.76333332472962
 30
0.0
 11
14.978428097110219
 21
857.96333332472966
 31
0.0
  0
LINE
  5
12D0
  8
0
 10
24.17842809711021
 20
852.76333332472962
 30
0.0
 11
24.17842809711021
 21
857.96333332472966
 31
0.0
  0
ARC
  5
12D1
  8
0
 10
19.578428097110219
 20
848.66333332472948
 30
0.0
 40
6.2000000000000002
 50
137.89655112925419
 51
155.2061375369442
  0
ARC
  5
12D2
  8
0
 10
19.578428097110219
 20
848.66333332472948
 30
0.0
 40
6.2000000000000002
 50
270.0
 51
42.103448870745659
  0
LINE
  5
12D3
  8
0
 10
14.478428097110189
 20
907.96333332472989
 30
0.0
 11
24.67842809711054
 21
907.96333332472943
 31
0.0
  0
LINE
  5
1317
  8
0
 10
28.078428097110219
 20
834.36333332472952
 30
0.0
 11
46.078428097110177
 21
834.36333332472952
 31
0.0
  0
LINE
  5
1318
  8
0
 10
28.078428097110219
 20
831.36333332472952
 30
0.0
 11
28.078428097110219
 21
834.36333332472964
 31
0.0
  0
LINE
  5
131A
  8
0
 10
28.078428097110219
 20
831.36333332472952
 30
0.0
 11
19.578428097110191
 21
831.36333332472952
 31
0.0
  0
INSERT
  5
132B
  8
0
  6
CONTINUOUS
  2
*X3
 10
0.0
 20
0.0
 30
0.0
1001
ACAD
1000
HATCH
1002
{
1070
    19
1000
_USER
1040
2.5
1040
0.7853981633974483
1000
R14_HATCH_DATA
1000
132B
1011
1.0
1021
-0.0
1031
0.0
1021
0.0
1031
0.0
1011
0.0
1021
-0.0
1031
0.0
1021
1.0
1031
0.0
1011
0.0
1021
-0.0
1031
0.0
1021
0.0
1031
1.0
1040
0.0
1010
0.0
1020
0.0
1030
1.0
1000
_USER
1070
     0
1070
     0
1071
        1
1071
        7
1070
     1
1070
     1
1071
       16
1040
36.578428097110191
1040
845.46333332472966
1040
0.0
1040
36.578428097110191
1040
847.96333332472943
1040
0.4142135623731165
1040
33.078428097110162
1040
851.46333332472955
1040
0.0
1040
25.628428097110191
1040
851.46333332472955
1040
0.0
1040
25.628428097110191
1040
850.01887749590219
1040
-0.3582928016552929
1040
22.07842809711018
1040
842.98971014372785
1040
0.0
1040
22.07842809711018
1040
841.7633333247295
1040
0.0
1040
19.578428097110219
1040
841.76333332472927
1040
0.0
1040
19.578428097110219
1040
831.36333332472952
1040
0.0
1040
28.078428097110219
1040
831.36333332472941
1040
0.0
1040
28.078428097110219
1040
834.36333332472964
1040
0.0
1040
46.078428097110191
1040
834.36333332472952
1040
0.0
1040
46.078428097110177
1040
831.46333332472966
1040
0.0
1040
49.578428097110191
1040
831.46333332472966
1040
0.0
1040
49.578428097110191
1040
832.46333332472955
1040
0.4142135623730951
1040
40.078428097110191
1040
841.96333332472966
1040
-0.414213562373095
1071
        0
1070
     0
1070
     0
1040
0.7853981633974483
1040
2.5
1070
     1
1070
     2
1040
0.7853981633974483
1040
-1.5469687812274051
1040
0.0
1040
-1.767766952966368
1040
1.767766952966368
1070
     0
1040
2.3561944901923439
1040
-1.5469687812274051
1040
0.0
1040
-1.767766952966368
1040
-1.767766952966368
1070
     0
1040
0.1709015371550828
1071
        1
1040
30.76488354153684
1040
841.57796153050344
1040
0.0
1002
}
  0
INSERT
  5
1332
  8
0
  6
CONTINUOUS
  2
*X4
 10
0.0
 20
0.0
 30
0.0
1001
ACAD
1000
HATCH
1002
{
1070
    19
1000
_USER
1040
2.0
1040
0.7853981633974483
1000
R14_HATCH_DATA
1000
1332
1011
1.0
1021
-0.0
1031
0.0
1021
0.0
1031
0.0
1011
0.0
1021
-0.0
1031
0.0
1021
1.0
1031
0.0
1011
0.0
1021
-0.0
1031
0.0
1021
0.0
1031
1.0
1040
0.0
1010
0.0
1020
0.0
1030
1.0
1000
_USER
1070
     0
1070
     0
1071
        1
1071
        7
1070
     0
1070
     1
1071
        6
1040
28.078428097110219
1040
834.3633333247293
1040
28.078428097110219
1040
831.36333332472952
1040
19.578428097110219
1040
831.36333332472952
1040
19.578428097110219
1040
828.96333332472943
1040
46.078428097110177
1040
828.96333332472943
1040
46.078428097110191
1040
834.36333332472952
1071
        0
1070
     0
1070
     0
1040
0.7853981633974483
1040
2.0
1070
     1
1070
     2
1040
0.7853981633974483
1040
-1.5469687812274051
1040
0.0
1040
-1.414213562373094
1040
1.4142135623730949
1070
     0
1040
2.3561944901923439
1040
-1.5469687812274051
1040
0.0
1040
-1.4142135623730949
1040
-1.414213562373094
1070
     0
1040
0.1709015371550828
1071
        1
1040
30.93585862119744
1040
832.86198311055625
1040
0.0
1002
}
  0
LINE
  5
13AC
  8
0
 10
13.578428097110191
 20
862.96333332472955
 30
0.0
 11
13.578428097110191
 21
907.06333332472991
 31
0.0
  0
LINE
  5
13AD
  8
0
 10
14.478428097110189
 20
907.96333332472989
 30
0.0
 11
13.578428097110191
 21
907.06333332472991
 31
0.0
  0
LINE
  5
13AE
  8
0
 10
25.578428097110191
 20
862.96333332472955
 30
0.0
 11
25.578428097110191
 21
907.06333332472991
 31
0.0
  0
LINE
  5
13AF
  8
0
 10
24.678428097110181
 20
907.96333332472989
 30
0.0
 11
25.578428097110191
 21
907.06333332472991
 31
0.0
  0
LINE
  5
13B0
  8
0
 10
13.578428097110191
 20
907.06333332472991
 30
0.0
 11
25.578428097110191
 21
907.06333332472991
 31
0.0
  0
LINE
  5
13B1
  8
0
 10
14.478428097110189
 20
907.96333332472989
 30
0.0
 11
14.478428097110189
 21
862.96333332472955
 31
0.0
  0
LINE
  5
13B2
  8
0
 10
24.678428097110181
 20
907.96333332472989
 30
0.0
 11
24.678428097110181
 21
862.96333332472955
 31
0.0
  0
LINE
  5
13B3
  8
0
 10
6.2190994873537866
 20
841.96333332472966
 30
0.0
 11
19.578428097110191
 21
841.96333332472966
 31
0.0
  0
LINE
  5
142D
  8
0
 10
8.2216464745965823
 20
847.96333332472943
 30
0.0
 11
19.578428097110191
 21
847.96333332472943
 31
0.0
  0
LINE
  5
14E2
  8
0
  6
DASHDOT_CENTER
 10
-12.4215719028898
 20
783.13980865047085
 30
0.0
 11
51.578428097110177
 21
783.13980865047085
 31
0.0
  0
LINE
  5
14E3
  8
0
  6
DASHDOT_CENTER
 10
19.578428097110191
 20
815.13980865047085
 30
0.0
 11
19.578428097110191
 21
751.13980865047085
 31
0.0
  0
POLYLINE
  5
14EB
  8
0
 66
     1
 10
0.0
 20
0.0
 30
0.0
 70
     1
  0
VERTEX
  5
1743
  8
0
 10
15.825651347377621
 20
789.63980865047085
 30
0.0
  0
VERTEX
  5
1744
  8
0
 10
12.072874597645059
 20
783.13980865047085
 30
0.0
  0
VERTEX
  5
1745
  8
0
 10
15.825651347377621
 20
776.63980865047085
 30
0.0
  0
VERTEX
  5
1746
  8
0
 10
23.331204846842748
 20
776.63980865047085
 30
0.0
  0
VERTEX
  5
1747
  8
0
 10
27.08398159657531
 20
783.13980865047085
 30
0.0
  0
VERTEX
  5
1748
  8
0
 10
23.331204846842748
 20
789.63980865047085
 30
0.0
  0
SEQEND
  5
1749
  8
0
  0
CIRCLE
  5
14ED
  8
0
 10
19.578428097110191
 20
783.13980865047085
 30
0.0
 40
29.999999999999989
  0
ARC
  5
152D
  8
0
 10
19.578428097110191
 20
783.13980865047085
 30
0.0
 40
5.099999999999997
 50
90.0
 51
0.0
  0
CIRCLE
  5
152E
  8
0
 10
19.578428097110191
 20
783.13980865047085
 30
0.0
 40
6.0
  0
INSERT
  5
1632
  8
0
  6
CONTINUOUS
  2
*X5
 10
0.0
 20
0.0
 30
0.0
1001
ACAD
1000
HATCH
1002
{
1070
    19
1000
_USER
1040
2.0
1040
0.7853981633974483
1000
ASC_BOUNDS
1070
     1
1070
     1
1070
    17
1005
779
1005
776
1005
6F6
1005
6F5
1005
A03
1005
6B6
1005
AB8
1005
ABA
1005
ABB
1005
676
1005
8B4
1005
8B6
1005
937
1005
1213
1005
936
1005
778
1005
777
1000
ASC_SEEDPOINT
1011
-53.235075486602561
1021
-0.0
1031
0.0
1021
841.95085848958115
1031
0.0
1000
R14_HATCH_DATA
1000
1632
1011
1.0
1021
-0.0
1031
0.0
1021
0.0
1031
0.0
1011
0.0
1021
-0.0
1031
0.0
1021
1.0
1031
0.0
1011
0.0
1021
-0.0
1031
0.0
1021
0.0
1031
1.0
1040
0.0
1010
0.0
1020
0.0
1030
1.0
1000
_USER
1070
     0
1070
     1
1071
        1
1071
        7
1070
     1
1070
     1
1071
       17
1040
-57.790495156037203
1040
841.18971014372755
1040
0.0
1040
-57.790495156037203
1040
839.66333332472936
1040
0.0
1040
-60.290495156037188
1040
839.66333332472936
1040
0.0
1040
-60.290495156037188
1040
831.46333332472955
1040
0.0
1040
-51.790495156037188
1040
831.46333332472966
1040
0.0
1040
-51.790495156037188
1040
834.46333332472955
1040
0.0
1040
-38.790495156037188
1040
834.46333332472955
1040
0.0
1040
-38.790495156037188
1040
831.46333332472966
1040
0.0
1040
-35.290495156037188
1040
831.46333332472966
1040
0.0
1040
-35.290495156037188
1040
832.46333332472955
1040
0.4142135623731181
1040
-43.79049515603797
1040
840.96333332472955
1040
0.0
1040
-45.040495156036833
1040
840.96333332472943
1040
-0.4142135623731301
1040
-49.040495156037203
1040
844.96333332472955
1040
0.0
1040
-49.040495156037181
1040
845.46333332472943
1040
0.4142135623731033
1040
-53.040495156037181
1040
849.46333332472943
1040
0.0
1040
-54.190495156037187
1040
849.46333332472943
1040
0.0
1040
-54.190495156037187
1040
847.97238697537045
1040
-0.3468895984832112
1071
       17
1005
777
1005
778
1005
936
1005
1213
1005
937
1005
8B6
1005
8B4
1005
676
1005
ABB
1005
ABA
1005
AB8
1005
6B6
1005
A03
1005
6F5
1005
6F6
1005
776
1005
779
1070
     0
1070
     0
1040
0.7853981633974483
1040
2.0
1070
     1
1070
     2
1040
0.7853981633974483
1040
0.0
1040
0.0
1040
-1.414213562373094
1040
1.4142135623730949
1070
     0
1040
2.3561944901923439
1040
0.0
1040
0.0
1040
-1.4142135623730949
1040
-1.414213562373094
1070
     0
1040
0.1998355710111684
1071
        1
1040
-53.235075486602561
1040
841.95085848958115
1040
0.0
1002
}
  0
VIEWPORT
  5
8D
 67
     1
  8
0
 10
143.47825622558591
 20
99.980751991271987
 30
0.0
 40
339.12752973873143
 41
222.1965796813964
 68
     1
 69
     1
1001
ACAD
1000
MVIEW
1002
{
1070
    16
1010
0.0
1020
0.0
1030
0.0
1010
0.0
1020
0.0
1030
1.0
1040
0.0
1040
222.1965796813964
1040
143.47825622558591
1040
99.980751991271987
1040
50.0
1040
0.0
1040
0.0
1070
     0
1070
   100
1070
     1
1070
     1
1070
     0
1070
     0
1070
     0
1070
     0
1040
0.0
1040
0.0
1040
0.0
1040
10.0
1040
10.0
1040
10.0
1040
10.0
1070
     0
1002
{
1002
}
1002
}
  0
VIEWPORT
  5
8F
 67
     1
  8
0
 10
143.37242841720581
 20
99.874916553497314
 30
0.0
 40
229.3958854675293
 41
159.79986648559569
 68
     2
 69
     2
1001
ACAD
1000
MVIEW
1002
{
1070
    16
1010
0.0
1020
0.0
1030
0.0
1010
0.0
1020
0.0
1030
1.0
1040
0.0
1040
300.10452961672468
1040
210.0
1040
148.5
1040
50.0
1040
0.0
1040
0.0
1070
     0
1070
   100
1070
     1
1070
     2
1070
     0
1070
     0
1070
     0
1070
     0
1040
0.0
1040
0.0
1040
0.0
1040
10.0
1040
10.0
1040
10.0
1040
10.0
1070
     0
1002
{
1002
}
1002
}
  0
ENDSEC
  0
EOF
