  0
SECTION
  2
HEADER
  9
$ACADVER
  1
AC1009
  9
$INSBASE
 10
0.0
 20
0.0
 30
0.0
  9
$EXTMIN
 10
-174.95514929184901
 20
773.73755915759602
 30
-0.000000000000013
  9
$EXTMAX
 10
-5.4394134190581553
 20
907.11481272724313
 30
0.0000000000000023
  9
$LIMMIN
 10
0.0
 20
0.0
  9
$LIMMAX
 10
420.0
 20
297.0
  9
$ORTHOMODE
 70
     1
  9
$REGENMODE
 70
     1
  9
$FILLMODE
 70
     1
  9
$QTEXTMODE
 70
     0
  9
$MIRRTEXT
 70
     1
  9
$DRAGMODE
 70
     2
  9
$LTSCALE
 40
1.0
  9
$OSMODE
 70
    40
  9
$ATTMODE
 70
     1
  9
$TEXTSIZE
 40
2.5
  9
$TRACEWID
 40
1.0
  9
$TEXTSTYLE
  7
STANDARD
  9
$CLAYER
  8
0
  9
$CELTYPE
  6
BYLAYER
  9
$CECOLOR
 62
   256
  9
$DIMSCALE
 40
1.0
  9
$DIMASZ
 40
2.5
  9
$DIMEXO
 40
0.625
  9
$DIMDLI
 40
3.75
  9
$DIMRND
 40
0.0
  9
$DIMDLE
 40
0.0
  9
$DIMEXE
 40
1.25
  9
$DIMTP
 40
0.0
  9
$DIMTM
 40
0.0
  9
$DIMTXT
 40
2.5
  9
$DIMCEN
 40
2.5
  9
$DIMTSZ
 40
0.0
  9
$DIMTOL
 70
     0
  9
$DIMLIM
 70
     0
  9
$DIMTIH
 70
     1
  9
$DIMTOH
 70
     1
  9
$DIMSE1
 70
     0
  9
$DIMSE2
 70
     0
  9
$DIMTAD
 70
     1
  9
$DIMZIN
 70
     8
  9
$DIMBLK
  1

  9
$DIMASO
 70
     1
  9
$DIMSHO
 70
     1
  9
$DIMPOST
  1

  9
$DIMAPOST
  1

  9
$DIMALT
 70
     0
  9
$DIMALTD
 70
     3
  9
$DIMALTF
 40
0.03937007874016
  9
$DIMLFAC
 40
1.0
  9
$DIMTOFL
 70
     1
  9
$DIMTVP
 40
0.0
  9
$DIMTIX
 70
     0
  9
$DIMSOXD
 70
     0
  9
$DIMSAH
 70
     0
  9
$DIMBLK1
  1

  9
$DIMBLK2
  1

  9
$DIMSTYLE
  2
ISO-25
  9
$DIMCLRD
 70
     0
  9
$DIMCLRE
 70
     0
  9
$DIMCLRT
 70
     0
  9
$DIMTFAC
 40
1.0
  9
$DIMGAP
 40
0.625
  9
$LUNITS
 70
     2
  9
$LUPREC
 70
     4
  9
$SKETCHINC
 40
1.0
  9
$FILLETRAD
 40
10.0
  9
$AUNITS
 70
     0
  9
$AUPREC
 70
     0
  9
$MENU
  1
.
  9
$ELEVATION
 40
0.0
  9
$PELEVATION
 40
0.0
  9
$THICKNESS
 40
0.0
  9
$LIMCHECK
 70
     0
  9
$BLIPMODE
 70
     0
  9
$CHAMFERA
 40
0.75
  9
$CHAMFERB
 40
0.75
  9
$SKPOLY
 70
     0
  9
$TDCREATE
 40
2453711.3426066549
  9
$TDUPDATE
 40
2453711.3812592239
  9
$TDINDWG
 40
0.0386533796
  9
$TDUSRTIMER
 40
0.0386533796
  9
$USRTIMER
 70
     1
  9
$ANGBASE
 50
0.0
  9
$ANGDIR
 70
     0
  9
$PDMODE
 70
     3
  9
$PDSIZE
 40
2.0
  9
$PLINEWID
 40
0.0
  9
$COORDS
 70
     0
  9
$SPLFRAME
 70
     0
  9
$SPLINETYPE
 70
     6
  9
$SPLINESEGS
 70
     8
  9
$ATTDIA
 70
     0
  9
$ATTREQ
 70
     1
  9
$HANDLING
 70
-16383
  9
$HANDSEED
  5
8FD
  9
$SURFTAB1
 70
     6
  9
$SURFTAB2
 70
     6
  9
$SURFTYPE
 70
     6
  9
$SURFU
 70
     6
  9
$SURFV
 70
     6
  9
$UCSNAME
  2

  9
$UCSORG
 10
0.0
 20
0.0
 30
0.0
  9
$UCSXDIR
 10
1.0
 20
0.0
 30
0.0
  9
$UCSYDIR
 10
0.0
 20
1.0
 30
0.0
  9
$PUCSNAME
  2

  9
$PUCSORG
 10
0.0
 20
0.0
 30
0.0
  9
$PUCSXDIR
 10
1.0
 20
0.0
 30
0.0
  9
$PUCSYDIR
 10
0.0
 20
1.0
 30
0.0
  9
$USERI1
 70
     0
  9
$USERI2
 70
     0
  9
$USERI3
 70
     0
  9
$USERI4
 70
     0
  9
$USERI5
 70
     0
  9
$USERR1
 40
0.0
  9
$USERR2
 40
0.0
  9
$USERR3
 40
0.0
  9
$USERR4
 40
0.0
  9
$USERR5
 40
0.0
  9
$WORLDVIEW
 70
     1
  9
$SHADEDGE
 70
     3
  9
$SHADEDIF
 70
    70
  9
$TILEMODE
 70
     1
  9
$MAXACTVP
 70
    64
  9
$PLIMCHECK
 70
     0
  9
$PEXTMIN
 10
28.674485683441159
 20
19.97498331069945
 30
0.0
  9
$PEXTMAX
 10
258.0703711509704
 20
179.77484979629509
 30
0.0
  9
$PLIMMIN
 10
-5.027069091796875
 20
-5.0270833969116211
  9
$PLIMMAX
 10
291.98358154296869
 20
204.98858737945551
  9
$UNITMODE
 70
     0
  9
$VISRETAIN
 70
     1
  9
$PLINEGEN
 70
     0
  9
$PSLTSCALE
 70
     1
  0
ENDSEC
  0
SECTION
  2
TABLES
  0
TABLE
  2
VPORT
 70
    28
  0
VPORT
  2
*ACTIVE
 70
     0
 10
0.0
 20
0.0
 11
1.0
 21
1.0
 12
-90.197281355453583
 22
840.42618594241947
 13
0.0
 23
0.0
 14
10.0
 24
10.0
 15
10.0
 25
10.0
 16
0.0
 26
0.0
 36
1.0
 17
0.0
 27
0.0
 37
0.0
 40
134.37758297141951
 41
1.5281602002503121
 42
50.0
 43
0.0
 44
0.0
 50
0.0
 51
0.0
 71
     0
 72
   100
 73
     1
 74
     2
 75
     0
 76
     0
 77
     0
 78
     0
  0
ENDTAB
  0
TABLE
  2
LTYPE
 70
     6
  0
LTYPE
  2
CONTINUOUS
 70
     0
  3
Solid line
 72
    65
 73
     0
 40
0.0
  0
LTYPE
  2
CENTER
 70
     0
  3
Center (.5x) ___ _ ___ _ ___ _ ___ _ ___ _ ___
 72
    65
 73
     4
 40
28.574999999999989
 49
19.050000000000001
 49
-3.1749999999999989
 49
3.1749999999999989
 49
-3.1749999999999989
  0
ENDTAB
  0
TABLE
  2
LAYER
 70
    10
  0
LAYER
  2
0
 70
     0
 62
     7
  6
CONTINUOUS
  0
ENDTAB
  0
TABLE
  2
STYLE
 70
     2
  0
STYLE
  2
STANDARD
 70
     0
 40
0.0
 41
1.0
 50
0.0
 71
     0
 42
2.5
  3
txt
  4

  0
ENDTAB
  0
TABLE
  2
VIEW
 70
     0
  0
ENDTAB
  0
TABLE
  2
UCS
 70
     0
  0
ENDTAB
  0
TABLE
  2
APPID
 70
     1
  0
APPID
  2
ACAD
 70
     0
  0
ENDTAB
  0
TABLE
  2
DIMSTYLE
 70
     3
  0
DIMSTYLE
  2
ISO-25
 70
     0
  3

  4

  5

  6

  7

 40
1.0
 41
2.5
 42
0.625
 43
3.75
 44
1.25
 45
0.0
 46
0.0
 47
0.0
 48
0.0
140
2.5
141
2.5
142
0.0
143
0.03937007874016
144
1.0
145
0.0
146
1.0
147
0.625
 71
     0
 72
     0
 73
     1
 74
     1
 75
     0
 76
     0
 77
     1
 78
     8
170
     0
171
     3
172
     1
173
     0
174
     0
175
     0
176
     0
177
     0
178
     0
  0
ENDTAB
  0
ENDSEC
  0
SECTION
  2
BLOCKS
  0
BLOCK
  8
0
  2
$MODEL_SPACE
 70
     0
 10
0.0
 20
0.0
 30
0.0
  3
$MODEL_SPACE
  1

  0
ENDBLK
  5
21
  8
0
  0
BLOCK
 67
     1
  8
0
  2
$PAPER_SPACE
 70
     0
 10
0.0
 20
0.0
 30
0.0
  3
$PAPER_SPACE
  1

  0
ENDBLK
  5
53
 67
     1
  8
0
  0
BLOCK
  8
0
  2
*X11
 70
     1
 10
0.0
 20
0.0
 30
0.0
  3
*X11
  1

  0
LINE
  5
8DA
  8
0
 62
     0
 10
-297.06386850880148
 20
658.94449965541048
 30
0.0
 11
-295.0
 21
661.00836816421202
 31
0.0
  0
LINE
  5
8DB
  8
0
 62
     0
 10
-298.44171734221771
 20
658.98086438436735
 30
0.0
 11
-295.97246961031209
 21
661.45011211627298
 31
0.0
  0
LINE
  5
8DC
  8
0
 62
     0
 10
-299.72307135785752
 20
659.11372393110082
 30
0.0
 11
-297.7163700413742
 21
661.12042524758397
 31
0.0
  0
LINE
  5
8DD
  8
0
 62
     0
 10
-300.92263604856618
 20
659.3283728027651
 30
0.0
 11
-299.13058360374731
 21
661.12042524758397
 31
0.0
  0
LINE
  5
8DE
  8
0
 62
     0
 10
-302.05189681903443
 20
659.61332559466985
 30
0.0
 11
-300.40271049877452
 21
661.26251191492975
 31
0.0
  0
LINE
  5
8DF
  8
0
 62
     0
 10
-303.11903551850338
 20
659.960400457574
 30
0.0
 11
-301.53390632807032
 21
661.54552964800723
 31
0.0
  0
LINE
  5
8E0
  8
0
 62
     0
 10
-304.13004982813521
 20
660.36359971031538
 30
0.0
 11
-302.59494392295812
 21
661.89870561549253
 31
0.0
  0
LINE
  5
8E1
  8
0
 62
     0
 10
-305.08941251930179
 20
660.81845058152192
 30
0.0
 11
-303.5933155629217
 21
662.31454753790194
 31
0.0
  0
LINE
  5
8E2
  8
0
 62
     0
 10
-306.00048030002279
 20
661.32159636317397
 30
0.0
 11
-304.53440134226429
 21
662.78767532093252
 31
0.0
  0
LINE
  5
8E3
  8
0
 62
     0
 10
-306.86575675240351
 20
661.87053347316635
 30
0.0
 11
-305.42208299063782
 21
663.31420723493204
 31
0.0
  0
LINE
  5
8E4
  8
0
 62
     0
 10
-307.74593631270221
 20
662.40456747524081
 30
0.0
 11
-306.26075645751268
 21
663.88974733043005
 31
0.0
  0
LINE
  5
8E5
  8
0
 62
     0
 10
-308.0
 20
663.56471735031596
 30
0.0
 11
-307.21878686946621
 21
664.34593048084992
 31
0.0
  0
ENDBLK
  5
8E7
  8
0
  0
ENDSEC
  0
SECTION
  2
ENTITIES
  0
CIRCLE
  5
136
  8
0
 10
-156.93509408642271
 20
801.80000914783591
 30
0.0
 40
15.0
  0
POLYLINE
  5
137
  8
0
 66
     1
 10
0.0
 20
0.0
 30
0.0
 70
     1
  0
VERTEX
  5
8E8
  8
0
 10
-160.6878708361553
 20
808.30000914783591
 30
0.0
  0
VERTEX
  5
8E9
  8
0
 10
-164.44064758588789
 20
801.80000914783591
 30
0.0
  0
VERTEX
  5
8EA
  8
0
 10
-160.6878708361553
 20
795.30000914783591
 30
0.0
  0
VERTEX
  5
8EB
  8
0
 10
-153.1823173366902
 20
795.30000914783591
 30
0.0
  0
VERTEX
  5
8EC
  8
0
 10
-149.42954058695759
 20
801.80000914783591
 30
0.0
  0
VERTEX
  5
8ED
  8
0
 10
-153.1823173366902
 20
808.30000914783591
 30
0.0
  0
SEQEND
  5
8EE
  8
0
  0
CIRCLE
  5
138
  8
0
 10
-156.93509408642271
 20
801.80000914783591
 30
0.0
 40
4.0
  0
LINE
  5
139
  8
0
  6
CENTER
 10
-156.93509408642271
 20
819.80000914783591
 30
0.0
 11
-156.93509408642271
 21
783.80000914783591
 31
0.0
  0
LINE
  5
13A
  8
0
  6
CENTER
 10
-174.93509408642279
 20
801.80000914783591
 30
0.0
 11
-138.93509408642271
 21
801.80000914783591
 31
0.0
  0
ARC
  5
13B
  8
0
 10
-156.93509408642271
 20
801.80000914783591
 30
0.0
 40
3.25
 50
90.0
 51
0.0
  0
LINE
  5
13C
  8
0
 10
-141.93509408642271
 20
832.69089266263336
 30
0.0
 11
-141.93509408642271
 21
834.69089266263347
 31
0.0
  0
LINE
  5
13D
  8
0
  6
CENTER
 10
-156.93509408642271
 20
828.69089266263347
 30
0.0
 11
-156.93509408642271
 21
875.69089266263336
 31
0.0
  0
LINE
  5
13E
  8
0
 10
-143.43509408642271
 20
831.69089266263336
 30
0.0
 11
-170.43509408642291
 21
831.69089266263336
 31
0.0
  0
LINE
  5
13F
  8
0
 10
-141.93509408642271
 20
832.69089266263336
 30
0.0
 11
-171.93509408642271
 21
832.69089266263336
 31
0.0
  0
LINE
  5
140
  8
0
 10
-143.43509408642271
 20
831.69089266263336
 30
0.0
 11
-141.93509408642271
 21
832.69089266263336
 31
0.0
  0
LINE
  5
141
  8
0
 10
-141.93509408642271
 20
834.69089266263347
 30
0.0
 11
-171.93509408642271
 21
834.69089266263347
 31
0.0
  0
LINE
  5
142
  8
0
 10
-171.93509408642271
 20
832.69089266263336
 30
0.0
 11
-171.93509408642271
 21
834.69089266263347
 31
0.0
  0
LINE
  5
143
  8
0
 10
-170.43509408642271
 20
831.69089266263336
 30
0.0
 11
-171.93509408642271
 21
832.69089266263336
 31
0.0
  0
ARC
  5
144
  8
0
 10
-169.60471755197841
 20
848.69089266263336
 30
0.0
 40
15.0
 50
291.03946978131779
 51
306.4427666634798
  0
ARC
  5
145
  8
0
 10
-157.73194530263109
 20
831.69089266263336
 30
0.0
 40
5.7544024163271379
 50
90.0
 51
120.98540289497519
  0
ARC
  5
146
  8
0
 10
-144.26547062086701
 20
848.69089266263336
 30
0.0
 40
15.0
 50
233.55723333652011
 51
248.96053021868369
  0
ARC
  5
147
  8
0
 10
-156.13824287021421
 20
831.69089266263336
 30
0.0
 40
5.7544024163271379
 50
59.014597105024713
 51
77.93137004846875
  0
LINE
  5
148
  8
0
 10
-157.73194530263109
 20
837.44529507896061
 30
0.0
 11
-156.13824287021421
 21
837.44529507896061
 31
0.0
  0
LINE
  5
149
  8
0
 10
-162.56425921102161
 20
842.69089266263347
 30
0.0
 11
-151.30592896182381
 21
842.69089266263347
 31
0.0
  0
LINE
  5
14A
  8
0
 10
-160.6878708361553
 20
838.14529507896054
 30
0.0
 11
-160.6878708361553
 21
841.99089266263343
 31
0.0
  0
LINE
  5
14B
  8
0
 10
-164.4406475858878
 20
838.14529507896043
 30
0.0
 11
-164.44064758588789
 21
841.99089266263366
 31
0.0
  0
LINE
  5
14C
  8
0
 10
-162.56425921102161
 20
837.44529507896061
 30
0.0
 11
-151.30592896182381
 21
837.4452950789605
 31
0.0
  0
LINE
  5
14D
  8
0
 10
-153.18231733669009
 20
838.14529507896054
 30
0.0
 11
-153.18231733669009
 21
841.99089266263343
 31
0.0
  0
ARC
  5
14E
  8
0
 10
-156.93509408642271
 20
832.28136885311017
 30
0.0
 40
10.40952380952333
 50
68.868247799203004
 51
111.131752200797
  0
ARC
  5
14F
  8
0
 10
-162.56425921102161
 20
839.82601171025271
 30
0.0
 40
2.8648809523808061
 50
90.0
 51
130.91677438739299
  0
ARC
  5
150
  8
0
 10
-156.93509408642271
 20
847.85481888848403
 30
0.0
 40
10.40952380952333
 50
248.868247799203
 51
291.131752200797
  0
LINE
  5
151
  8
0
 10
-149.42954058695759
 20
838.14529507896043
 30
0.0
 11
-149.42954058695739
 21
841.99089266263366
 31
0.0
  0
ARC
  5
152
  8
0
 10
-162.56425921102161
 20
839.82601171025271
 30
0.0
 40
2.8648809523808061
 50
49.083225612604622
 51
90.0
  0
ARC
  5
153
  8
0
 10
-151.3059289618237
 20
839.82601171025271
 30
0.0
 40
2.8648809523808061
 50
90.0
 51
130.91677438739529
  0
ARC
  5
154
  8
0
 10
-162.56425921102161
 20
840.31017603134126
 30
0.0
 40
2.8648809523808061
 50
270.0
 51
310.91677438739532
  0
ARC
  5
155
  8
0
 10
-151.3059289618237
 20
840.31017603134126
 30
0.0
 40
2.8648809523808061
 50
229.08322561260459
 51
270.0
  0
ARC
  5
156
  8
0
 10
-151.30592896182381
 20
839.82601171025271
 30
0.0
 40
2.8648809523808061
 50
49.083225612606931
 51
90.0
  0
ARC
  5
157
  8
0
 10
-162.56425921102161
 20
840.31017603134126
 30
0.0
 40
2.8648809523808061
 50
229.0832256126069
 51
270.0
  0
ARC
  5
158
  8
0
 10
-151.30592896182381
 20
840.31017603134126
 30
0.0
 40
2.8648809523808061
 50
270.0
 51
310.91677438739299
  0
LINE
  5
159
  8
0
 10
-160.3350940864228
 20
872.69089266263336
 30
0.0
 11
-153.53509408642259
 21
872.69089266263359
 31
0.0
  0
LINE
  5
15A
  8
0
 10
-152.93509408642279
 20
842.69089266263347
 30
0.0
 11
-152.93509408642271
 21
872.09089266263356
 31
0.0
  0
LINE
  5
15F
  8
0
 10
-160.93509408642271
 20
842.69089266263347
 30
0.0
 11
-160.93509408642279
 21
872.09089266263345
 31
0.0
  0
CIRCLE
  5
168
  8
0
 10
-156.93509408642271
 20
801.80000914783591
 30
0.0
 40
13.379030103296991
  0
LINE
  5
1F1
  8
0
  6
CENTER
 10
-122.230505991431
 20
801.80000914783591
 30
0.0
 11
-76.230505991431073
 21
801.80000914783591
 31
0.0
  0
CIRCLE
  5
1F2
  8
0
 10
-99.230505991431073
 20
801.80000914783591
 30
0.0
 40
20.0
  0
CIRCLE
  5
1F3
  8
0
 10
-99.230505991431073
 20
801.80000914783591
 30
0.0
 40
18.0
  0
LINE
  5
1F5
  8
0
  6
CENTER
 10
-99.230505991431073
 20
824.80000914783579
 30
0.0
 11
-99.230505991431073
 21
778.80000914783591
 31
0.0
  0
CIRCLE
  5
234
  8
0
 10
-99.230505991431073
 20
801.80000914783591
 30
0.0
 40
4.0
  0
POLYLINE
  5
235
  8
0
 66
     1
 10
0.0
 20
0.0
 30
0.0
 70
     1
  0
VERTEX
  5
8EF
  8
0
 10
-102.98328274116361
 20
808.30000914783591
 30
0.0
  0
VERTEX
  5
8F0
  8
0
 10
-106.7360594908961
 20
801.80000914783591
 30
0.0
  0
VERTEX
  5
8F1
  8
0
 10
-102.98328274116361
 20
795.30000914783591
 30
0.0
  0
VERTEX
  5
8F2
  8
0
 10
-95.477729241698512
 20
795.30000914783591
 30
0.0
  0
VERTEX
  5
8F3
  8
0
 10
-91.724952491965951
 20
801.80000914783591
 30
0.0
  0
VERTEX
  5
8F4
  8
0
 10
-95.477729241698512
 20
808.30000914783591
 30
0.0
  0
SEQEND
  5
8F5
  8
0
  0
ARC
  5
236
  8
0
 10
-99.230505991431073
 20
801.80000914783591
 30
0.0
 40
3.25
 50
90.0
 51
0.0
  0
LINE
  5
290
  8
0
  6
CENTER
 10
-99.230505991431031
 20
833.56301767799448
 30
0.0
 11
-99.230505991431073
 21
890.56301767799425
 31
0.0
  0
LINE
  5
295
  8
0
 10
-79.230505991430988
 20
837.56301767799437
 30
0.0
 11
-119.230505991431
 21
837.56301767799437
 31
0.0
  0
ARC
  5
297
  8
0
 10
-99.230505991431073
 20
852.72694390384481
 30
0.0
 40
10.40952380952333
 50
248.868247799203
 51
291.131752200797
  0
ARC
  5
298
  8
0
 10
-99.230505991431073
 20
837.15349386847117
 30
0.0
 40
10.40952380952333
 50
68.868247799203004
 51
111.131752200797
  0
LINE
  5
299
  8
0
 10
-104.8596711160299
 20
842.31742009432173
 30
0.0
 11
-93.601340866832174
 21
842.31742009432151
 31
0.0
  0
LINE
  5
29A
  8
0
 10
-104.8596711160299
 20
847.56301767799437
 30
0.0
 11
-93.601340866832118
 21
847.56301767799437
 31
0.0
  0
LINE
  5
29B
  8
0
 10
-102.0273572076394
 20
842.31742009432173
 30
0.0
 11
-96.433654775222593
 21
842.31742009432173
 31
0.0
  0
LINE
  5
29C
  8
0
 10
-80.730505991431059
 20
836.56301767799437
 30
0.0
 11
-117.7305059914312
 21
836.56301767799437
 31
0.0
  0
LINE
  5
29D
  8
0
 10
-119.230505991431
 20
837.56301767799437
 30
0.0
 11
-119.230505991431
 21
839.56301767799448
 31
0.0
  0
LINE
  5
29E
  8
0
 10
-117.730505991431
 20
836.56301767799437
 30
0.0
 11
-119.230505991431
 21
837.56301767799437
 31
0.0
  0
LINE
  5
2A0
  8
0
 10
-106.7360594908961
 20
843.01742009432155
 30
0.0
 11
-106.7360594908962
 21
846.86301767799455
 31
0.0
  0
LINE
  5
2A1
  8
0
 10
-102.98328274116361
 20
843.01742009432155
 30
0.0
 11
-102.98328274116361
 21
846.86301767799443
 31
0.0
  0
ARC
  5
2A2
  8
0
 10
-104.8596711160299
 20
845.18230104670226
 30
0.0
 40
2.8648809523808061
 50
270.0
 51
310.91677438739532
  0
ARC
  5
2A3
  8
0
 10
-113.9001294569867
 20
853.56301767799437
 30
0.0
 40
15.0
 50
291.03946978131779
 51
306.4427666634798
  0
ARC
  5
2A4
  8
0
 10
-104.8596711160299
 20
845.18230104670226
 30
0.0
 40
2.8648809523808061
 50
229.0832256126069
 51
270.0
  0
ARC
  5
2A5
  8
0
 10
-102.0273572076394
 20
836.56301767799437
 30
0.0
 40
5.7544024163271379
 50
90.0
 51
120.98540289497519
  0
ARC
  5
2A6
  8
0
 10
-104.8596711160299
 20
844.69813672561372
 30
0.0
 40
2.8648809523808061
 50
49.083225612604622
 51
90.0
  0
ARC
  5
2A7
  8
0
 10
-104.8596711160299
 20
844.69813672561372
 30
0.0
 40
2.8648809523808061
 50
90.0
 51
130.91677438739299
  0
LINE
  5
2A8
  8
0
 10
-79.230505991431073
 20
837.56301767799437
 30
0.0
 11
-79.230505991431073
 21
839.56301767799448
 31
0.0
  0
LINE
  5
2A9
  8
0
 10
-80.730505991431059
 20
836.56301767799437
 30
0.0
 11
-79.230505991431073
 21
837.56301767799437
 31
0.0
  0
LINE
  5
2AA
  8
0
 10
-79.230505991431073
 20
839.56301767799437
 30
0.0
 11
-119.230505991431
 21
839.56301767799437
 31
0.0
  0
LINE
  5
2AB
  8
0
 10
-91.724952491965894
 20
843.01742009432155
 30
0.0
 11
-91.724952491965766
 21
846.86301767799455
 31
0.0
  0
LINE
  5
2AC
  8
0
 10
-95.477729241698455
 20
843.01742009432155
 30
0.0
 11
-95.477729241698384
 21
846.86301767799443
 31
0.0
  0
ARC
  5
2AD
  8
0
 10
-93.601340866832061
 20
845.18230104670226
 30
0.0
 40
2.8648809523808061
 50
229.08322561260459
 51
270.0
  0
ARC
  5
2AF
  8
0
 10
-84.560882525875286
 20
853.56301767799437
 30
0.0
 40
15.0
 50
233.5572333365206
 51
248.96053021868289
  0
ARC
  5
2B0
  8
0
 10
-93.601340866832174
 20
845.18230104670226
 30
0.0
 40
2.8648809523808061
 50
270.0
 51
310.91677438739299
  0
ARC
  5
2B1
  8
0
 10
-93.601340866832061
 20
844.69813672561372
 30
0.0
 40
2.8648809523808061
 50
90.0
 51
130.91677438739529
  0
ARC
  5
2B2
  8
0
 10
-93.601340866832174
 20
844.69813672561372
 30
0.0
 40
2.8648809523808061
 50
49.083225612606931
 51
90.0
  0
ARC
  5
2F5
  8
0
 10
-96.433654775222607
 20
836.56301767799437
 30
0.0
 40
5.7544024163271379
 50
59.014597105024713
 51
90.0
  0
LINE
  5
372
  8
0
 10
-9.940435245955193
 20
841.30125389865555
 30
0.0
 11
-56.940435245955321
 21
841.30125389865555
 31
0.0
  0
LINE
  5
373
  8
0
 10
-8.4404352459551077
 20
842.30125389865555
 30
0.0
 11
-58.4404352459552
 21
842.30125389865555
 31
0.0
  0
LINE
  5
374
  8
0
 10
-8.440435245955193
 20
844.30125389865555
 30
0.0
 11
-58.440435245955172
 21
844.30125389865555
 31
0.0
  0
LINE
  5
375
  8
0
 10
-58.4404352459552
 20
842.30125389865555
 30
0.0
 11
-58.4404352459552
 21
844.30125389865577
 31
0.0
  0
LINE
  5
376
  8
0
 10
-56.9404352459552
 20
841.30125389865555
 30
0.0
 11
-58.4404352459552
 21
842.30125389865555
 31
0.0
  0
ARC
  5
377
  8
0
 10
-28.64358402974673
 20
841.30125389865555
 30
0.0
 40
5.7544024163271379
 50
59.014597105024713
 51
90.0
  0
ARC
  5
37B
  8
0
 10
-50.110058711510881
 20
858.30125389865555
 30
0.0
 40
15.0
 50
291.03946978131779
 51
306.4427666634798
  0
LINE
  5
37C
  8
0
 10
-42.176324774659321
 20
847.05565631498268
 30
0.0
 11
-24.704545717251161
 21
847.05565631498268
 31
0.0
  0
ARC
  5
37E
  8
0
 10
-38.237286462163581
 20
841.30125389865555
 30
0.0
 40
5.7544024163271379
 50
90.0
 51
120.98540289497519
  0
ARC
  5
381
  8
0
 10
-16.770811780399399
 20
858.30125389865555
 30
0.0
 40
15.0
 50
233.5572333365206
 51
248.96053021868289
  0
LINE
  5
382
  8
0
 10
-8.440435245955193
 20
842.30125389865555
 30
0.0
 11
-8.440435245955193
 21
844.30125389865577
 31
0.0
  0
LINE
  5
383
  8
0
 10
-9.940435245955193
 20
841.30125389865555
 30
0.0
 11
-8.440435245955193
 21
842.30125389865555
 31
0.0
  0
LINE
  5
384
  8
0
  6
CENTER
 10
-61.440435245955257
 20
801.80000914783591
 30
0.0
 11
-5.4404352459552561
 21
801.80000914783591
 31
0.0
  0
CIRCLE
  5
385
  8
0
 10
-33.44043524595525
 20
801.80000914783591
 30
0.0
 40
25.0
  0
LINE
  5
387
  8
0
  6
CENTER
 10
-33.44043524595525
 20
829.80000914783591
 30
0.0
 11
-33.440435245955257
 21
773.80000914783591
 31
0.0
  0
CIRCLE
  5
3C6
  8
0
 10
-33.44043524595525
 20
801.80000914783591
 30
0.0
 40
22.5
  0
POLYLINE
  5
443
  8
0
 66
     1
 10
0.0
 20
0.0
 30
0.0
 70
     1
  0
VERTEX
  5
8F6
  8
0
 10
-38.347912534067078
 20
810.30000914783579
 30
0.0
  0
VERTEX
  5
8F7
  8
0
 10
-43.255389822178898
 20
801.80000914783591
 30
0.0
  0
VERTEX
  5
8F8
  8
0
 10
-38.347912534067078
 20
793.30000914783579
 30
0.0
  0
VERTEX
  5
8F9
  8
0
 10
-28.53295795784345
 20
793.30000914783579
 30
0.0
  0
VERTEX
  5
8FA
  8
0
 10
-23.625480669731619
 20
801.80000914783591
 30
0.0
  0
VERTEX
  5
8FB
  8
0
 10
-28.532957957843418
 20
810.30000914783579
 30
0.0
  0
SEQEND
  5
8FC
  8
0
  0
CIRCLE
  5
444
  8
0
 10
-33.44043524595525
 20
801.80000914783591
 30
0.0
 40
5.0
  0
ARC
  5
445
  8
0
 10
-33.44043524595525
 20
801.80000914783591
 30
0.0
 40
4.25
 50
90.000000000000028
 51
0.0
  0
CIRCLE
  5
4C2
  8
0
 10
-33.44043524595525
 20
801.80000914783591
 30
0.0
 40
15.5
  0
CIRCLE
  5
4C3
  8
0
 10
-99.230505991431073
 20
801.80000914783591
 30
0.0
 40
11.5
  0
CIRCLE
  5
4C4
  8
0
 10
-156.93509408642271
 20
801.80000914783591
 30
0.0
 40
9.0
  0
LINE
  5
503
  8
0
 10
-42.176324774659292
 20
854.05565631498268
 30
0.0
 11
-24.704545717251161
 21
854.05565631498268
 31
0.0
  0
LINE
  5
504
  8
0
 10
-22.250807073195261
 20
848.05565631498268
 30
0.0
 11
-22.250807073195261
 21
853.05565631498291
 31
0.0
  0
LINE
  5
505
  8
0
 10
-27.158284361307061
 20
848.05565631498268
 30
0.0
 11
-27.158284361307061
 21
853.05565631498291
 31
0.0
  0
LINE
  5
506
  8
0
 10
-39.722586130603432
 20
848.05565631498268
 30
0.0
 11
-39.722586130603432
 21
853.05565631498291
 31
0.0
  0
LINE
  5
507
  8
0
 10
-44.630063418715217
 20
848.05565631498268
 30
0.0
 11
-44.630063418715253
 21
853.05565631498291
 31
0.0
  0
ARC
  5
50B
  8
0
 10
-42.176324774659321
 20
850.54523964831606
 30
0.0
 40
3.5104166666667109
 50
45.654143592519382
 51
134.3458564074808
  0
ARC
  5
50C
  8
0
 10
-24.704545717251161
 20
850.54523964831606
 30
0.0
 40
3.5104166666667109
 50
45.654143592519198
 51
134.3458564074806
  0
ARC
  5
50D
  8
0
 10
-33.440435245955243
 20
833.82294644623755
 30
0.0
 40
20.232709868745129
 50
71.910948994073635
 51
108.08905100592639
  0
ARC
  5
50F
  8
0
 10
-42.176324774659321
 20
850.56607298164943
 30
0.0
 40
3.5104166666667109
 50
225.6541435925192
 51
314.34585640748048
  0
ARC
  5
510
  8
0
 10
-24.704545717251161
 20
850.56607298164943
 30
0.0
 40
3.5104166666667109
 50
225.65414359251929
 51
314.34585640748082
  0
ARC
  5
511
  8
0
 10
-33.440435245955243
 20
867.28836618372782
 30
0.0
 40
20.232709868745129
 50
251.91094899407361
 51
288.08905100592631
  0
LINE
  5
5CC
  8
0
 10
-160.3350940864228
 20
872.69089266263336
 30
0.0
 11
-160.93509408642279
 21
872.09089266263345
 31
0.0
  0
LINE
  5
5CD
  8
0
 10
-153.53509408642259
 20
872.69089266263359
 30
0.0
 11
-152.93509408642271
 21
872.09089266263356
 31
0.0
  0
LINE
  5
5CE
  8
0
 10
-160.93509408642279
 20
872.09089266263345
 30
0.0
 11
-152.93509408642271
 21
872.09089266263345
 31
0.0
  0
LINE
  5
5CF
  8
0
 10
-160.3350940864228
 20
872.69089266263336
 30
0.0
 11
-160.3350940864228
 21
842.69089266263347
 31
0.0
  0
LINE
  5
5D1
  8
0
 10
-153.5350940864227
 20
872.69089266263336
 30
0.0
 11
-153.5350940864227
 21
842.69089266263347
 31
0.0
  0
LINE
  5
5D2
  8
0
 10
-103.2305059914311
 20
886.96301767799434
 30
0.0
 11
-95.230505991431016
 21
886.96301767799434
 31
0.0
  0
LINE
  5
5D3
  8
0
 10
-102.63050599143109
 20
887.56301767799437
 30
0.0
 11
-95.830505991431011
 21
887.56301767799459
 31
0.0
  0
LINE
  5
5D4
  8
0
 10
-102.63050599143109
 20
887.56301767799437
 30
0.0
 11
-103.2305059914311
 21
886.96301767799434
 31
0.0
  0
LINE
  5
5D5
  8
0
 10
-95.830505991431011
 20
887.56301767799459
 30
0.0
 11
-95.230505991431016
 21
886.96301767799457
 31
0.0
  0
LINE
  5
5D6
  8
0
 10
-95.830505991431053
 20
887.56301767799437
 30
0.0
 11
-95.830505991431053
 21
847.56301767799437
 31
0.0
  0
LINE
  5
5D7
  8
0
 10
-95.230505991431087
 20
847.56301767799437
 30
0.0
 11
-95.230505991431016
 21
886.96301767799457
 31
0.0
  0
LINE
  5
5D8
  8
0
 10
-102.63050599143109
 20
887.56301767799437
 30
0.0
 11
-102.63050599143109
 21
847.56301767799437
 31
0.0
  0
LINE
  5
5D9
  8
0
 10
-103.2305059914311
 20
847.56301767799437
 30
0.0
 11
-103.2305059914311
 21
886.96301767799434
 31
0.0
  0
LINE
  5
6D3
  8
0
  6
CENTER
 10
-33.44043524595525
 20
838.30125389865566
 30
0.0
 11
-33.44043524595525
 21
907.0556563149828
 31
0.0
  0
LINE
  5
712
  8
0
 10
-28.44043524595525
 20
854.05565631498268
 30
0.0
 11
-28.440435245955261
 21
903.30565631498291
 31
0.0
  0
LINE
  5
713
  8
0
 10
-37.690435245955364
 20
904.05565631498291
 30
0.0
 11
-29.190435245955261
 21
904.05565631498291
 31
0.0
  0
LINE
  5
714
  8
0
 10
-28.440435245955261
 20
903.30565631498291
 30
0.0
 11
-29.190435245955261
 21
904.05565631498291
 31
0.0
  0
LINE
  5
715
  8
0
 10
-29.190435245955261
 20
904.05565631498291
 30
0.0
 11
-29.190435245955261
 21
854.05565631498268
 31
0.0
  0
LINE
  5
716
  8
0
 10
-38.44043524595525
 20
903.30565631498291
 30
0.0
 11
-37.690435245955257
 21
904.05565631498291
 31
0.0
  0
LINE
  5
717
  8
0
 10
-37.690435245955257
 20
904.05565631498291
 30
0.0
 11
-37.690435245955257
 21
854.05565631498268
 31
0.0
  0
LINE
  5
718
  8
0
 10
-38.44043524595525
 20
854.05565631498268
 30
0.0
 11
-38.44043524595525
 21
903.30565631498291
 31
0.0
  0
LINE
  5
719
  8
0
 10
-38.44043524595525
 20
903.30565631498291
 30
0.0
 11
-28.440435245955261
 21
903.30565631498291
 31
0.0
  0
VIEWPORT
  5
8D
 67
     1
  8
0
 10
143.47825622558591
 20
99.980751991271987
 30
0.0
 40
339.12752973873143
 41
222.1965796813964
 68
     1
 69
     1
1001
ACAD
1000
MVIEW
1002
{
1070
    16
1010
0.0
1020
0.0
1030
0.0
1010
0.0
1020
0.0
1030
1.0
1040
0.0
1040
222.1965796813964
1040
143.47825622558591
1040
99.980751991271987
1040
50.0
1040
0.0
1040
0.0
1070
     0
1070
   100
1070
     1
1070
     1
1070
     0
1070
     0
1070
     0
1070
     0
1040
0.0
1040
0.0
1040
0.0
1040
10.0
1040
10.0
1040
10.0
1040
10.0
1070
     0
1002
{
1002
}
1002
}
  0
VIEWPORT
  5
8F
 67
     1
  8
0
 10
143.37242841720581
 20
99.874916553497314
 30
0.0
 40
229.3958854675293
 41
159.79986648559569
 68
     2
 69
     2
1001
ACAD
1000
MVIEW
1002
{
1070
    16
1010
0.0
1020
0.0
1030
0.0
1010
0.0
1020
0.0
1030
1.0
1040
0.0
1040
300.10452961672468
1040
210.0
1040
148.5
1040
50.0
1040
0.0
1040
0.0
1070
     0
1070
   100
1070
     1
1070
     2
1070
     0
1070
     0
1070
     0
1070
     0
1040
0.0
1040
0.0
1040
0.0
1040
10.0
1040
10.0
1040
10.0
1040
10.0
1070
     0
1002
{
1002
}
1002
}
  0
ENDSEC
  0
EOF
