  0
SECTION
  2
HEADER
  9
$ACADVER
  1
AC1009
  9
$INSBASE
 10
0.0
 20
0.0
 30
0.0
  9
$EXTMIN
 10
85.799561624647595
 20
90.401551089717032
 30
-0.0015258207003583
  9
$EXTMAX
 10
313.5964974360499
 20
165.51713615855789
 30
0.0000000349246037
  9
$LIMMIN
 10
0.0
 20
0.0
  9
$LIMMAX
 10
420.0
 20
297.0
  9
$ORTHOMODE
 70
     0
  9
$REGENMODE
 70
     1
  9
$FILLMODE
 70
     1
  9
$QTEXTMODE
 70
     0
  9
$MIRRTEXT
 70
     1
  9
$DRAGMODE
 70
     2
  9
$LTSCALE
 40
1.0
  9
$OSMODE
 70
    40
  9
$ATTMODE
 70
     1
  9
$TEXTSIZE
 40
3.5
  9
$TRACEWID
 40
1.0
  9
$TEXTSTYLE
  7
STANDARD
  9
$CLAYER
  8
0
  9
$CELTYPE
  6
CONTINUOUS
  9
$CECOLOR
 62
   256
  9
$DIMSCALE
 40
1.0
  9
$DIMASZ
 40
2.5
  9
$DIMEXO
 40
0.625
  9
$DIMDLI
 40
3.75
  9
$DIMRND
 40
0.0
  9
$DIMDLE
 40
0.0
  9
$DIMEXE
 40
1.25
  9
$DIMTP
 40
0.0
  9
$DIMTM
 40
0.0
  9
$DIMTXT
 40
2.5
  9
$DIMCEN
 40
2.5
  9
$DIMTSZ
 40
0.0
  9
$DIMTOL
 70
     0
  9
$DIMLIM
 70
     0
  9
$DIMTIH
 70
     1
  9
$DIMTOH
 70
     0
  9
$DIMSE1
 70
     0
  9
$DIMSE2
 70
     0
  9
$DIMTAD
 70
     1
  9
$DIMZIN
 70
     8
  9
$DIMBLK
  1

  9
$DIMASO
 70
     1
  9
$DIMSHO
 70
     1
  9
$DIMPOST
  1

  9
$DIMAPOST
  1

  9
$DIMALT
 70
     0
  9
$DIMALTD
 70
     2
  9
$DIMALTF
 40
0.0394
  9
$DIMLFAC
 40
1.0
  9
$DIMTOFL
 70
     1
  9
$DIMTVP
 40
1.0
  9
$DIMTIX
 70
     0
  9
$DIMSOXD
 70
     0
  9
$DIMSAH
 70
     0
  9
$DIMBLK1
  1

  9
$DIMBLK2
  1

  9
$DIMSTYLE
  2
STANDARD
  9
$DIMCLRD
 70
     0
  9
$DIMCLRE
 70
     0
  9
$DIMCLRT
 70
     0
  9
$DIMTFAC
 40
1.0
  9
$DIMGAP
 40
0.625
  9
$LUNITS
 70
     2
  9
$LUPREC
 70
     4
  9
$SKETCHINC
 40
1.0
  9
$FILLETRAD
 40
1.5
  9
$AUNITS
 70
     0
  9
$AUPREC
 70
     0
  9
$MENU
  1
acad
  9
$ELEVATION
 40
0.0
  9
$PELEVATION
 40
0.0
  9
$THICKNESS
 40
0.0
  9
$LIMCHECK
 70
     0
  9
$BLIPMODE
 70
     0
  9
$CHAMFERA
 40
10.0
  9
$CHAMFERB
 40
10.0
  9
$SKPOLY
 70
     0
  9
$TDCREATE
 40
2450484.569108102
  9
$TDUPDATE
 40
2452236.5876425812
  9
$TDINDWG
 40
0.0586919676
  9
$TDUSRTIMER
 40
0.0586919676
  9
$USRTIMER
 70
     1
  9
$ANGBASE
 50
0.0
  9
$ANGDIR
 70
     0
  9
$PDMODE
 70
     0
  9
$PDSIZE
 40
0.0
  9
$PLINEWID
 40
0.0
  9
$COORDS
 70
     2
  9
$SPLFRAME
 70
     0
  9
$SPLINETYPE
 70
     6
  9
$SPLINESEGS
 70
     8
  9
$ATTDIA
 70
     0
  9
$ATTREQ
 70
     1
  9
$HANDLING
 70
-16383
  9
$HANDSEED
  5
DE
  9
$SURFTAB1
 70
     6
  9
$SURFTAB2
 70
     6
  9
$SURFTYPE
 70
     6
  9
$SURFU
 70
     6
  9
$SURFV
 70
     6
  9
$UCSNAME
  2

  9
$UCSORG
 10
0.0
 20
0.0
 30
0.0
  9
$UCSXDIR
 10
1.0
 20
0.0
 30
0.0
  9
$UCSYDIR
 10
0.0
 20
1.0
 30
0.0
  9
$PUCSNAME
  2

  9
$PUCSORG
 10
0.0
 20
0.0
 30
0.0
  9
$PUCSXDIR
 10
1.0
 20
0.0
 30
0.0
  9
$PUCSYDIR
 10
0.0
 20
1.0
 30
0.0
  9
$USERI1
 70
     0
  9
$USERI2
 70
     0
  9
$USERI3
 70
     0
  9
$USERI4
 70
     0
  9
$USERI5
 70
     0
  9
$USERR1
 40
0.0
  9
$USERR2
 40
0.0
  9
$USERR3
 40
0.0
  9
$USERR4
 40
0.0
  9
$USERR5
 40
0.0
  9
$WORLDVIEW
 70
     1
  9
$SHADEDGE
 70
     3
  9
$SHADEDIF
 70
    70
  9
$TILEMODE
 70
     1
  9
$MAXACTVP
 70
    16
  9
$PLIMCHECK
 70
     0
  9
$PEXTMIN
 10
1.0000000000000000E+020
 20
1.0000000000000000E+020
 30
1.0000000000000000E+020
  9
$PEXTMAX
 10
-1.0000000000000000E+020
 20
-1.0000000000000000E+020
 30
-1.0000000000000000E+020
  9
$PLIMMIN
 10
0.0
 20
0.0
  9
$PLIMMAX
 10
420.0
 20
297.0
  9
$UNITMODE
 70
     0
  9
$VISRETAIN
 70
     0
  9
$PLINEGEN
 70
     0
  9
$PSLTSCALE
 70
     1
  0
ENDSEC
  0
SECTION
  2
TABLES
  0
TABLE
  2
VPORT
 70
     3
  0
VPORT
  2
*ACTIVE
 70
     0
 10
0.0
 20
0.0
 11
1.0
 21
1.0
 12
199.69802953034869
 22
127.9593436241375
 13
0.0
 23
0.0
 14
0.5
 24
0.5
 15
10.0
 25
10.0
 16
0.0
 26
0.0
 36
1.0
 17
0.0
 27
0.0
 37
0.0
 40
293.97098377108131
 41
1.5573979591836731
 42
50.0
 43
0.0
 44
0.0
 50
0.0
 51
0.0
 71
     0
 72
   100
 73
     1
 74
     0
 75
     1
 76
     0
 77
     0
 78
     0
  0
ENDTAB
  0
TABLE
  2
LTYPE
 70
    25
  0
LTYPE
  2
CONTINUOUS
 70
     0
  3
Solid line
 72
    65
 73
     0
 40
0.0
  0
LTYPE
  2
CENTER
 70
     0
  3
____ _ ____ _ ____ _ ____ _ ____ _ ____ _ ____ 
 72
    65
 73
     4
 40
2.0
 49
1.25
 49
-0.25
 49
0.25
 49
-0.25
  0
ENDTAB
  0
TABLE
  2
LAYER
 70
     1
  0
LAYER
  2
0
 70
     0
 62
     7
  6
CONTINUOUS
  0
ENDTAB
  0
TABLE
  2
STYLE
 70
     1
  0
STYLE
  2
STANDARD
 70
     0
 40
0.0
 41
1.0
 50
0.0
 71
     0
 42
3.5
  3
txt
  4

  0
ENDTAB
  0
TABLE
  2
VIEW
 70
     0
  0
ENDTAB
  0
TABLE
  2
UCS
 70
     0
  0
ENDTAB
  0
TABLE
  2
APPID
 70
     1
  0
APPID
  2
ACAD
 70
     0
  0
ENDTAB
  0
TABLE
  2
DIMSTYLE
 70
     1
  0
DIMSTYLE
  2
STANDARD
 70
     0
  3

  4

  5

  6

  7

 40
1.0
 41
0.18
 42
0.0625
 43
0.38
 44
0.18
 45
0.0
 46
0.0
 47
0.0
 48
0.0
140
0.18
141
0.09
142
0.0
143
25.399999999999999
144
1.0
145
0.0
146
1.0
147
0.09
 71
     0
 72
     0
 73
     1
 74
     1
 75
     0
 76
     0
 77
     0
 78
     0
170
     0
171
     2
172
     0
173
     0
174
     0
175
     0
176
     0
177
     0
178
     0
  0
ENDTAB
  0
ENDSEC
  0
SECTION
  2
BLOCKS
  0
BLOCK
  8
0
  2
$MODEL_SPACE
 70
     0
 10
0.0
 20
0.0
 30
0.0
  3
$MODEL_SPACE
  1

  0
ENDBLK
  5
3F
  8
0
  0
BLOCK
 67
     1
  8
0
  2
$PAPER_SPACE
 70
     0
 10
0.0
 20
0.0
 30
0.0
  3
$PAPER_SPACE
  1

  0
ENDBLK
  5
3D
 67
     1
  8
0
  0
ENDSEC
  0
SECTION
  2
ENTITIES
  0
POINT
  5
40
  8
0
 10
100.0
 20
100.0
 30
0.0
  0
ARC
  5
41
  8
0
 10
100.0
 20
112.5
 30
0.0
 40
2.5
 50
15.32824474603918
 51
164.67175525396081
  0
LINE
  5
42
  8
0
 10
97.588931946506037
 20
113.16087127447079
 30
0.0
 11
94.803847577293368
 21
103.0
 31
0.0
  0
LINE
  5
43
  8
0
 10
102.41106805349391
 20
113.16087127447079
 30
0.0
 11
105.1961524227066
 21
103.0
 31
0.0
  0
ARC
  5
44
  8
0
 10
89.174682452694498
 20
93.75
 30
0.0
 40
2.5
 50
135.3282447460391
 51
284.6717552539609
  0
LINE
  5
45
  8
0
 10
87.396817113624337
 20
95.507610547343418
 30
0.0
 11
94.803847577293368
 21
103.0
 31
0.0
  0
LINE
  5
46
  8
0
 10
89.807885167118314
 20
91.331518178185675
 30
0.0
 11
100.0
 21
94.0
 31
0.0
  0
ARC
  5
47
  8
0
 10
110.8253175473054
 20
93.75
 30
0.0
 40
2.5
 50
255.3282447460391
 51
44.671755253960889
  0
LINE
  5
48
  8
0
 10
110.1921148328816
 20
91.331518178185689
 30
0.0
 11
100.0
 21
94.0
 31
0.0
  0
LINE
  5
49
  8
0
 10
112.60318288637561
 20
95.507610547343418
 30
0.0
 11
105.1961524227066
 21
103.0
 31
0.0
  0
LINE
  5
4A
  8
0
 10
154.49999999999989
 20
92.576873829587555
 30
0.0
 11
154.49999999999989
 21
113.3425186568318
 31
0.0
  0
LINE
  5
4B
  8
0
 10
156.14925557853141
 20
114.83507444214681
 30
0.0
 11
162.6115114229631
 21
114.1888488577036
 31
0.0
  0
LINE
  5
4C
  8
0
 10
156.0749064254158
 20
91.078745321270787
 30
0.0
 11
162.50298115708981
 21
91.400149057854492
 31
0.0
  0
LINE
  5
4D
  8
0
 10
154.49999999999989
 20
103.4999999999999
 30
0.0
 11
165.55830500438719
 21
103.4999999999999
 31
0.0
  0
ARC
  5
4E
  8
0
 10
105.4999999999999
 20
102.75
 30
0.0
 40
60.062987771172359
 50
351.15301219488572
 51
8.9460086485461385
  0
ARC
  5
4F
  8
0
 10
162.36275212541059
 20
111.7012558821786
 30
0.0
 40
2.5
 50
8.9460086485461972
 51
84.289406862500059
  0
ARC
  5
50
  8
0
 10
162.37813711473009
 20
93.897029905049109
 30
0.0
 40
2.5
 50
272.86240522611189
 51
351.153012194886
  0
LINE
  5
51
  8
0
 10
151.5
 20
105.4999999999999
 30
0.0
 11
151.5
 21
94.500000000000014
 31
0.0
  0
LINE
  5
52
  8
0
 10
151.5
 20
94.500000000000014
 30
0.0
 11
154.49999999999989
 21
94.500000000000014
 31
0.0
  0
LINE
  5
53
  8
0
 10
151.5
 20
105.4999999999999
 30
0.0
 11
154.49999999999989
 21
105.4999999999999
 31
0.0
  0
ARC
  5
54
  8
0
 10
156.0
 20
113.3425186568318
 30
0.0
 40
1.5
 50
84.289406862500314
 51
180.0
  0
ARC
  5
55
  8
0
 10
156.0
 20
92.576873829587555
 30
0.0
 40
1.5
 50
180.0
 51
272.86240522611172
  0
LINE
  5
56
  8
0
 10
151.5
 20
103.0
 30
0.0
 11
141.0
 21
103.0
 31
0.0
  0
LINE
  5
57
  8
0
 10
140.5
 20
102.0
 30
0.0
 11
140.5
 21
98.0
 31
0.0
  0
LINE
  5
58
  8
0
 10
141.0
 20
97.0
 30
0.0
 11
151.5
 21
97.0
 31
0.0
  0
LINE
  5
59
  8
0
 10
151.5
 20
102.0
 30
0.0
 11
140.5
 21
102.0
 31
0.0
  0
LINE
  5
5A
  8
0
 10
140.5
 20
102.0
 30
0.0
 11
141.0
 21
103.0
 31
0.0
  0
LINE
  5
5B
  8
0
 10
141.0
 20
103.0
 30
0.0
 11
141.0
 21
97.0
 31
0.0
  0
LINE
  5
5C
  8
0
 10
141.0
 20
97.0
 30
0.0
 11
140.5
 21
98.0
 31
0.0
  0
LINE
  5
5D
  8
0
 10
140.5
 20
98.0
 30
0.0
 11
151.5
 21
98.0
 31
0.0
  0
ARC
  5
5E
  8
0
 10
100.0
 20
83.875000000000014
 30
0.0
 40
78.625
 50
82.308645731034943
 51
97.691354268965043
  0
LINE
  5
5F
  8
0
 10
86.648709419914894
 20
152.13580361906369
 30
0.0
 11
87.321952153003679
 21
159.54147368304041
 31
0.0
  0
LINE
  5
60
  8
0
 10
112.67804784699629
 20
159.54147368304041
 30
0.0
 11
113.35129058008511
 21
152.13580361906369
 31
0.0
  0
LINE
  5
61
  8
0
 10
111.85745077038349
 20
150.5
 30
0.0
 11
100.0
 21
150.5
 31
0.0
  0
LINE
  5
62
  8
0
 10
105.4999999999999
 20
150.5
 30
0.0
 11
105.4999999999999
 21
147.5
 31
0.0
  0
LINE
  5
63
  8
0
 10
94.500000000000014
 20
147.5
 30
0.0
 11
94.500000000000014
 21
150.5
 31
0.0
  0
LINE
  5
64
  8
0
 10
103.0
 20
147.5
 30
0.0
 11
103.0
 21
137.0
 31
0.0
  0
LINE
  5
65
  8
0
 10
102.0
 20
136.49999999999989
 30
0.0
 11
98.0
 21
136.49999999999989
 31
0.0
  0
LINE
  5
66
  8
0
 10
97.0
 20
137.0
 30
0.0
 11
97.0
 21
152.0
 31
0.0
  0
LINE
  5
67
  8
0
 10
98.0
 20
152.0
 30
0.0
 11
98.0
 21
136.49999999999989
 31
0.0
  0
LINE
  5
68
  8
0
 10
98.0
 20
136.49999999999989
 30
0.0
 11
97.0
 21
137.0
 31
0.0
  0
LINE
  5
69
  8
0
 10
97.0
 20
137.0
 30
0.0
 11
103.0
 21
137.0
 31
0.0
  0
LINE
  5
6A
  8
0
 10
103.0
 20
137.0
 30
0.0
 11
102.0
 21
136.49999999999989
 31
0.0
  0
LINE
  5
6B
  8
0
 10
102.0
 20
136.49999999999989
 30
0.0
 11
102.0
 21
147.5
 31
0.0
  0
LINE
  5
6C
  8
0
 10
100.0
 20
147.5
 30
0.0
 11
105.4999999999999
 21
147.5
 31
0.0
  0
LINE
  5
6D
  8
0
 10
94.500000000000014
 20
147.5
 30
0.0
 11
96.0
 21
147.5
 31
0.0
  0
LINE
  5
6E
  8
0
 10
96.0
 20
147.5
 30
0.0
 11
96.0
 21
152.0
 31
0.0
  0
LINE
  5
6F
  8
0
 10
100.0
 20
152.0
 30
0.0
 11
95.0
 21
152.0
 31
0.0
  0
LINE
  5
70
  8
0
 10
95.0
 20
152.0
 30
0.0
 11
95.0
 21
156.0
 31
0.0
  0
LINE
  5
71
  8
0
 10
95.0
 20
156.0
 30
0.0
 11
100.0
 21
156.0
 31
0.0
  0
LINE
  5
72
  8
0
 10
94.500000000000014
 20
150.5
 30
0.0
 11
88.142549229616435
 21
150.5
 31
0.0
  0
LINE
  5
73
  8
0
 62
     0
 10
94.500000000000014
 20
148.24011537017759
 30
0.0
 11
96.0
 21
149.74011537017759
 31
0.0
  0
LINE
  5
74
  8
0
 62
     0
 10
93.93145750507621
 20
150.5
 30
0.0
 11
95.43145750507621
 21
152.0
 31
0.0
  0
LINE
  5
75
  8
0
 62
     0
 10
99.431457505076224
 20
156.0
 30
0.0
 11
100.0
 21
156.56854249492369
 31
0.0
  0
LINE
  5
76
  8
0
 62
     0
 10
91.103030380329997
 20
150.5
 30
0.0
 11
95.0
 21
154.3969696196699
 31
0.0
  0
LINE
  5
77
  8
0
 62
     0
 10
96.603030380329983
 20
156.0
 30
0.0
 11
100.0
 21
159.3969696196699
 31
0.0
  0
LINE
  5
78
  8
0
 62
     0
 10
88.274603255583827
 20
150.5
 30
0.0
 11
100.27412538623091
 21
162.49952213064711
 31
0.0
  0
LINE
  5
79
  8
0
 62
     0
 10
86.605382386916233
 20
151.65920625607859
 30
0.0
 11
97.403284091166711
 21
162.45710796032901
 31
0.0
  0
LINE
  5
7A
  8
0
 62
     0
 10
86.888225099390837
 20
154.77047609329941
 30
0.0
 11
94.419454515746622
 21
162.30170550965511
 31
0.0
  0
LINE
  5
7B
  8
0
 62
     0
 10
87.17106781186547
 20
157.8817459305202
 30
0.0
 11
91.307318448138972
 21
162.0179965667937
 31
0.0
  0
LINE
  5
7C
  8
0
 62
     0
 10
95.730014102410905
 20
156.0
 30
0.0
 11
89.883556526866641
 21
161.84645757554421
 31
0.0
  0
LINE
  5
7D
  8
0
 62
     0
 10
95.0
 20
153.90158697766469
 30
0.0
 11
87.934892738676609
 21
160.96669423898811
 31
0.0
  0
LINE
  5
7E
  8
0
 62
     0
 10
96.0
 20
150.07315985291851
 30
0.0
 11
87.256096654409873
 21
158.81706319850861
 31
0.0
  0
LINE
  5
7F
  8
0
 62
     0
 10
95.744732728172323
 20
147.5
 30
0.0
 11
94.500000000000014
 21
148.74473272817229
 31
0.0
  0
LINE
  5
80
  8
0
 62
     0
 10
92.744732728172323
 20
150.5
 30
0.0
 11
87.020394394014374
 21
156.22433833415789
 31
0.0
  0
LINE
  5
81
  8
0
 62
     0
 10
89.916305603426125
 20
150.5
 30
0.0
 11
86.784692133618833
 21
153.63161346980721
 31
0.0
  0
LINE
  5
82
  8
0
 62
     0
 10
98.558441227157076
 20
156.0
 30
0.0
 11
92.424263832313457
 21
162.13417739484359
 31
0.0
  0
LINE
  5
83
  8
0
 62
     0
 10
100.0
 20
157.38686835190319
 30
0.0
 11
95.043266851107603
 21
162.34360150079559
 31
0.0
  0
LINE
  5
84
  8
0
 62
     0
 10
100.0
 20
160.2152954766494
 30
0.0
 11
97.747565755793445
 21
162.467729720856
 31
0.0
  0
LINE
  5
85
  8
0
 10
97.5
 20
152.0
 30
0.0
 11
97.5
 21
156.0
 31
0.0
  0
LINE
  5
86
  8
0
  6
CENTER
 10
100.0
 20
133.49999999999989
 30
0.0
 11
100.0
 21
165.5
 31
0.0
  0
LINE
  5
87
  8
0
  6
CENTER
 10
248.0
 20
129.49999999999989
 30
0.0
 11
248.0
 21
165.5
 31
0.0
  0
LINE
  5
88
  8
0
 62
     0
 10
242.5
 20
148.24011537017759
 30
0.0
 11
244.0
 21
149.74011537017759
 31
0.0
  0
LINE
  5
89
  8
0
 62
     0
 10
243.74473272817229
 20
147.5
 30
0.0
 11
242.5
 21
148.74473272817229
 31
0.0
  0
LINE
  5
8A
  8
0
 10
244.0
 20
147.5
 30
0.0
 11
244.0
 21
152.0
 31
0.0
  0
LINE
  5
8B
  8
0
 10
253.5
 20
150.5
 30
0.0
 11
253.5
 21
147.5
 31
0.0
  0
LINE
  5
8C
  8
0
 10
242.5
 20
147.5
 30
0.0
 11
242.5
 21
150.5
 31
0.0
  0
LINE
  5
8D
  8
0
 10
260.60318288637558
 20
95.507610547343418
 30
0.0
 11
253.1961524227066
 21
103.0
 31
0.0
  0
LINE
  5
8E
  8
0
 10
235.39681711362431
 20
95.507610547343418
 30
0.0
 11
242.80384757729331
 21
103.0
 31
0.0
  0
ARC
  5
8F
  8
0
 10
258.82531754730542
 20
93.75
 30
0.0
 40
2.5
 50
255.3282447460391
 51
44.671755253960889
  0
LINE
  5
90
  8
0
 10
237.80788516711829
 20
91.331518178185675
 30
0.0
 11
248.0
 21
94.0
 31
0.0
  0
ARC
  5
91
  8
0
 10
237.17468245269441
 20
93.75
 30
0.0
 40
2.5
 50
135.3282447460391
 51
284.6717552539609
  0
LINE
  5
92
  8
0
 10
258.1921148328816
 20
91.331518178185689
 30
0.0
 11
248.0
 21
94.0
 31
0.0
  0
POINT
  5
93
  8
0
 10
248.0
 20
100.0
 30
0.0
  0
LINE
  5
94
  8
0
 10
245.58893194650599
 20
113.16087127447079
 30
0.0
 11
242.80384757729331
 21
103.0
 31
0.0
  0
ARC
  5
95
  8
0
 10
248.0
 20
112.5
 30
0.0
 40
2.5
 50
15.32824474603918
 51
164.67175525396081
  0
LINE
  5
96
  8
0
 10
250.41106805349389
 20
113.16087127447079
 30
0.0
 11
253.1961524227066
 21
103.0
 31
0.0
  0
LINE
  5
97
  8
0
 10
242.5
 20
147.5
 30
0.0
 11
244.0
 21
147.5
 31
0.0
  0
LINE
  5
98
  8
0
 10
248.0
 20
147.5
 30
0.0
 11
253.5
 21
147.5
 31
0.0
  0
LINE
  5
99
  8
0
 10
302.49999999999989
 20
92.576873829587555
 30
0.0
 11
302.49999999999989
 21
113.3425186568318
 31
0.0
  0
LINE
  5
9A
  8
0
 10
299.5
 20
105.4999999999999
 30
0.0
 11
299.5
 21
94.500000000000014
 31
0.0
  0
ARC
  5
9B
  8
0
 10
253.5
 20
102.75
 30
0.0
 40
60.062987771172359
 50
351.15301219488572
 51
8.9460086485461385
  0
LINE
  5
9C
  8
0
 10
304.0749064254158
 20
91.078745321270787
 30
0.0
 11
310.50298115708978
 21
91.400149057854492
 31
0.0
  0
LINE
  5
9D
  8
0
 10
299.5
 20
94.500000000000014
 30
0.0
 11
302.49999999999989
 21
94.500000000000014
 31
0.0
  0
ARC
  5
9E
  8
0
 10
304.0
 20
92.576873829587555
 30
0.0
 40
1.5
 50
180.0
 51
272.86240522611172
  0
ARC
  5
9F
  8
0
 10
310.37813711473012
 20
93.897029905049109
 30
0.0
 40
2.5
 50
272.86240522611189
 51
351.153012194886
  0
LINE
  5
A0
  8
0
 10
304.14925557853138
 20
114.83507444214681
 30
0.0
 11
310.61151142296308
 21
114.1888488577036
 31
0.0
  0
LINE
  5
A1
  8
0
 10
302.49999999999989
 20
103.4999999999999
 30
0.0
 11
313.55830500438719
 21
103.4999999999999
 31
0.0
  0
ARC
  5
A2
  8
0
 10
304.0
 20
113.3425186568318
 30
0.0
 40
1.5
 50
84.289406862500314
 51
180.0
  0
LINE
  5
A3
  8
0
 10
299.5
 20
105.4999999999999
 30
0.0
 11
302.49999999999989
 21
105.4999999999999
 31
0.0
  0
ARC
  5
A4
  8
0
 10
310.36275212541062
 20
111.7012558821786
 30
0.0
 40
2.5
 50
8.9460086485461972
 51
84.289406862500059
  0
LINE
  5
A5
  8
0
 10
259.85745077038348
 20
150.5
 30
0.0
 11
248.0
 21
150.5
 31
0.0
  0
ARC
  5
A6
  8
0
 10
248.0
 20
83.875000000000014
 30
0.0
 40
78.625
 50
82.308645731034986
 51
97.691354268965071
  0
LINE
  5
A7
  8
0
 62
     0
 10
241.9314575050762
 20
150.5
 30
0.0
 11
243.4314575050762
 21
152.0
 31
0.0
  0
LINE
  5
A8
  8
0
 62
     0
 10
248.0
 20
157.38686835190319
 30
0.0
 11
243.04326685110749
 21
162.34360150079559
 31
0.0
  0
LINE
  5
A9
  8
0
 62
     0
 10
246.558441227157
 20
156.0
 30
0.0
 11
240.42426383231339
 21
162.13417739484359
 31
0.0
  0
LINE
  5
AA
  8
0
 62
     0
 10
244.0
 20
150.07315985291851
 30
0.0
 11
235.25609665440979
 21
158.81706319850861
 31
0.0
  0
LINE
  5
AB
  8
0
 62
     0
 10
243.73001410241091
 20
156.0
 30
0.0
 11
237.88355652686661
 21
161.84645757554421
 31
0.0
  0
LINE
  5
AC
  8
0
 62
     0
 10
234.6053823869162
 20
151.65920625607859
 30
0.0
 11
245.40328409116671
 21
162.45710796032901
 31
0.0
  0
LINE
  5
AD
  8
0
 62
     0
 10
236.2746032555838
 20
150.5
 30
0.0
 11
248.27412538623099
 21
162.49952213064711
 31
0.0
  0
LINE
  5
AE
  8
0
 10
243.0
 20
156.0
 30
0.0
 11
248.0
 21
156.0
 31
0.0
  0
LINE
  5
AF
  8
0
 10
248.0
 20
152.0
 30
0.0
 11
243.0
 21
152.0
 31
0.0
  0
LINE
  5
B0
  8
0
 62
     0
 10
243.0
 20
153.90158697766469
 30
0.0
 11
235.93489273867661
 21
160.96669423898811
 31
0.0
  0
LINE
  5
B1
  8
0
 62
     0
 10
235.17106781186541
 20
157.8817459305202
 30
0.0
 11
239.30731844813889
 21
162.0179965667937
 31
0.0
  0
LINE
  5
B2
  8
0
 62
     0
 10
234.88822509939081
 20
154.77047609329941
 30
0.0
 11
242.41945451574659
 21
162.30170550965511
 31
0.0
  0
LINE
  5
B3
  8
0
 10
234.64870941991481
 20
152.13580361906369
 30
0.0
 11
235.32195215300359
 21
159.54147368304041
 31
0.0
  0
LINE
  5
B4
  8
0
 62
     0
 10
237.91630560342611
 20
150.5
 30
0.0
 11
234.78469213361879
 21
153.63161346980721
 31
0.0
  0
LINE
  5
B5
  8
0
 10
242.5
 20
150.5
 30
0.0
 11
236.14254922961641
 21
150.5
 31
0.0
  0
LINE
  5
B6
  8
0
 62
     0
 10
240.74473272817229
 20
150.5
 30
0.0
 11
235.02039439401429
 21
156.22433833415789
 31
0.0
  0
LINE
  5
B7
  8
0
 62
     0
 10
239.10303038033001
 20
150.5
 30
0.0
 11
243.0
 21
154.3969696196699
 31
0.0
  0
LINE
  5
B8
  8
0
 10
243.0
 20
152.0
 30
0.0
 11
243.0
 21
156.0
 31
0.0
  0
LINE
  5
B9
  8
0
 62
     0
 10
244.6030303803299
 20
156.0
 30
0.0
 11
248.0
 21
159.3969696196699
 31
0.0
  0
LINE
  5
BA
  8
0
 62
     0
 10
247.4314575050762
 20
156.0
 30
0.0
 11
248.0
 21
156.56854249492369
 31
0.0
  0
LINE
  5
BB
  8
0
 62
     0
 10
248.0
 20
160.2152954766494
 30
0.0
 11
245.7475657557934
 21
162.467729720856
 31
0.0
  0
LINE
  5
BC
  8
0
 10
260.67804784699632
 20
159.54147368304041
 30
0.0
 11
261.35129058008511
 21
152.13580361906369
 31
0.0
  0
LINE
  5
BD
  8
0
  6
CONTINUOUS
 10
299.5
 20
102.4999999999999
 30
0.0
 11
285.0
 21
102.4999999999999
 31
0.0
  0
LINE
  5
BE
  8
0
  6
CONTINUOUS
 10
284.5
 20
101.5
 30
0.0
 11
284.5
 21
98.500000000000014
 31
0.0
  0
LINE
  5
BF
  8
0
  6
CONTINUOUS
 10
285.0
 20
97.5
 30
0.0
 11
299.5
 21
97.5
 31
0.0
  0
LINE
  5
C0
  8
0
  6
CONTINUOUS
 10
299.5
 20
101.5
 30
0.0
 11
284.5
 21
101.5
 31
0.0
  0
LINE
  5
C1
  8
0
  6
CONTINUOUS
 10
284.5
 20
101.5
 30
0.0
 11
285.0
 21
102.4999999999999
 31
0.0
  0
LINE
  5
C2
  8
0
  6
CONTINUOUS
 10
285.0
 20
102.4999999999999
 30
0.0
 11
285.0
 21
97.5
 31
0.0
  0
LINE
  5
C3
  8
0
  6
CONTINUOUS
 10
285.0
 20
97.5
 30
0.0
 11
284.5
 21
98.500000000000014
 31
0.0
  0
LINE
  5
C4
  8
0
  6
CONTINUOUS
 10
284.5
 20
98.500000000000014
 30
0.0
 11
299.5
 21
98.500000000000014
 31
0.0
  0
LINE
  5
C5
  8
0
  6
CONTINUOUS
 10
245.5
 20
152.0
 30
0.0
 11
245.5
 21
133.0
 31
0.0
  0
LINE
  5
C6
  8
0
  6
CONTINUOUS
 10
246.49999999999989
 20
132.49999999999989
 30
0.0
 11
249.5
 21
132.49999999999989
 31
0.0
  0
LINE
  5
C7
  8
0
  6
CONTINUOUS
 10
250.49999999999989
 20
133.0
 30
0.0
 11
250.49999999999989
 21
147.5
 31
0.0
  0
LINE
  5
C8
  8
0
  6
CONTINUOUS
 10
246.0
 20
152.0
 30
0.0
 11
246.0
 21
156.0
 31
0.0
  0
LINE
  5
C9
  8
0
  6
CONTINUOUS
 10
246.49999999999989
 20
152.0
 30
0.0
 11
246.49999999999989
 21
132.49999999999989
 31
0.0
  0
LINE
  5
CA
  8
0
  6
CONTINUOUS
 10
246.49999999999989
 20
132.49999999999989
 30
0.0
 11
245.5
 21
133.0
 31
0.0
  0
LINE
  5
CB
  8
0
  6
CONTINUOUS
 10
245.5
 20
133.0
 30
0.0
 11
250.49999999999989
 21
133.0
 31
0.0
  0
LINE
  5
CC
  8
0
  6
CONTINUOUS
 10
250.49999999999989
 20
133.0
 30
0.0
 11
249.5
 21
132.49999999999989
 31
0.0
  0
LINE
  5
CD
  8
0
  6
CONTINUOUS
 10
249.5
 20
132.49999999999989
 30
0.0
 11
249.5
 21
147.5
 31
0.0
  0
ARC
  5
CE
  8
0
 10
259.85745077038348
 20
152.0
 30
0.0
 40
1.5
 50
270.0
 51
5.1944289077348067
  0
ARC
  5
CF
  8
0
 10
236.14254922961641
 20
152.0
 30
0.0
 40
1.5
 50
174.8055710922651
 51
270.0
  0
ARC
  5
D0
  8
0
 10
258.18831483082698
 20
159.31513431793411
 30
0.0
 40
2.5
 50
5.1944289077348058
 51
82.308645731035128
  0
ARC
  5
D1
  8
0
 10
237.8116851691729
 20
159.31513431793411
 30
0.0
 40
2.5
 50
97.691354268965526
 51
174.80557109226501
  0
ARC
  5
D2
  8
0
 10
110.188314830827
 20
159.31513431793411
 30
0.0
 40
2.5
 50
5.1944289077348653
 51
82.308645731034815
  0
ARC
  5
D3
  8
0
 10
89.811685169172932
 20
159.31513431793411
 30
0.0
 40
2.5
 50
97.691354268965185
 51
174.8055710922651
  0
ARC
  5
D4
  8
0
 10
111.85745077038349
 20
152.0
 30
0.0
 40
1.5
 50
270.0
 51
5.1944289077348067
  0
ARC
  5
D5
  8
0
 10
88.142549229616435
 20
152.0
 30
0.0
 40
1.5
 50
174.8055710922651
 51
270.0
  0
ENDSEC
  0
EOF
