  0
SECTION
  2
HEADER
  9
$ACADVER
  1
AC1009
  9
$INSBASE
 10
0.0
 20
0.0
 30
0.0
  9
$EXTMIN
 10
86.280213480675911
 20
176.98274320711229
 30
-0.0015258207003583
  9
$EXTMAX
 10
266.04400714631669
 20
251.50918642956429
 30
0.0000000349246037
  9
$LIMMIN
 10
0.0
 20
0.0
  9
$LIMMAX
 10
420.0
 20
297.0
  9
$ORTHOMODE
 70
     1
  9
$REGENMODE
 70
     1
  9
$FILLMODE
 70
     1
  9
$QTEXTMODE
 70
     0
  9
$MIRRTEXT
 70
     1
  9
$DRAGMODE
 70
     2
  9
$LTSCALE
 40
1.0
  9
$OSMODE
 70
    40
  9
$ATTMODE
 70
     1
  9
$TEXTSIZE
 40
2.5
  9
$TRACEWID
 40
1.0
  9
$TEXTSTYLE
  7
STANDARD
  9
$CLAYER
  8
0
  9
$CELTYPE
  6
BYLAYER
  9
$CECOLOR
 62
   256
  9
$DIMSCALE
 40
1.0
  9
$DIMASZ
 40
2.5
  9
$DIMEXO
 40
0.625
  9
$DIMDLI
 40
3.75
  9
$DIMRND
 40
0.0
  9
$DIMDLE
 40
0.0
  9
$DIMEXE
 40
1.25
  9
$DIMTP
 40
0.0
  9
$DIMTM
 40
0.0
  9
$DIMTXT
 40
2.5
  9
$DIMCEN
 40
2.5
  9
$DIMTSZ
 40
0.0
  9
$DIMTOL
 70
     0
  9
$DIMLIM
 70
     0
  9
$DIMTIH
 70
     1
  9
$DIMTOH
 70
     1
  9
$DIMSE1
 70
     0
  9
$DIMSE2
 70
     0
  9
$DIMTAD
 70
     1
  9
$DIMZIN
 70
     8
  9
$DIMBLK
  1

  9
$DIMASO
 70
     1
  9
$DIMSHO
 70
     1
  9
$DIMPOST
  1

  9
$DIMAPOST
  1

  9
$DIMALT
 70
     0
  9
$DIMALTD
 70
     3
  9
$DIMALTF
 40
0.03937007874016
  9
$DIMLFAC
 40
1.0
  9
$DIMTOFL
 70
     1
  9
$DIMTVP
 40
0.0
  9
$DIMTIX
 70
     0
  9
$DIMSOXD
 70
     0
  9
$DIMSAH
 70
     0
  9
$DIMBLK1
  1

  9
$DIMBLK2
  1

  9
$DIMSTYLE
  2
ISO-25
  9
$DIMCLRD
 70
     0
  9
$DIMCLRE
 70
     0
  9
$DIMCLRT
 70
     0
  9
$DIMTFAC
 40
1.0
  9
$DIMGAP
 40
0.625
  9
$LUNITS
 70
     2
  9
$LUPREC
 70
     4
  9
$SKETCHINC
 40
1.0
  9
$FILLETRAD
 40
1.5
  9
$AUNITS
 70
     0
  9
$AUPREC
 70
     0
  9
$MENU
  1
.
  9
$ELEVATION
 40
0.0
  9
$PELEVATION
 40
0.0
  9
$THICKNESS
 40
0.0
  9
$LIMCHECK
 70
     0
  9
$BLIPMODE
 70
     0
  9
$CHAMFERA
 40
10.0
  9
$CHAMFERB
 40
10.0
  9
$SKPOLY
 70
     0
  9
$TDCREATE
 40
2452717.489886608
  9
$TDUPDATE
 40
2452717.6658585072
  9
$TDINDWG
 40
0.1704905324
  9
$TDUSRTIMER
 40
0.1704905324
  9
$USRTIMER
 70
     1
  9
$ANGBASE
 50
0.0
  9
$ANGDIR
 70
     0
  9
$PDMODE
 70
     3
  9
$PDSIZE
 40
2.0
  9
$PLINEWID
 40
0.0
  9
$COORDS
 70
     0
  9
$SPLFRAME
 70
     0
  9
$SPLINETYPE
 70
     6
  9
$SPLINESEGS
 70
     8
  9
$ATTDIA
 70
     0
  9
$ATTREQ
 70
     1
  9
$HANDLING
 70
-16383
  9
$HANDSEED
  5
D9F
  9
$SURFTAB1
 70
     6
  9
$SURFTAB2
 70
     6
  9
$SURFTYPE
 70
     6
  9
$SURFU
 70
     6
  9
$SURFV
 70
     6
  9
$UCSNAME
  2

  9
$UCSORG
 10
0.0
 20
0.0
 30
0.0
  9
$UCSXDIR
 10
1.0
 20
0.0
 30
0.0
  9
$UCSYDIR
 10
0.0
 20
1.0
 30
0.0
  9
$PUCSNAME
  2

  9
$PUCSORG
 10
0.0
 20
0.0
 30
0.0
  9
$PUCSXDIR
 10
1.0
 20
0.0
 30
0.0
  9
$PUCSYDIR
 10
0.0
 20
1.0
 30
0.0
  9
$USERI1
 70
     0
  9
$USERI2
 70
     0
  9
$USERI3
 70
     0
  9
$USERI4
 70
     0
  9
$USERI5
 70
     0
  9
$USERR1
 40
0.0
  9
$USERR2
 40
0.0
  9
$USERR3
 40
0.0
  9
$USERR4
 40
0.0
  9
$USERR5
 40
0.0
  9
$WORLDVIEW
 70
     1
  9
$SHADEDGE
 70
     3
  9
$SHADEDIF
 70
    70
  9
$TILEMODE
 70
     1
  9
$MAXACTVP
 70
    48
  9
$PLIMCHECK
 70
     0
  9
$PEXTMIN
 10
28.674485683441159
 20
19.97498331069945
 30
0.0
  9
$PEXTMAX
 10
258.0703711509704
 20
179.77484979629509
 30
0.0
  9
$PLIMMIN
 10
-5.027069091796875
 20
-5.0270833969116211
  9
$PLIMMAX
 10
291.98358154296869
 20
204.98858737945551
  9
$UNITMODE
 70
     0
  9
$VISRETAIN
 70
     1
  9
$PLINEGEN
 70
     0
  9
$PSLTSCALE
 70
     1
  0
ENDSEC
  0
SECTION
  2
TABLES
  0
TABLE
  2
VPORT
 70
     4
  0
VPORT
  2
*ACTIVE
 70
     0
 10
0.0
 20
0.0
 11
1.0
 21
1.0
 12
176.1621103134963
 22
214.24596481833831
 13
0.0
 23
0.0
 14
10.0
 24
10.0
 15
10.0
 25
10.0
 16
0.0
 26
0.0
 36
1.0
 17
0.0
 27
0.0
 37
0.0
 40
118.359410980766
 41
1.5262500000000001
 42
50.0
 43
0.0
 44
0.0
 50
0.0
 51
0.0
 71
     0
 72
   100
 73
     1
 74
     2
 75
     0
 76
     0
 77
     0
 78
     0
  0
ENDTAB
  0
TABLE
  2
LTYPE
 70
     2
  0
LTYPE
  2
CONTINUOUS
 70
     0
  3
Solid line
 72
    65
 73
     0
 40
0.0
  0
LTYPE
  2
CENTER
 70
     0
  3
Center (.5x) ___ _ ___ _ ___ _ ___ _ ___ _ ___
 72
    65
 73
     4
 40
28.574999999999989
 49
19.050000000000001
 49
-3.1749999999999989
 49
3.1749999999999989
 49
-3.1749999999999989
  0
ENDTAB
  0
TABLE
  2
LAYER
 70
     1
  0
LAYER
  2
0
 70
     0
 62
     7
  6
CONTINUOUS
  0
ENDTAB
  0
TABLE
  2
STYLE
 70
     1
  0
STYLE
  2
STANDARD
 70
     0
 40
0.0
 41
1.0
 50
0.0
 71
     0
 42
2.5
  3
txt
  4

  0
ENDTAB
  0
TABLE
  2
VIEW
 70
     0
  0
ENDTAB
  0
TABLE
  2
UCS
 70
     0
  0
ENDTAB
  0
TABLE
  2
APPID
 70
     2
  0
APPID
  2
ACAD
 70
     0
  0
APPID
  2
CONTENTBLOCKICON
 70
     0
  0
ENDTAB
  0
TABLE
  2
DIMSTYLE
 70
     1
  0
DIMSTYLE
  2
ISO-25
 70
     0
  3

  4

  5

  6

  7

 40
1.0
 41
2.5
 42
0.625
 43
3.75
 44
1.25
 45
0.0
 46
0.0
 47
0.0
 48
0.0
140
2.5
141
2.5
142
0.0
143
0.03937007874016
144
1.0
145
0.0
146
1.0
147
0.625
 71
     0
 72
     0
 73
     1
 74
     1
 75
     0
 76
     0
 77
     1
 78
     8
170
     0
171
     3
172
     1
173
     0
174
     0
175
     0
176
     0
177
     0
178
     0
  0
ENDTAB
  0
ENDSEC
  0
SECTION
  2
BLOCKS
  0
BLOCK
  8
0
  2
$MODEL_SPACE
 70
     0
 10
0.0
 20
0.0
 30
0.0
  3
$MODEL_SPACE
  1

  0
ENDBLK
  5
21
  8
0
  0
BLOCK
 67
     1
  8
0
  2
$PAPER_SPACE
 70
     0
 10
0.0
 20
0.0
 30
0.0
  3
$PAPER_SPACE
  1

  0
ENDBLK
  5
53
 67
     1
  8
0
  0
BLOCK
  8
0
  2
KULA_M8
 70
     0
 10
0.0
 20
0.0
 30
0.0
  3
KULA_M8
  1

  0
LINE
  5
B1C
  8
0
  6
CENTER
 10
0.0
 20
-1.5
 30
0.0
 11
0.0
 21
53.5
 31
0.0
  0
LINE
  5
B1D
  8
0
 10
-3.500000000000028
 20
33.000000000000057
 30
0.0
 11
-3.5
 21
44.00000000000005
 31
0.0
  0
ARC
  5
B1E
  8
0
 10
0.0
 20
32.0
 30
0.0
 40
20.0
 50
311.15574137219392
 51
228.844258627806
  0
LINE
  5
B1F
  8
0
 10
-7.6758266721940061
 20
0.0
 30
0.0
 11
7.6758266721940061
 21
0.0
 31
0.0
  0
LINE
  5
B20
  8
0
 10
-5.0
 20
0.0
 30
0.0
 11
-5.0000000000000284
 21
33.000000000000057
 31
0.0
  0
ARC
  5
B21
  8
0
 10
-18.42702551642801
 20
10.91814214503591
 30
0.0
 40
8.0
 50
7.1250163489013927
 51
48.844258627806049
  0
LINE
  5
B22
  8
0
 10
-9.1642434872645122
 20
1.3139478981161969
 30
0.0
 11
-10.48880250271867
 21
11.91042002174953
 31
0.0
  0
ARC
  5
B23
  8
0
 10
-7.6758266721940061
 20
1.5
 30
0.0
 40
1.5
 50
187.1250163489014
 51
270.0
  0
LINE
  5
B24
  8
0
 10
-5.0000000000000284
 20
33.000000000000057
 30
0.0
 11
-0.0000000000000284
 21
33.000000000000057
 31
0.0
  0
LINE
  5
B25
  8
0
 10
9.1642434872645122
 20
1.3139478981161969
 30
0.0
 11
10.48880250271867
 21
11.91042002174953
 31
0.0
  0
ARC
  5
B26
  8
0
 10
7.6758266721940061
 20
1.5
 30
0.0
 40
1.5
 50
270.0
 51
352.8749836510986
  0
ARC
  5
B27
  8
0
 10
18.42702551642801
 20
10.91814214503591
 30
0.0
 40
8.0
 50
131.15574137219389
 51
172.8749836510986
  0
LINE
  5
B28
  8
0
 10
-3.500000000000028
 20
44.0
 30
0.0
 11
0.0
 21
44.0
 31
0.0
  0
ENDBLK
  5
B1B
  8
0
  0
BLOCK
  8
0
  2
KULA_M10
 70
     0
 10
0.0
 20
0.0
 30
0.0
  3
KULA_M10
  1

  0
ARC
  5
CF6
  8
0
 10
0.0
 20
32.0
 30
0.0
 40
20.0
 50
311.15574137219329
 51
228.8442586278066
  0
ARC
  5
CF7
  8
0
 10
-18.42702551642801
 20
10.91814214503591
 30
0.0
 40
8.0
 50
7.1250163489013927
 51
48.84425862780666
  0
LINE
  5
CF8
  8
0
 10
-4.5000000000000284
 20
36.000000000000028
 30
0.0
 11
-4.5
 21
44.000000000000028
 31
0.0
  0
LINE
  5
CF9
  8
0
  6
CENTER
 10
0.0
 20
-1.5
 30
0.0
 11
0.0
 21
53.5
 31
0.0
  0
LINE
  5
CFA
  8
0
 10
-6.0
 20
0.0
 30
0.0
 11
-6.0000000000000284
 21
36.000000000000028
 31
0.0
  0
LINE
  5
CFB
  8
0
 10
-7.6758266721940061
 20
0.0
 30
0.0
 11
7.6758266721940061
 21
0.0
 31
0.0
  0
LINE
  5
CFC
  8
0
 10
-9.1642434872645122
 20
1.3139478981161969
 30
0.0
 11
-10.48880250271867
 21
11.91042002174953
 31
0.0
  0
ARC
  5
CFD
  8
0
 10
-7.6758266721940061
 20
1.5
 30
0.0
 40
1.5
 50
187.1250163489014
 51
270.0
  0
LINE
  5
CFE
  8
0
 10
9.1642434872645122
 20
1.3139478981161969
 30
0.0
 11
10.48880250271867
 21
11.91042002174953
 31
0.0
  0
ARC
  5
CFF
  8
0
 10
7.6758266721940061
 20
1.5
 30
0.0
 40
1.5
 50
270.0
 51
352.8749836510986
  0
ARC
  5
D00
  8
0
 10
18.42702551642801
 20
10.91814214503591
 30
0.0
 40
8.0
 50
131.15574137219329
 51
172.8749836510986
  0
LINE
  5
D01
  8
0
 10
-6.0000000000000284
 20
36.00000000000005
 30
0.0
 11
-0.0000000000000284
 21
36.000000000000028
 31
0.0
  0
LINE
  5
D02
  8
0
 10
-4.5000000000000284
 20
44.0
 30
0.0
 11
0.0
 21
44.0
 31
0.0
  0
ENDBLK
  5
B2C
  8
0
  0
BLOCK
  8
0
  2
INSATS_M8
 70
     0
 10
0.0
 20
0.0
 30
0.0
  3
INSATS_M8
  1

  0
LINE
  5
B3E
  8
0
 10
-4.0000000000000284
 20
-11.400000000000061
 30
0.0
 11
4.0000000000001421
 21
-11.39999999999992
 31
0.0
  0
LINE
  5
B3F
  8
0
 10
-3.0
 20
-12.0
 30
0.0
 11
3.0
 21
-12.0
 31
0.0
  0
LINE
  5
B40
  8
0
 10
3.000000000000056
 20
-11.999999999999879
 30
0.0
 11
-2.9999999999999432
 21
-12.00000000000011
 31
0.0
  0
LINE
  5
B41
  8
0
 10
-3.4000000000000341
 20
-12.00000000000005
 30
0.0
 11
3.4000000000001469
 21
-11.999999999999909
 31
0.0
  0
LINE
  5
B42
  8
0
 10
-6.5
 20
4.9999999999996581
 30
0.0
 11
6.5
 21
5.0000000000001128
 31
0.0
  0
LINE
  5
B43
  8
0
 10
-5.0
 20
37.0
 30
0.0
 11
5.0
 21
37.0
 31
0.0
  0
LINE
  5
B44
  8
0
 10
-5.0
 20
35.5
 30
0.0
 11
5.0
 21
35.5
 31
0.0
  0
LINE
  5
B45
  8
0
 10
-6.5
 20
-0.0000000000001137
 30
0.0
 11
6.5
 21
0.0000000000001137
 31
0.0
  0
LINE
  5
B46
  8
0
 10
-4.5
 20
-0.0000000000001137
 30
0.0
 11
4.5
 21
5.0
 31
0.0
  0
LINE
  5
B47
  8
0
 10
-3.0
 20
38.5
 30
0.0
 11
3.0
 21
38.5
 31
0.0
  0
LINE
  5
B48
  8
0
 10
-4.5
 20
4.9999999999997149
 30
0.0
 11
4.5
 21
0.0000000000000853
 31
0.0
  0
LINE
  5
B49
  8
0
 10
-6.5
 20
-0.0000000000001137
 30
0.0
 11
-6.5
 21
5.0000000000001128
 31
0.0
  0
LINE
  5
B4A
  8
0
 10
-4.5
 20
5.0
 30
0.0
 11
-4.5
 21
0.0000000000001137
 31
0.0
  0
LINE
  5
B4B
  8
0
  6
CENTER
 10
0.0
 20
40.0
 30
0.0
 11
0.0
 21
-13.5
 31
0.0
  0
LINE
  5
B4C
  8
0
 10
-3.4000000000000048
 20
-0.0000000000001137
 30
0.0
 11
-3.4000000000000048
 21
-12.00000000000005
 31
0.0
  0
LINE
  5
B4D
  8
0
 10
-4.0
 20
-0.0000000000001137
 30
0.0
 11
-4.0
 21
-11.400000000000089
 31
0.0
  0
LINE
  5
B4E
  8
0
 10
-4.0
 20
-11.400000000000061
 30
0.0
 11
-3.4000000000000048
 21
-12.00000000000005
 31
0.0
  0
LINE
  5
B4F
  8
0
 10
-5.0
 20
37.0
 30
0.0
 11
-5.0
 21
5.0
 31
0.0
  0
LINE
  5
B50
  8
0
 10
-1.5
 20
37.0
 30
0.0
 11
-3.0
 21
38.5
 31
0.0
  0
LINE
  5
B51
  8
0
 10
4.5
 20
5.0
 30
0.0
 11
4.5
 21
0.0000000000001137
 31
0.0
  0
LINE
  5
B52
  8
0
 10
6.5
 20
-0.0000000000001137
 30
0.0
 11
6.5
 21
5.0000000000001128
 31
0.0
  0
LINE
  5
B53
  8
0
 10
4.0
 20
0.0000000000001137
 30
0.0
 11
4.0
 21
-11.400000000000089
 31
0.0
  0
LINE
  5
B54
  8
0
 10
3.4000000000000048
 20
-0.0000000000001137
 30
0.0
 11
3.4000000000000048
 21
-12.00000000000005
 31
0.0
  0
LINE
  5
B55
  8
0
 10
4.0
 20
-11.400000000000061
 30
0.0
 11
3.4000000000000048
 21
-12.00000000000005
 31
0.0
  0
LINE
  5
B56
  8
0
 10
5.0
 20
37.0
 30
0.0
 11
5.0
 21
5.0
 31
0.0
  0
LINE
  5
B57
  8
0
 10
1.5
 20
37.0
 30
0.0
 11
3.0
 21
38.5
 31
0.0
  0
ENDBLK
  5
B3D
  8
0
  0
BLOCK
  8
0
  2
INSATS_M10
 70
     0
 10
0.0
 20
0.0
 30
0.0
  3
INSATS_M10
  1

  0
LINE
  5
CDD
  8
0
  6
CENTER
 10
0.0
 20
44.0
 30
0.0
 11
0.0
 21
-13.5
 31
0.0
  0
LINE
  5
CDE
  8
0
 10
7.5
 20
-0.0000000000001137
 30
0.0
 11
7.5
 21
5.0000000000001128
 31
0.0
  0
LINE
  5
CDF
  8
0
 10
-5.5
 20
5.0
 30
0.0
 11
-5.5
 21
0.0000000000001137
 31
0.0
  0
LINE
  5
CE0
  8
0
 10
-7.5
 20
-0.0000000000001137
 30
0.0
 11
-7.5
 21
5.0000000000001128
 31
0.0
  0
LINE
  5
CE1
  8
0
 10
5.5
 20
5.0
 30
0.0
 11
5.5
 21
0.0000000000001137
 31
0.0
  0
LINE
  5
CE2
  8
0
 10
-5.5
 20
4.9999999999997149
 30
0.0
 11
5.5
 21
0.0000000000000853
 31
0.0
  0
LINE
  5
CE3
  8
0
 10
5.5
 20
5.000000000000056
 30
0.0
 11
-5.5
 21
-0.0000000000000853
 31
0.0
  0
LINE
  5
CE4
  8
0
 10
-7.5
 20
-0.0000000000001137
 30
0.0
 11
7.5
 21
0.0000000000001137
 31
0.0
  0
LINE
  5
CE5
  8
0
 10
-4.25
 20
-16.00000000000005
 30
0.0
 11
4.2500000000001128
 21
-15.999999999999909
 31
0.0
  0
LINE
  5
CE6
  8
0
 10
-4.9999999999999432
 20
-15.25000000000008
 30
0.0
 11
5.0000000000001696
 21
-15.249999999999909
 31
0.0
  0
LINE
  5
CE7
  8
0
 10
-5.0
 20
-0.0000000000001137
 30
0.0
 11
-5.0
 21
-15.25000000000003
 31
0.0
  0
LINE
  5
CE8
  8
0
 10
-4.25
 20
-0.0000000000001137
 30
0.0
 11
-4.25
 21
-16.00000000000005
 31
0.0
  0
LINE
  5
CE9
  8
0
 10
-5.0
 20
-15.25000000000008
 30
0.0
 11
-4.25
 21
-16.00000000000005
 31
0.0
  0
LINE
  5
CEA
  8
0
 10
5.0
 20
0.0000000000001137
 30
0.0
 11
5.000000000000056
 21
-15.25000000000003
 31
0.0
  0
LINE
  5
CEB
  8
0
 10
4.25
 20
-0.0000000000001137
 30
0.0
 11
4.25
 21
-16.00000000000005
 31
0.0
  0
LINE
  5
CEC
  8
0
 10
5.0
 20
-15.25000000000008
 30
0.0
 11
4.25
 21
-16.00000000000005
 31
0.0
  0
LINE
  5
CED
  8
0
 10
6.0
 20
41.0
 30
0.0
 11
6.0
 21
5.0
 31
0.0
  0
LINE
  5
CEE
  8
0
 10
-6.0
 20
41.0
 30
0.0
 11
-6.0
 21
5.0
 31
0.0
  0
LINE
  5
CEF
  8
0
 10
-7.5
 20
4.9999999999996581
 30
0.0
 11
7.5
 21
5.0000000000001128
 31
0.0
  0
LINE
  5
CF0
  8
0
 10
-3.0
 20
42.5
 30
0.0
 11
3.0
 21
42.5
 31
0.0
  0
LINE
  5
CF1
  8
0
 10
-6.0
 20
41.0
 30
0.0
 11
6.0
 21
41.0
 31
0.0
  0
LINE
  5
CF2
  8
0
 10
-6.0
 20
39.5
 30
0.0
 11
6.0
 21
39.5
 31
0.0
  0
LINE
  5
CF3
  8
0
 10
-1.5
 20
41.0
 30
0.0
 11
-3.0
 21
42.5
 31
0.0
  0
LINE
  5
CF4
  8
0
 10
1.5
 20
41.0
 30
0.0
 11
3.0
 21
42.5
 31
0.0
  0
ENDBLK
  5
B5B
  8
0
  0
ENDSEC
  0
SECTION
  2
ENTITIES
  0
INSERT
  5
B29
  8
0
  2
KULA_M8
 10
106.296335517641
 20
198.0
 30
0.0
  0
INSERT
  5
B58
  8
0
  2
INSATS_M8
 10
143.611107212333
 20
192.9999999999998
 30
0.0
  0
INSERT
  5
CF5
  8
0
  2
INSATS_M10
 10
258.5350589326182
 20
192.9999999999998
 30
0.0
  0
INSERT
  5
D03
  8
0
  2
KULA_M10
 10
220.61843617750799
 20
198.0
 30
0.0
  0
VIEWPORT
  5
8D
 67
     1
  8
0
 10
143.47825622558591
 20
99.980751991271987
 30
0.0
 40
339.12752973873143
 41
222.1965796813964
 68
     1
 69
     1
1001
ACAD
1000
MVIEW
1002
{
1070
    16
1010
0.0
1020
0.0
1030
0.0
1010
0.0
1020
0.0
1030
1.0
1040
0.0
1040
222.1965796813964
1040
143.47825622558591
1040
99.980751991271987
1040
50.0
1040
0.0
1040
0.0
1070
     0
1070
   100
1070
     1
1070
     1
1070
     0
1070
     0
1070
     0
1070
     0
1040
0.0
1040
0.0
1040
0.0
1040
10.0
1040
10.0
1040
10.0
1040
10.0
1070
     0
1002
{
1002
}
1002
}
  0
VIEWPORT
  5
8F
 67
     1
  8
0
 10
143.37242841720581
 20
99.874916553497314
 30
0.0
 40
229.3958854675293
 41
159.79986648559569
 68
     2
 69
     2
1001
ACAD
1000
MVIEW
1002
{
1070
    16
1010
0.0
1020
0.0
1030
0.0
1010
0.0
1020
0.0
1030
1.0
1040
0.0
1040
300.10452961672468
1040
210.0
1040
148.5
1040
50.0
1040
0.0
1040
0.0
1070
     0
1070
   100
1070
     1
1070
     2
1070
     0
1070
     0
1070
     0
1070
     0
1040
0.0
1040
0.0
1040
0.0
1040
10.0
1040
10.0
1040
10.0
1040
10.0
1070
     0
1002
{
1002
}
1002
}
  0
ENDSEC
  0
EOF
