  0
SECTION
  2
HEADER
  9
$ACADVER
  1
AC1009
  9
$INSBASE
 10
56.694297
 20
106.097227
 30
0.0
  9
$EXTMIN
 10
-21.457589
 20
63.348254
 30
0.0
  9
$EXTMAX
 10
493.573517
 20
146.031198
 30
0.0
  9
$LIMMIN
 10
0.0
 20
0.0
  9
$LIMMAX
 10
420.0
 20
297.0
  9
$ORTHOMODE
 70
     1
  9
$REGENMODE
 70
     1
  9
$FILLMODE
 70
     1
  9
$QTEXTMODE
 70
     0
  9
$MIRRTEXT
 70
     1
  9
$DRAGMODE
 70
     2
  9
$LTSCALE
 40
1.0
  9
$OSMODE
 70
     0
  9
$ATTMODE
 70
     1
  9
$TEXTSIZE
 40
2.5
  9
$TRACEWID
 40
1.0
  9
$TEXTSTYLE
  7
STANDARD
  9
$CLAYER
  8
0
  9
$CELTYPE
  6
BYLAYER
  9
$CECOLOR
 62
   256
  9
$DIMSCALE
 40
1.0
  9
$DIMASZ
 40
2.5
  9
$DIMEXO
 40
0.625
  9
$DIMDLI
 40
3.75
  9
$DIMRND
 40
0.0
  9
$DIMDLE
 40
0.0
  9
$DIMEXE
 40
1.25
  9
$DIMTP
 40
0.0
  9
$DIMTM
 40
0.0
  9
$DIMTXT
 40
2.5
  9
$DIMCEN
 40
2.5
  9
$DIMTSZ
 40
0.0
  9
$DIMTOL
 70
     0
  9
$DIMLIM
 70
     0
  9
$DIMTIH
 70
     0
  9
$DIMTOH
 70
     0
  9
$DIMSE1
 70
     0
  9
$DIMSE2
 70
     0
  9
$DIMTAD
 70
     1
  9
$DIMZIN
 70
     8
  9
$DIMBLK
  1

  9
$DIMASO
 70
     1
  9
$DIMSHO
 70
     1
  9
$DIMPOST
  1

  9
$DIMAPOST
  1

  9
$DIMALT
 70
     0
  9
$DIMALTD
 70
     4
  9
$DIMALTF
 40
0.0394
  9
$DIMLFAC
 40
1.0
  9
$DIMTOFL
 70
     1
  9
$DIMTVP
 40
0.0
  9
$DIMTIX
 70
     0
  9
$DIMSOXD
 70
     0
  9
$DIMSAH
 70
     0
  9
$DIMBLK1
  1

  9
$DIMBLK2
  1

  9
$DIMSTYLE
  2
STANDARD
  9
$DIMCLRD
 70
     0
  9
$DIMCLRE
 70
     0
  9
$DIMCLRT
 70
     0
  9
$DIMTFAC
 40
1.0
  9
$DIMGAP
 40
0.625
  9
$LUNITS
 70
     2
  9
$LUPREC
 70
     4
  9
$SKETCHINC
 40
1.0
  9
$FILLETRAD
 40
10.0
  9
$AUNITS
 70
     0
  9
$AUPREC
 70
     0
  9
$MENU
  1
acad
  9
$ELEVATION
 40
0.0
  9
$PELEVATION
 40
0.0
  9
$THICKNESS
 40
0.0
  9
$LIMCHECK
 70
     0
  9
$BLIPMODE
 70
     0
  9
$CHAMFERA
 40
10.0
  9
$CHAMFERB
 40
10.0
  9
$SKPOLY
 70
     0
  9
$TDCREATE
 40
2451792.638152488
  9
$TDUPDATE
 40
2451792.638152488
  9
$TDINDWG
 40
0.0000000000
  9
$TDUSRTIMER
 40
0.0000000000
  9
$USRTIMER
 70
     1
  9
$ANGBASE
 50
0.0
  9
$ANGDIR
 70
     0
  9
$PDMODE
 70
     0
  9
$PDSIZE
 40
0.0
  9
$PLINEWID
 40
0.0
  9
$COORDS
 70
     1
  9
$SPLFRAME
 70
     0
  9
$SPLINETYPE
 70
     6
  9
$SPLINESEGS
 70
     8
  9
$ATTDIA
 70
     0
  9
$ATTREQ
 70
     1
  9
$HANDLING
 70
     1
  9
$HANDSEED
  5
224
  9
$SURFTAB1
 70
     6
  9
$SURFTAB2
 70
     6
  9
$SURFTYPE
 70
     6
  9
$SURFU
 70
     6
  9
$SURFV
 70
     6
  9
$UCSNAME
  2

  9
$UCSORG
 10
0.0
 20
0.0
 30
0.0
  9
$UCSXDIR
 10
1.0
 20
0.0
 30
0.0
  9
$UCSYDIR
 10
0.0
 20
1.0
 30
0.0
  9
$PUCSNAME
  2

  9
$PUCSORG
 10
0.0
 20
0.0
 30
0.0
  9
$PUCSXDIR
 10
1.0
 20
0.0
 30
0.0
  9
$PUCSYDIR
 10
0.0
 20
1.0
 30
0.0
  9
$USERI1
 70
     0
  9
$USERI2
 70
     0
  9
$USERI3
 70
     0
  9
$USERI4
 70
     0
  9
$USERI5
 70
     0
  9
$USERR1
 40
0.0
  9
$USERR2
 40
0.0
  9
$USERR3
 40
0.0
  9
$USERR4
 40
0.0
  9
$USERR5
 40
0.0
  9
$WORLDVIEW
 70
     1
  9
$SHADEDGE
 70
     3
  9
$SHADEDIF
 70
    70
  9
$TILEMODE
 70
     1
  9
$MAXACTVP
 70
    16
  9
$PINSBASE
 10
0.0
 20
0.0
 30
0.0
  9
$PLIMCHECK
 70
     0
  9
$PEXTMIN
 10
1.000000E+20
 20
1.000000E+20
 30
1.000000E+20
  9
$PEXTMAX
 10
-1.000000E+20
 20
-1.000000E+20
 30
-1.000000E+20
  9
$PLIMMIN
 10
0.0
 20
0.0
  9
$PLIMMAX
 10
420.0
 20
297.0
  9
$UNITMODE
 70
     0
  9
$VISRETAIN
 70
     1
  9
$PLINEGEN
 70
     0
  9
$PSLTSCALE
 70
     1
  9
$TREEDEPTH
 70
  3020
  9
$DWGCODEPAGE
  3
dummy
  0
ENDSEC
  0
SECTION
  2
TABLES
  0
TABLE
  2
VPORT
 70
     2
  0
VPORT
  2
*ACTIVE
 70
     0
 10
0.0
 20
0.0
 11
1.0
 21
1.0
 12
243.150662
 22
106.174001
 13
0.0
 23
0.0
 14
10.0
 24
10.0
 15
10.0
 25
10.0
 16
0.0
 26
0.0
 36
1.0
 17
0.0
 27
0.0
 37
0.0
 40
450.897765
 41
1.647423
 42
50.0
 43
0.0
 44
0.0
 50
0.0
 51
0.0
 71
     0
 72
   100
 73
     1
 74
     1
 75
     0
 76
     0
 77
     0
 78
     0
  0
ENDTAB
  0
TABLE
  2
LTYPE
 70
     2
  0
LTYPE
  2
CONTINUOUS
 70
    64
  3
Solid line
 72
    65
 73
     0
 40
0.0
  0
LTYPE
  2
CENTER
 70
    64
  3
____ _ ____ _ ____ _ ____ _ ____ _ ____ _ ____ 
 72
    65
 73
     4
 40
2.0
 49
1.25
 49
-0.25
 49
0.25
 49
-0.25
  0
ENDTAB
  0
TABLE
  2
LAYER
 70
     1
  0
LAYER
  2
0
 70
    64
 62
     7
  6
CONTINUOUS
  0
ENDTAB
  0
TABLE
  2
STYLE
 70
     1
  0
STYLE
  2
STANDARD
 70
     0
 40
0.0
 41
1.0
 50
0.0
 71
     0
 42
2.5
  3
txt
  4

  0
ENDTAB
  0
TABLE
  2
VIEW
 70
     0
  0
ENDTAB
  0
TABLE
  2
UCS
 70
     0
  0
ENDTAB
  0
TABLE
  2
APPID
 70
     1
  0
APPID
  2
ACAD
 70
    64
  0
ENDTAB
  0
TABLE
  2
DIMSTYLE
 70
     1
  0
DIMSTYLE
  2
STANDARD
 70
     0
  3

  4

  5

  6

  7

 40
1.0
 41
0.18
 42
0.0625
 43
0.38
 44
0.18
 45
0.0
 46
0.0
 47
0.0
 48
0.0
140
0.18
141
0.09
142
0.0
143
25.4
144
1.0
145
0.0
146
1.0
147
0.09
 71
     0
 72
     0
 73
     1
 74
     1
 75
     0
 76
     0
 77
     0
 78
     0
170
     0
171
     2
172
     0
173
     0
174
     0
175
     0
176
     0
177
     0
178
     0
  0
ENDTAB
  0
ENDSEC
  0
SECTION
  2
BLOCKS
  0
BLOCK
  8
0
  5
222
  2
*X0
 70
    65
 10
0.0
 20
0.0
 30
0.0
  3
*X0
  0
LINE
  8
0
 62
     0
  5
203
 10
25.842897
 20
84.067548
 30
0.0
 11
26.442897
 21
83.467548
 31
0.0
  0
LINE
  8
0
 62
     0
  5
204
 10
25.718121
 20
84.192324
 30
0.0
 11
25.842897
 21
84.067548
 31
0.0
  0
LINE
  8
0
 62
     0
  5
205
 10
26.550003
 20
84.067548
 30
0.0
 11
27.150003
 21
83.467548
 31
0.0
  0
LINE
  8
0
 62
     0
  5
206
 10
25.718121
 20
84.899431
 30
0.0
 11
26.550003
 21
84.067548
 31
0.0
  0
LINE
  8
0
 62
     0
  5
207
 10
27.25711
 20
84.067548
 30
0.0
 11
27.85711
 21
83.467548
 31
0.0
  0
LINE
  8
0
 62
     0
  5
208
 10
26.25711
 20
85.067548
 30
0.0
 11
27.25711
 21
84.067548
 31
0.0
  0
LINE
  8
0
 62
     0
  5
209
 10
27.964217
 20
84.067548
 30
0.0
 11
28.564217
 21
83.467548
 31
0.0
  0
LINE
  8
0
 62
     0
  5
20A
 10
26.964217
 20
85.067548
 30
0.0
 11
27.964217
 21
84.067548
 31
0.0
  0
LINE
  8
0
 62
     0
  5
20B
 10
28.671324
 20
84.067548
 30
0.0
 11
29.271324
 21
83.467548
 31
0.0
  0
LINE
  8
0
 62
     0
  5
20C
 10
27.671324
 20
85.067548
 30
0.0
 11
28.671324
 21
84.067548
 31
0.0
  0
LINE
  8
0
 62
     0
  5
20D
 10
29.378431
 20
84.067548
 30
0.0
 11
29.978431
 21
83.467548
 31
0.0
  0
LINE
  8
0
 62
     0
  5
20E
 10
28.378431
 20
85.067548
 30
0.0
 11
29.378431
 21
84.067548
 31
0.0
  0
LINE
  8
0
 62
     0
  5
20F
 10
30.085537
 20
84.067548
 30
0.0
 11
30.685537
 21
83.467548
 31
0.0
  0
LINE
  8
0
 62
     0
  5
210
 10
29.085537
 20
85.067548
 30
0.0
 11
30.085537
 21
84.067548
 31
0.0
  0
LINE
  8
0
 62
     0
  5
211
 10
30.792644
 20
84.067548
 30
0.0
 11
31.392644
 21
83.467548
 31
0.0
  0
LINE
  8
0
 62
     0
  5
212
 10
29.792644
 20
85.067548
 30
0.0
 11
30.792644
 21
84.067548
 31
0.0
  0
LINE
  8
0
 62
     0
  5
213
 10
31.499751
 20
84.067548
 30
0.0
 11
32.099751
 21
83.467548
 31
0.0
  0
LINE
  8
0
 62
     0
  5
214
 10
30.499751
 20
85.067548
 30
0.0
 11
31.499751
 21
84.067548
 31
0.0
  0
LINE
  8
0
 62
     0
  5
215
 10
32.206858
 20
84.067548
 30
0.0
 11
32.806858
 21
83.467548
 31
0.0
  0
LINE
  8
0
 62
     0
  5
216
 10
35.502599
 20
80.771807
 30
0.0
 11
36.218121
 21
80.056285
 31
0.0
  0
LINE
  8
0
 62
     0
  5
217
 10
31.206858
 20
85.067548
 30
0.0
 11
32.206858
 21
84.067548
 31
0.0
  0
LINE
  8
0
 62
     0
  5
218
 10
32.913964
 20
84.067548
 30
0.0
 11
33.513964
 21
83.467548
 31
0.0
  0
LINE
  8
0
 62
     0
  5
219
 10
35.212367
 20
81.769145
 30
0.0
 11
36.218121
 21
80.763392
 31
0.0
  0
LINE
  8
0
 62
     0
  5
21A
 10
31.913964
 20
85.067548
 30
0.0
 11
32.913964
 21
84.067548
 31
0.0
  0
LINE
  8
0
 62
     0
  5
21B
 10
34.218121
 20
83.470498
 30
0.0
 11
34.221071
 21
83.467548
 31
0.0
  0
LINE
  8
0
 62
     0
  5
21C
 10
33.621071
 20
84.067548
 30
0.0
 11
34.218121
 21
83.470498
 31
0.0
  0
LINE
  8
0
 62
     0
  5
21D
 10
34.922135
 20
82.766484
 30
0.0
 11
36.218121
 21
81.470498
 31
0.0
  0
LINE
  8
0
 62
     0
  5
21E
 10
32.621071
 20
85.067548
 30
0.0
 11
33.621071
 21
84.067548
 31
0.0
  0
LINE
  8
0
 62
     0
  5
21F
 10
33.328178
 20
85.067548
 30
0.0
 11
36.163093
 21
82.232634
 31
0.0
  0
LINE
  8
0
 62
     0
  5
220
 10
34.035285
 20
85.067548
 30
0.0
 11
35.809539
 21
83.293294
 31
0.0
  0
LINE
  8
0
 62
     0
  5
221
 10
34.742392
 20
85.067548
 30
0.0
 11
35.455986
 21
84.353954
 31
0.0
  0
ENDBLK
  8
0
  5
223
  0
ENDSEC
  0
SECTION
  2
ENTITIES
  0
LINE
  8
0
  5
1D
 10
216.872161
 20
96.058113
 30
0.0
 11
204.661449
 21
96.494209
 31
0.0
  0
LINE
  8
0
  6
CONTINUOUS
  5
1E
 10
203.625758
 20
93.531198
 30
0.0
 11
212.625758
 21
93.531198
 31
0.0
  0
LINE
  8
0
  5
1F
 10
217.625758
 20
79.031198
 30
0.0
 11
203.625758
 21
79.031198
 31
0.0
  0
LINE
  8
0
  6
CONTINUOUS
  5
20
 10
212.625758
 20
87.531198
 30
0.0
 11
203.625758
 21
87.531198
 31
0.0
  0
LINE
  8
0
  6
CONTINUOUS
  5
21
 10
189.125758
 20
83.031198
 30
0.0
 11
214.625758
 21
83.031198
 31
0.0
  0
LINE
  8
0
  6
CONTINUOUS
  5
22
 10
214.625758
 20
82.031198
 30
0.0
 11
188.625758
 21
82.031198
 31
0.0
  0
LINE
  8
0
  5
23
 10
208.97452
 20
83.031198
 30
0.0
 11
218.422654
 21
92.479332
 31
0.0
  0
LINE
  8
0
  6
CENTER
  5
24
 10
222.625758
 20
80.031198
 30
0.0
 11
185.625758
 21
80.031198
 31
0.0
  0
LINE
  8
0
  5
26
 10
204.661449
 20
63.568187
 30
0.0
 11
216.872161
 21
64.004284
 31
0.0
  0
LINE
  8
0
  5
27
 10
203.625758
 20
64.031198
 30
0.0
 11
217.125758
 21
64.531198
 31
0.0
  0
ARC
  8
0
  5
28
 10
81.76593
 20
113.170087
 30
0.0
 40
31.476647
 50
74.700535
 51
101.349597
  0
ARC
  8
0
  5
29
 10
74.571485
 20
81.031198
 30
0.0
 40
65.0
 50
76.419843
 51
103.580157
  0
LINE
  8
0
  5
2A
 10
59.107837
 20
130.031198
 30
0.0
 11
90.035133
 21
130.031198
 31
0.0
  0
LINE
  8
0
  5
2B
 10
74.571485
 20
87.531198
 30
0.0
 11
89.071485
 21
82.531198
 31
0.0
  0
LINE
  8
0
  5
2C
 10
89.071485
 20
77.531198
 30
0.0
 11
74.571485
 21
72.531198
 31
0.0
  0
LINE
  8
0
  5
2D
 10
74.571485
 20
86.531198
 30
0.0
 11
88.571485
 21
81.531198
 31
0.0
  0
LINE
  8
0
  5
2E
 10
88.571485
 20
78.531198
 30
0.0
 11
74.571485
 21
73.531198
 31
0.0
  0
LINE
  8
0
  5
2F
 10
89.571485
 20
80.531198
 30
0.0
 11
59.571485
 21
80.531198
 31
0.0
  0
LINE
  8
0
  5
30
 10
59.571485
 20
79.531198
 30
0.0
 11
89.571485
 21
79.531198
 31
0.0
  0
LINE
  8
0
  5
31
 10
-20.274642
 20
80.031198
 30
0.0
 11
-18.774642
 21
81.531198
 31
0.0
  0
LINE
  8
0
  5
32
 10
-21.274642
 20
80.031198
 30
0.0
 11
-19.274642
 21
82.531198
 31
0.0
  0
LINE
  8
0
  5
33
 10
-19.274642
 20
77.531198
 30
0.0
 11
-21.274642
 21
80.031198
 31
0.0
  0
LINE
  8
0
  5
34
 10
-18.774642
 20
78.531198
 30
0.0
 11
-20.274642
 21
80.031198
 31
0.0
  0
LINE
  8
0
  5
35
 10
10.225358
 20
80.531198
 30
0.0
 11
-19.774642
 21
80.531198
 31
0.0
  0
LINE
  8
0
  5
36
 10
-19.774642
 20
79.531198
 30
0.0
 11
10.225358
 21
79.531198
 31
0.0
  0
LINE
  8
0
  5
37
 10
10.725358
 20
80.031198
 30
0.0
 11
9.225358
 21
78.531198
 31
0.0
  0
LINE
  8
0
  5
38
 10
11.725358
 20
80.031198
 30
0.0
 11
9.725358
 21
77.531198
 31
0.0
  0
LINE
  8
0
  5
39
 10
9.725358
 20
77.531198
 30
0.0
 11
-4.774642
 21
72.531198
 31
0.0
  0
LINE
  8
0
  5
3A
 10
9.225358
 20
78.531198
 30
0.0
 11
-4.774642
 21
73.531198
 31
0.0
  0
LINE
  8
0
  5
3B
 10
-4.774642
 20
72.531198
 30
0.0
 11
-19.274642
 21
77.531198
 31
0.0
  0
LINE
  8
0
  5
3C
 10
-4.774642
 20
73.531198
 30
0.0
 11
-18.774642
 21
78.531198
 31
0.0
  0
LINE
  8
0
  5
3D
 10
-4.774642
 20
87.531198
 30
0.0
 11
9.725358
 21
82.531198
 31
0.0
  0
LINE
  8
0
  5
3E
 10
-4.774642
 20
86.531198
 30
0.0
 11
9.225358
 21
81.531198
 31
0.0
  0
LINE
  8
0
  5
3F
 10
-19.274642
 20
82.531198
 30
0.0
 11
-4.774642
 21
87.531198
 31
0.0
  0
LINE
  8
0
  5
40
 10
-18.774642
 20
81.531198
 30
0.0
 11
-4.774642
 21
86.531198
 31
0.0
  0
LINE
  8
0
  5
41
 10
9.725358
 20
82.531198
 30
0.0
 11
11.725358
 21
80.031198
 31
0.0
  0
LINE
  8
0
  5
42
 10
9.225358
 20
81.531198
 30
0.0
 11
10.725358
 21
80.031198
 31
0.0
  0
ARC
  8
0
  5
43
 10
-11.98998
 20
113.325399
 30
0.0
 40
31.321334
 50
78.622217
 51
105.33757
  0
LINE
  8
0
  5
44
 10
-20.238292
 20
130.031198
 30
0.0
 11
10.689008
 21
130.031198
 31
0.0
  0
ARC
  8
0
  5
45
 10
-4.774642
 20
81.031183
 30
0.0
 40
65.000015
 50
76.419844
 51
103.580156
  0
LINE
  8
0
  5
46
 10
-20.768998
 20
130.183642
 30
0.0
 11
-20.274644
 21
143.531198
 31
0.0
  0
LINE
  8
0
  5
47
 10
-20.801558
 20
143.277602
 30
0.0
 11
-21.237655
 21
131.06689
 31
0.0
  0
ARC
  8
0
  5
48
 10
-20.238292
 20
131.031198
 30
0.0
 40
1.0
 50
177.954592
 51
270.0
  0
LINE
  8
0
  5
49
 10
-20.274644
 20
143.531198
 30
0.0
 11
-20.594927
 21
143.851481
 31
0.0
  0
ARC
  8
0
  5
4A
 10
-19.802195
 20
143.241911
 30
0.0
 40
1.0
 50
103.580157
 51
177.954592
  0
ARC
  8
0
  5
4B
 10
2.440695
 20
113.325399
 30
0.0
 40
31.321334
 50
74.66243
 51
101.377783
  0
LINE
  8
0
  5
4C
 10
-5.810994
 20
144.031198
 30
0.0
 11
-5.810994
 21
130.031198
 31
0.0
  0
LINE
  8
0
  5
4D
 10
-3.73829
 20
144.031198
 30
0.0
 11
-3.73829
 21
130.031198
 31
0.0
  0
ARC
  8
0
  5
4E
 10
-4.774642
 20
143.207173
 30
0.0
 40
1.324025
 50
38.488948
 51
141.511052
  0
LINE
  8
0
  5
4F
 10
11.219714
 20
130.183642
 30
0.0
 11
10.72536
 21
143.531198
 31
0.0
  0
LINE
  8
0
  5
50
 10
11.688371
 20
131.06689
 30
0.0
 11
11.252274
 21
143.277602
 31
0.0
  0
ARC
  8
0
  5
51
 10
10.689008
 20
131.031198
 30
0.0
 40
1.0
 50
270.0
 51
2.045408
  0
ARC
  8
0
  5
52
 10
10.252911
 20
143.241911
 30
0.0
 40
1.0
 50
2.045408
 51
76.419843
  0
LINE
  8
0
  5
53
 10
10.72536
 20
143.531198
 30
0.0
 11
11.045643
 21
143.851481
 31
0.0
  0
ARC
  8
0
  5
54
 10
9.012322
 20
72.815863
 30
0.0
 40
31.321334
 50
344.66243
 51
11.377783
  0
LINE
  8
0
  5
55
 10
25.718121
 20
80.031198
 30
0.0
 11
25.718121
 21
64.56755
 31
0.0
  0
ARC
  8
0
  5
56
 10
-23.281879
 20
80.031198
 30
0.0
 40
65.0
 50
346.419843
 51
13.580157
  0
LINE
  8
0
  5
57
 10
25.718121
 20
64.031198
 30
0.0
 11
39.218121
 21
64.531198
 31
0.0
  0
LINE
  8
0
  5
58
 10
26.753813
 20
63.568187
 30
0.0
 11
38.964525
 21
64.004284
 31
0.0
  0
ARC
  8
0
  5
59
 10
26.718121
 20
64.56755
 30
0.0
 40
1.0
 50
180.0
 51
272.045408
  0
LINE
  8
0
  5
5A
 10
39.218121
 20
64.531198
 30
0.0
 11
39.538404
 21
64.210915
 31
0.0
  0
ARC
  8
0
  5
5B
 10
38.928833
 20
65.003647
 30
0.0
 40
1.0
 50
272.045408
 51
346.419843
  0
LINE
  8
0
  6
CONTINUOUS
  5
5C
 10
26.931709
 20
93.531198
 30
0.0
 11
29.786413
 21
96.385902
 31
0.0
  0
LINE
  8
0
  5
5D
 10
38.964525
 20
96.058113
 30
0.0
 11
26.753813
 21
96.494209
 31
0.0
  0
LINE
  8
0
  6
CONTINUOUS
  5
5E
 10
25.718121
 20
93.531198
 30
0.0
 11
34.718121
 21
93.531198
 31
0.0
  0
LINE
  8
0
  5
5F
 10
39.718121
 20
78.994848
 30
0.0
 11
25.718121
 21
78.994848
 31
0.0
  0
LINE
  8
0
  6
CENTER
  5
60
 10
44.920162
 20
80.031198
 30
0.0
 11
21.189876
 21
80.031198
 31
0.0
  0
LINE
  8
0
  6
CONTINUOUS
  5
61
 10
34.718121
 20
87.531198
 30
0.0
 11
25.718121
 21
87.531198
 31
0.0
  0
LINE
  8
0
  5
62
 10
35.218121
 20
85.067548
 30
0.0
 11
25.718121
 21
85.067548
 31
0.0
  0
LINE
  8
0
  6
CONTINUOUS
  5
63
 10
34.718121
 20
83.467548
 30
0.0
 11
26.318121
 21
83.467548
 31
0.0
  0
LINE
  8
0
  6
CONTINUOUS
  5
64
 10
34.218121
 20
84.067548
 30
0.0
 11
25.718121
 21
84.067548
 31
0.0
  0
INSERT
  8
0
  6
CONTINUOUS
  5
65
  2
*X0
 10
0.0
 20
0.0
 30
0.0
1001
ACAD
1000
HATCH
1002
{
1070
    19
1000
_U
1040
0.5
1040
-0.785398
1070
     0
1000
R14_HATCH_DATA
1000
65
1011
1.0
1021
0.0
1031
0.0
1011
0.0
1021
1.0
1031
0.0
1011
0.0
1021
0.0
1031
1.0
1040
0.0
1010
0.0
1020
0.0
1030
1.0
1000
_U
1070
     0
1070
     1
1071
        2
1071
        7
1070
     0
1070
     1
1071
        9
1040
25.718121
1040
85.067548
1040
25.718121
1040
84.067548
1040
34.218121
1040
84.067548
1040
34.218121
1040
83.467548
1040
34.718121
1040
83.467548
1040
35.718121
1040
80.031198
1040
36.218121
1040
80.031198
1040
36.218121
1040
82.067548
1040
35.218121
1040
85.067548
1071
        9
1005
72
1005
63
1005
73
1005
60
1005
71
1005
6F
1005
62
1005
66
1005
64
1071
       22
1070
     0
1070
     1
1071
        4
1040
34.218121
1040
83.467548
1040
34.218121
1040
84.067548
1040
25.718121
1040
84.067548
1040
26.318121
1040
83.467548
1071
        4
1005
72
1005
64
1005
67
1005
63
1070
     0
1070
     0
1040
-0.785398
1040
0.5
1070
     0
1070
     1
1040
5.497787
1040
-19.139862
1040
243.601605
1040
0.353553
1040
0.353553
1070
     0
1040
0.048836
1071
        2
1040
32.55892
1040
84.61638
1040
0.0
1040
32.461248
1040
83.736769
1040
0.0
1002
}
  0
LINE
  8
0
  5
66
 10
25.718121
 20
95.494847
 30
0.0
 11
25.718121
 21
80.031198
 31
0.0
  0
LINE
  8
0
  6
CONTINUOUS
  5
67
 10
25.718121
 20
84.067548
 30
0.0
 11
26.318121
 21
83.467548
 31
0.0
  0
LINE
  8
0
  6
CONTINUOUS
  5
68
 10
26.318121
 20
83.467548
 30
0.0
 11
26.318121
 21
80.031198
 31
0.0
  0
LINE
  8
0
  6
CONTINUOUS
  5
69
 10
26.953341
 20
85.067548
 30
0.0
 11
29.416991
 21
87.531198
 31
0.0
  0
ARC
  8
0
  5
6A
 10
26.718121
 20
95.494847
 30
0.0
 40
1.0
 50
87.954592
 51
180.0
  0
LINE
  8
0
  6
CONTINUOUS
  5
6B
 10
35.273246
 20
84.902173
 30
0.0
 11
40.869753
 21
90.498679
 31
0.0
  0
LINE
  8
0
  6
CONTINUOUS
  5
6C
 10
34.718121
 20
93.531198
 30
0.0
 11
34.718121
 21
87.531198
 31
0.0
  0
LINE
  8
0
  6
CONTINUOUS
  5
6D
 10
34.718121
 20
88.589688
 30
0.0
 11
40.186576
 21
94.058144
 31
0.0
  0
LINE
  8
0
  6
CONTINUOUS
  5
6E
 10
36.218121
 20
81.604407
 30
0.0
 11
41.369354
 21
86.75564
 31
0.0
  0
LINE
  8
0
  5
6F
 10
36.218121
 20
82.067548
 30
0.0
 11
35.218121
 21
85.067548
 31
0.0
  0
LINE
  8
0
  5
70
 10
36.218121
 20
82.067548
 30
0.0
 11
36.218121
 21
80.031198
 31
0.0
  0
LINE
  8
0
  5
71
 10
36.218121
 20
82.067548
 30
0.0
 11
36.218121
 21
80.031198
 31
0.0
  0
LINE
  8
0
  6
CONTINUOUS
  5
72
 10
34.218121
 20
84.067548
 30
0.0
 11
34.218121
 21
83.467548
 31
0.0
  0
LINE
  8
0
  6
CONTINUOUS
  5
73
 10
35.718121
 20
80.031198
 30
0.0
 11
34.718121
 21
83.467548
 31
0.0
  0
LINE
  8
0
  5
74
 10
34.718121
 20
83.467548
 30
0.0
 11
34.718121
 21
80.031198
 31
0.0
  0
LINE
  8
0
  6
CONTINUOUS
  5
75
 10
31.195981
 20
85.067548
 30
0.0
 11
33.659631
 21
87.531198
 31
0.0
  0
LINE
  8
0
  5
76
 10
34.718121
 20
88.494618
 30
0.0
 11
34.718121
 21
87.531198
 31
0.0
  0
LINE
  8
0
  6
CONTINUOUS
  5
77
 10
38.887553
 20
80.031198
 30
0.0
 11
41.65901
 21
82.802655
 31
0.0
  0
ARC
  8
0
  5
78
 10
38.898009
 20
80.029313
 30
0.0
 40
1.320114
 50
308.407021
 51
0.081847
  0
LINE
  8
0
  6
CONTINUOUS
  5
79
 10
34.718121
 20
92.832329
 30
0.0
 11
37.979099
 21
96.093306
 31
0.0
  0
LINE
  8
0
  6
CONTINUOUS
  5
7A
 10
31.17435
 20
93.531198
 30
0.0
 11
33.882756
 21
96.239604
 31
0.0
  0
LINE
  8
0
  5
7B
 10
34.718121
 20
93.531198
 30
0.0
 11
34.718121
 21
92.737259
 31
0.0
  0
ARC
  8
0
  5
7C
 10
38.928833
 20
95.05875
 30
0.0
 40
1.0
 50
13.580157
 51
87.954592
  0
LINE
  8
0
  5
7D
 10
60.071485
 20
77.531198
 30
0.0
 11
58.071485
 21
80.031198
 31
0.0
  0
LINE
  8
0
  5
7E
 10
60.571485
 20
78.531198
 30
0.0
 11
59.071485
 21
80.031198
 31
0.0
  0
LINE
  8
0
  5
7F
 10
74.571485
 20
72.531198
 30
0.0
 11
60.071485
 21
77.531198
 31
0.0
  0
LINE
  8
0
  5
80
 10
74.571485
 20
73.531198
 30
0.0
 11
60.571485
 21
78.531198
 31
0.0
  0
LINE
  8
0
  5
81
 10
60.071485
 20
82.531198
 30
0.0
 11
74.571485
 21
87.531198
 31
0.0
  0
LINE
  8
0
  5
82
 10
60.571485
 20
81.531198
 30
0.0
 11
74.571485
 21
86.531198
 31
0.0
  0
LINE
  8
0
  5
83
 10
58.071485
 20
80.031198
 30
0.0
 11
60.071485
 21
82.531198
 31
0.0
  0
LINE
  8
0
  5
84
 10
59.071485
 20
80.031198
 30
0.0
 11
60.571485
 21
81.531198
 31
0.0
  0
LINE
  8
0
  6
CONTINUOUS
  5
85
 10
77.571485
 20
120.531198
 30
0.0
 11
77.571485
 21
130.031198
 31
0.0
  0
LINE
  8
0
  6
CONTINUOUS
  5
86
 10
76.571485
 20
130.031198
 30
0.0
 11
76.571485
 21
120.031198
 31
0.0
  0
LINE
  8
0
  6
CONTINUOUS
  5
87
 10
71.571485
 20
130.031198
 30
0.0
 11
71.571485
 21
120.531198
 31
0.0
  0
LINE
  8
0
  6
CONTINUOUS
  5
88
 10
72.571485
 20
120.031198
 30
0.0
 11
72.571485
 21
130.031198
 31
0.0
  0
LINE
  8
0
  6
CONTINUOUS
  5
89
 10
72.571485
 20
120.031198
 30
0.0
 11
76.571485
 21
120.031198
 31
0.0
  0
LINE
  8
0
  6
CONTINUOUS
  5
8A
 10
77.571485
 20
120.531198
 30
0.0
 11
71.571485
 21
120.531198
 31
0.0
  0
LINE
  8
0
  6
CONTINUOUS
  5
8B
 10
71.571485
 20
120.531198
 30
0.0
 11
72.571485
 21
120.031198
 31
0.0
  0
LINE
  8
0
  6
CONTINUOUS
  5
8C
 10
76.571485
 20
120.031198
 30
0.0
 11
77.571485
 21
120.531198
 31
0.0
  0
ARC
  8
0
  5
8D
 10
67.377041
 20
113.170087
 30
0.0
 40
31.476647
 50
78.650403
 51
105.299465
  0
LINE
  8
0
  5
8E
 10
58.544571
 20
143.277602
 30
0.0
 11
58.108474
 21
131.06689
 31
0.0
  0
LINE
  8
0
  5
8F
 10
58.577131
 20
130.183642
 30
0.0
 11
59.071485
 21
143.531198
 31
0.0
  0
ARC
  8
0
  5
90
 10
59.107837
 20
131.031198
 30
0.0
 40
1.0
 50
177.954592
 51
270.0
  0
LINE
  8
0
  5
91
 10
59.071485
 20
143.531198
 30
0.0
 11
58.751202
 21
143.851481
 31
0.0
  0
ARC
  8
0
  5
92
 10
59.543934
 20
143.241911
 30
0.0
 40
1.0
 50
103.580157
 51
177.954592
  0
LINE
  8
0
  5
93
 10
75.571485
 20
144.031198
 30
0.0
 11
75.571485
 21
130.031198
 31
0.0
  0
LINE
  8
0
  5
94
 10
73.571485
 20
144.031198
 30
0.0
 11
73.571485
 21
130.031198
 31
0.0
  0
ARC
  8
0
  5
95
 10
74.571485
 20
143.281198
 30
0.0
 40
1.25
 50
36.869898
 51
143.130102
  0
ARC
  8
0
  5
96
 10
145.521095
 20
143.241911
 30
0.0
 40
1.0
 50
103.580157
 51
177.954592
  0
ARC
  8
0
  5
97
 10
145.084998
 20
131.031198
 30
0.0
 40
1.0
 50
177.954592
 51
270.0
  0
LINE
  8
0
  5
98
 10
144.521732
 20
143.277602
 30
0.0
 11
144.085635
 21
131.06689
 31
0.0
  0
LINE
  8
0
  5
99
 10
144.048646
 20
80.031198
 30
0.0
 11
146.048646
 21
82.531198
 31
0.0
  0
LINE
  8
0
  5
9A
 10
146.048646
 20
77.531198
 30
0.0
 11
144.048646
 21
80.031198
 31
0.0
  0
LINE
  8
0
  6
CONTINUOUS
  5
9B
 10
104.456343
 20
77.031198
 30
0.0
 11
113.956343
 21
77.031198
 31
0.0
  0
LINE
  8
0
  6
CONTINUOUS
  5
9C
 10
103.956343
 20
78.031198
 30
0.0
 11
113.956343
 21
78.031198
 31
0.0
  0
LINE
  8
0
  6
CENTER
  5
9D
 10
132.956343
 20
80.031198
 30
0.0
 11
100.956343
 21
80.031198
 31
0.0
  0
LINE
  8
0
  6
CONTINUOUS
  5
9E
 10
104.456343
 20
83.031198
 30
0.0
 11
124.956343
 21
83.031198
 31
0.0
  0
LINE
  8
0
  6
CONTINUOUS
  5
9F
 10
124.956343
 20
82.031198
 30
0.0
 11
103.956343
 21
82.031198
 31
0.0
  0
LINE
  8
0
  6
CONTINUOUS
  5
A0
 10
103.956343
 20
82.031198
 30
0.0
 11
103.956343
 21
78.031198
 31
0.0
  0
LINE
  8
0
  6
CONTINUOUS
  5
A1
 10
104.456343
 20
83.031198
 30
0.0
 11
104.456343
 21
77.031198
 31
0.0
  0
LINE
  8
0
  5
A2
 10
91.071485
 20
80.031198
 30
0.0
 11
89.071485
 21
77.531198
 31
0.0
  0
LINE
  8
0
  5
A3
 10
90.071485
 20
80.031198
 30
0.0
 11
88.571485
 21
78.531198
 31
0.0
  0
LINE
  8
0
  6
CONTINUOUS
  5
A4
 10
104.456343
 20
77.031198
 30
0.0
 11
103.956343
 21
78.031198
 31
0.0
  0
LINE
  8
0
  5
A5
 10
89.071485
 20
82.531198
 30
0.0
 11
91.071485
 21
80.031198
 31
0.0
  0
LINE
  8
0
  5
A6
 10
88.571485
 20
81.531198
 30
0.0
 11
90.071485
 21
80.031198
 31
0.0
  0
LINE
  8
0
  6
CONTINUOUS
  5
A7
 10
103.956343
 20
82.031198
 30
0.0
 11
104.456343
 21
83.031198
 31
0.0
  0
ARC
  8
0
  5
A8
 10
97.095232
 20
72.836754
 30
0.0
 40
31.476647
 50
344.700535
 51
11.349597
  0
ARC
  8
0
  5
A9
 10
64.956343
 20
80.031198
 30
0.0
 40
65.0
 50
346.419843
 51
13.580157
  0
LINE
  8
0
  5
AA
 10
113.956343
 20
80.031198
 30
0.0
 11
113.956343
 21
64.56755
 31
0.0
  0
ARC
  8
0
  5
AB
 10
127.167055
 20
65.003647
 30
0.0
 40
1.0
 50
272.045408
 51
346.419843
  0
LINE
  8
0
  5
AC
 10
113.956343
 20
64.031198
 30
0.0
 11
127.456343
 21
64.531198
 31
0.0
  0
LINE
  8
0
  5
AD
 10
114.992035
 20
63.568187
 30
0.0
 11
127.202747
 21
64.004284
 31
0.0
  0
ARC
  8
0
  5
AE
 10
114.956343
 20
64.56755
 30
0.0
 40
1.0
 50
180.0
 51
272.045408
  0
LINE
  8
0
  5
AF
 10
127.456343
 20
64.531198
 30
0.0
 11
127.776626
 21
64.210915
 31
0.0
  0
ARC
  8
0
  5
B0
 10
127.167055
 20
95.05875
 30
0.0
 40
1.0
 50
13.580157
 51
87.954592
  0
LINE
  8
0
  5
B1
 10
125.364347
 20
80.031198
 30
0.0
 11
129.804512
 21
84.471363
 31
0.0
  0
LINE
  8
0
  5
B2
 10
124.121706
 20
83.031198
 30
0.0
 11
129.423953
 21
88.333445
 31
0.0
  0
ARC
  8
0
  5
B3
 10
127.206343
 20
80.031198
 30
0.0
 40
1.25
 50
306.869898
 51
0.0
  0
LINE
  8
0
  5
B4
 10
122.956343
 20
90.351117
 30
0.0
 11
128.077533
 21
95.472307
 31
0.0
  0
LINE
  8
0
  5
B5
 10
119.879065
 20
83.031198
 30
0.0
 11
128.845369
 21
91.997502
 31
0.0
  0
LINE
  8
0
  5
B6
 10
113.956343
 20
95.494847
 30
0.0
 11
113.956343
 21
83.031198
 31
0.0
  0
LINE
  8
0
  6
CONTINUOUS
  5
B7
 10
122.956343
 20
93.531198
 30
0.0
 11
122.956343
 21
87.531198
 31
0.0
  0
LINE
  8
0
  5
B8
 10
115.636425
 20
83.031198
 30
0.0
 11
120.136425
 21
87.531198
 31
0.0
  0
LINE
  8
0
  5
B9
 10
127.956343
 20
79.031198
 30
0.0
 11
113.956343
 21
79.031198
 31
0.0
  0
LINE
  8
0
  6
CONTINUOUS
  5
BA
 10
122.956343
 20
87.531198
 30
0.0
 11
113.956343
 21
87.531198
 31
0.0
  0
LINE
  8
0
  5
BB
 10
113.956343
 20
85.593757
 30
0.0
 11
115.893784
 21
87.531198
 31
0.0
  0
LINE
  8
0
  6
CONTINUOUS
  5
BC
 10
124.956343
 20
83.031198
 30
0.0
 11
124.956343
 21
80.031198
 31
0.0
  0
LINE
  8
0
  5
BD
 10
117.651143
 20
93.531198
 30
0.0
 11
120.420288
 21
96.300343
 31
0.0
  0
LINE
  8
0
  5
BE
 10
127.202747
 20
96.058113
 30
0.0
 11
114.992035
 21
96.494209
 31
0.0
  0
LINE
  8
0
  6
CONTINUOUS
  5
BF
 10
113.956343
 20
93.531198
 30
0.0
 11
122.956343
 21
93.531198
 31
0.0
  0
LINE
  8
0
  5
C0
 10
113.956343
 20
94.079039
 30
0.0
 11
116.323946
 21
96.446641
 31
0.0
  0
ARC
  8
0
  5
C1
 10
114.956343
 20
95.494847
 30
0.0
 40
1.0
 50
87.954592
 51
180.0
  0
LINE
  8
0
  5
C2
 10
121.893784
 20
93.531198
 30
0.0
 11
124.516631
 21
96.154045
 31
0.0
  0
LINE
  8
0
  5
C3
 10
129.606988
 20
80.031198
 30
0.0
 11
129.955409
 21
80.37962
 31
0.0
  0
LINE
  8
0
  5
C4
 10
91.034496
 20
131.06689
 30
0.0
 11
90.598399
 21
143.277602
 31
0.0
  0
LINE
  8
0
  5
C5
 10
90.565839
 20
130.183642
 30
0.0
 11
90.071485
 21
143.531198
 31
0.0
  0
ARC
  8
0
  5
C6
 10
90.035133
 20
131.031198
 30
0.0
 40
1.0
 50
270.0
 51
2.045408
  0
LINE
  8
0
  5
C7
 10
90.071485
 20
143.531198
 30
0.0
 11
90.391768
 21
143.851481
 31
0.0
  0
ARC
  8
0
  5
C8
 10
89.599037
 20
143.241911
 30
0.0
 40
1.0
 50
2.045408
 51
76.419843
  0
LINE
  8
0
  5
C9
 10
177.048646
 20
80.031198
 30
0.0
 11
175.048646
 21
77.531198
 31
0.0
  0
LINE
  8
0
  5
CA
 10
176.048646
 20
80.031198
 30
0.0
 11
174.548646
 21
78.531198
 31
0.0
  0
LINE
  8
0
  5
CB
 10
146.548646
 20
78.531198
 30
0.0
 11
145.048646
 21
80.031198
 31
0.0
  0
LINE
  8
0
  5
CC
 10
174.548646
 20
78.531198
 30
0.0
 11
160.548646
 21
73.531198
 31
0.0
  0
LINE
  8
0
  5
CD
 10
175.048646
 20
77.531198
 30
0.0
 11
160.548646
 21
72.531198
 31
0.0
  0
LINE
  8
0
  5
CE
 10
160.548646
 20
72.531198
 30
0.0
 11
146.048646
 21
77.531198
 31
0.0
  0
LINE
  8
0
  5
CF
 10
160.548646
 20
73.531198
 30
0.0
 11
146.548646
 21
78.531198
 31
0.0
  0
LINE
  8
0
  5
D0
 10
175.548646
 20
80.531198
 30
0.0
 11
145.548646
 21
80.531198
 31
0.0
  0
LINE
  8
0
  5
D1
 10
145.548646
 20
79.531198
 30
0.0
 11
175.548646
 21
79.531198
 31
0.0
  0
LINE
  8
0
  5
D2
 10
160.548646
 20
86.531198
 30
0.0
 11
174.548646
 21
81.531198
 31
0.0
  0
LINE
  8
0
  5
D3
 10
160.548646
 20
87.531198
 30
0.0
 11
175.048646
 21
82.531198
 31
0.0
  0
LINE
  8
0
  5
D4
 10
146.048646
 20
82.531198
 30
0.0
 11
160.548646
 21
87.531198
 31
0.0
  0
LINE
  8
0
  5
D5
 10
146.548646
 20
81.531198
 30
0.0
 11
160.548646
 21
86.531198
 31
0.0
  0
LINE
  8
0
  5
D6
 10
145.048646
 20
80.031198
 30
0.0
 11
146.548646
 21
81.531198
 31
0.0
  0
LINE
  8
0
  5
D7
 10
174.548646
 20
81.531198
 30
0.0
 11
176.048646
 21
80.031198
 31
0.0
  0
LINE
  8
0
  5
D8
 10
175.048646
 20
82.531198
 30
0.0
 11
177.048646
 21
80.031198
 31
0.0
  0
LINE
  8
0
  6
CONTINUOUS
  5
D9
 10
188.625758
 20
78.031198
 30
0.0
 11
188.625758
 21
82.031198
 31
0.0
  0
LINE
  8
0
  6
CONTINUOUS
  5
DA
 10
189.125758
 20
83.031198
 30
0.0
 11
189.125758
 21
77.031198
 31
0.0
  0
LINE
  8
0
  5
DB
 10
203.625758
 20
80.031198
 30
0.0
 11
203.625758
 21
64.56755
 31
0.0
  0
LINE
  8
0
  6
CONTINUOUS
  5
DC
 10
203.625758
 20
77.031198
 30
0.0
 11
189.125758
 21
77.031198
 31
0.0
  0
LINE
  8
0
  6
CONTINUOUS
  5
DD
 10
188.625758
 20
78.031198
 30
0.0
 11
203.625758
 21
78.031198
 31
0.0
  0
LINE
  8
0
  6
CONTINUOUS
  5
DE
 10
189.125758
 20
77.031198
 30
0.0
 11
188.625758
 21
78.031198
 31
0.0
  0
ARC
  8
0
  5
DF
 10
204.625758
 20
64.56755
 30
0.0
 40
1.0
 50
180.0
 51
272.045408
  0
LINE
  8
0
  6
CONTINUOUS
  5
E0
 10
188.625758
 20
82.031198
 30
0.0
 11
189.125758
 21
83.031198
 31
0.0
  0
LINE
  8
0
  5
E1
 10
203.625758
 20
95.494847
 30
0.0
 11
203.625758
 21
83.031198
 31
0.0
  0
LINE
  8
0
  5
E2
 10
204.731879
 20
83.031198
 30
0.0
 11
209.231879
 21
87.531198
 31
0.0
  0
LINE
  8
0
  5
E3
 10
203.625758
 20
86.167717
 30
0.0
 11
204.989239
 21
87.531198
 31
0.0
  0
LINE
  8
0
  5
E4
 10
206.746598
 20
93.531198
 30
0.0
 11
209.535534
 21
96.320135
 31
0.0
  0
LINE
  8
0
  5
E5
 10
203.625758
 20
94.652999
 30
0.0
 11
205.439192
 21
96.466433
 31
0.0
  0
ARC
  8
0
  5
E6
 10
204.625758
 20
95.494847
 30
0.0
 40
1.0
 50
87.954592
 51
180.0
  0
ARC
  8
0
  5
E7
 10
176.012295
 20
131.031198
 30
0.0
 40
1.0
 50
270.0
 51
2.045408
  0
LINE
  8
0
  6
CONTINUOUS
  5
E8
 10
157.548646
 20
130.031198
 30
0.0
 11
157.548646
 21
115.531198
 31
0.0
  0
LINE
  8
0
  6
CONTINUOUS
  5
E9
 10
163.548646
 20
115.531198
 30
0.0
 11
163.548646
 21
130.031198
 31
0.0
  0
LINE
  8
0
  6
CONTINUOUS
  5
EA
 10
162.548646
 20
130.031198
 30
0.0
 11
162.548646
 21
115.031198
 31
0.0
  0
LINE
  8
0
  6
CONTINUOUS
  5
EB
 10
158.548646
 20
115.031198
 30
0.0
 11
158.548646
 21
130.031198
 31
0.0
  0
LINE
  8
0
  6
CONTINUOUS
  5
EC
 10
158.548646
 20
115.031198
 30
0.0
 11
162.548646
 21
115.031198
 31
0.0
  0
LINE
  8
0
  6
CONTINUOUS
  5
ED
 10
163.548646
 20
115.531198
 30
0.0
 11
157.548646
 21
115.531198
 31
0.0
  0
LINE
  8
0
  6
CONTINUOUS
  5
EE
 10
157.548646
 20
115.531198
 30
0.0
 11
158.548646
 21
115.031198
 31
0.0
  0
LINE
  8
0
  6
CONTINUOUS
  5
EF
 10
162.548646
 20
115.031198
 30
0.0
 11
163.548646
 21
115.531198
 31
0.0
  0
ARC
  8
0
  5
F0
 10
160.548646
 20
143.281198
 30
0.0
 40
1.25
 50
36.869898
 51
143.130102
  0
ARC
  8
0
  5
F1
 10
160.548646
 20
81.031198
 30
0.0
 40
65.0
 50
76.419843
 51
103.580157
  0
LINE
  8
0
  5
F2
 10
145.084998
 20
130.031198
 30
0.0
 11
176.012295
 21
130.031198
 31
0.0
  0
LINE
  8
0
  5
F3
 10
144.554293
 20
130.183642
 30
0.0
 11
145.048646
 21
143.531198
 31
0.0
  0
LINE
  8
0
  5
F4
 10
159.548646
 20
144.031198
 30
0.0
 11
159.548646
 21
130.031198
 31
0.0
  0
ARC
  8
0
  5
F5
 10
153.354202
 20
113.170087
 30
0.0
 40
31.476647
 50
78.650403
 51
105.299465
  0
LINE
  8
0
  5
F6
 10
145.048646
 20
143.531198
 30
0.0
 11
144.728364
 21
143.851481
 31
0.0
  0
LINE
  8
0
  5
F7
 10
177.011657
 20
131.06689
 30
0.0
 11
176.575561
 21
143.277602
 31
0.0
  0
LINE
  8
0
  5
F8
 10
176.543
 20
130.183642
 30
0.0
 11
176.048646
 21
143.531198
 31
0.0
  0
LINE
  8
0
  5
F9
 10
161.548646
 20
144.031198
 30
0.0
 11
161.548646
 21
130.031198
 31
0.0
  0
ARC
  8
0
  5
FA
 10
167.743091
 20
113.170087
 30
0.0
 40
31.476647
 50
74.700535
 51
101.349597
  0
LINE
  8
0
  5
FB
 10
176.048646
 20
143.531198
 30
0.0
 11
176.368929
 21
143.851481
 31
0.0
  0
ARC
  8
0
  5
FC
 10
175.576198
 20
143.241911
 30
0.0
 40
1.0
 50
2.045408
 51
76.419843
  0
LINE
  8
0
  6
CENTER
  5
FD
 10
493.573517
 20
80.031198
 30
0.0
 11
451.573517
 21
80.031198
 31
0.0
  0
LINE
  8
0
  6
CONTINUOUS
  5
FE
 10
474.573517
 20
76.031198
 30
0.0
 11
455.073517
 21
76.031198
 31
0.0
  0
LINE
  8
0
  6
CONTINUOUS
  5
FF
 10
455.073517
 20
84.031198
 30
0.0
 11
485.573517
 21
84.031198
 31
0.0
  0
LINE
  8
0
  6
CONTINUOUS
  5
100
 10
485.573517
 20
83.031198
 30
0.0
 11
454.573517
 21
83.031198
 31
0.0
  0
LINE
  8
0
  6
CONTINUOUS
  5
101
 10
454.573517
 20
77.031198
 30
0.0
 11
474.573517
 21
77.031198
 31
0.0
  0
ARC
  8
0
  5
102
 10
344.99029
 20
113.170087
 30
0.0
 40
31.476647
 50
74.700535
 51
101.349597
  0
LINE
  8
0
  5
103
 10
322.332198
 20
130.031198
 30
0.0
 11
353.259494
 21
130.031198
 31
0.0
  0
ARC
  8
0
  5
104
 10
337.795846
 20
81.031198
 30
0.0
 40
65.0
 50
76.419843
 51
103.580157
  0
LINE
  8
0
  6
CONTINUOUS
  5
105
 10
340.795846
 20
113.031198
 30
0.0
 11
341.795846
 21
113.531198
 31
0.0
  0
LINE
  8
0
  6
CONTINUOUS
  5
106
 10
341.795846
 20
113.531198
 30
0.0
 11
333.795846
 21
113.531198
 31
0.0
  0
LINE
  8
0
  5
107
 10
337.795846
 20
86.531198
 30
0.0
 11
351.795846
 21
81.531198
 31
0.0
  0
LINE
  8
0
  5
108
 10
337.795846
 20
87.531198
 30
0.0
 11
352.295846
 21
82.531198
 31
0.0
  0
LINE
  8
0
  5
109
 10
351.795846
 20
78.531198
 30
0.0
 11
337.795846
 21
73.531198
 31
0.0
  0
LINE
  8
0
  5
10A
 10
352.295846
 20
77.531198
 30
0.0
 11
337.795846
 21
72.531198
 31
0.0
  0
LINE
  8
0
  5
10B
 10
352.795846
 20
80.531198
 30
0.0
 11
322.795846
 21
80.531198
 31
0.0
  0
LINE
  8
0
  5
10C
 10
322.795846
 20
79.531198
 30
0.0
 11
352.795846
 21
79.531198
 31
0.0
  0
LINE
  8
0
  6
CENTER
  5
10D
 10
311.43429
 20
80.031198
 30
0.0
 11
274.43429
 21
80.031198
 31
0.0
  0
LINE
  8
0
  5
10E
 10
234.241802
 20
82.531198
 30
0.0
 11
248.741802
 21
87.531198
 31
0.0
  0
LINE
  8
0
  5
10F
 10
234.741802
 20
81.531198
 30
0.0
 11
248.741802
 21
86.531198
 31
0.0
  0
LINE
  8
0
  5
110
 10
248.741802
 20
72.531198
 30
0.0
 11
234.241802
 21
77.531198
 31
0.0
  0
LINE
  8
0
  5
111
 10
248.741802
 20
73.531198
 30
0.0
 11
234.741802
 21
78.531198
 31
0.0
  0
LINE
  8
0
  5
112
 10
263.741802
 20
80.531198
 30
0.0
 11
233.741802
 21
80.531198
 31
0.0
  0
LINE
  8
0
  5
113
 10
233.741802
 20
79.531198
 30
0.0
 11
263.741802
 21
79.531198
 31
0.0
  0
ARC
  8
0
  5
114
 10
154.625758
 20
80.031198
 30
0.0
 40
65.0
 50
346.419843
 51
13.580157
  0
ARC
  8
0
  5
115
 10
186.764646
 20
72.836754
 30
0.0
 40
31.476647
 50
344.700535
 51
11.349597
  0
LINE
  8
0
  5
116
 10
234.241802
 20
77.531198
 30
0.0
 11
232.241802
 21
80.031198
 31
0.0
  0
LINE
  8
0
  5
117
 10
234.741802
 20
78.531198
 30
0.0
 11
233.241802
 21
80.031198
 31
0.0
  0
LINE
  8
0
  5
118
 10
217.125758
 20
64.531198
 30
0.0
 11
217.446041
 21
64.210915
 31
0.0
  0
ARC
  8
0
  5
119
 10
216.83647
 20
65.003647
 30
0.0
 40
1.0
 50
272.045408
 51
346.419843
  0
LINE
  8
0
  6
CONTINUOUS
  5
11A
 10
212.625758
 20
93.531198
 30
0.0
 11
212.625758
 21
87.531198
 31
0.0
  0
LINE
  8
0
  5
11B
 10
214.625758
 20
80.197155
 30
0.0
 11
219.435068
 21
85.006465
 31
0.0
  0
LINE
  8
0
  5
11C
 10
213.217161
 20
83.031198
 30
0.0
 11
219.02609
 21
88.840127
 31
0.0
  0
ARC
  8
0
  5
11D
 10
216.875758
 20
80.031198
 30
0.0
 40
1.25
 50
306.869898
 51
0.0
  0
LINE
  8
0
  6
CONTINUOUS
  5
11E
 10
214.625758
 20
80.031198
 30
0.0
 11
214.625758
 21
83.031198
 31
0.0
  0
LINE
  8
0
  5
11F
 10
218.702442
 20
80.031198
 30
0.0
 11
219.619291
 21
80.948047
 31
0.0
  0
LINE
  8
0
  5
120
 10
212.625758
 20
90.925077
 30
0.0
 11
217.504007
 21
95.803326
 31
0.0
  0
LINE
  8
0
  5
121
 10
210.989239
 20
93.531198
 30
0.0
 11
213.631877
 21
96.173837
 31
0.0
  0
ARC
  8
0
  5
122
 10
216.83647
 20
95.05875
 30
0.0
 40
1.0
 50
13.580157
 51
87.954592
  0
LINE
  8
0
  5
123
 10
233.241802
 20
80.031198
 30
0.0
 11
234.741802
 21
81.531198
 31
0.0
  0
LINE
  8
0
  5
124
 10
232.241802
 20
80.031198
 30
0.0
 11
234.241802
 21
82.531198
 31
0.0
  0
LINE
  8
0
  5
125
 10
265.241802
 20
80.031198
 30
0.0
 11
263.241802
 21
77.531198
 31
0.0
  0
LINE
  8
0
  5
126
 10
264.241802
 20
80.031198
 30
0.0
 11
262.741802
 21
78.531198
 31
0.0
  0
LINE
  8
0
  5
127
 10
262.741802
 20
78.531198
 30
0.0
 11
248.741802
 21
73.531198
 31
0.0
  0
LINE
  8
0
  5
128
 10
263.241802
 20
77.531198
 30
0.0
 11
248.741802
 21
72.531198
 31
0.0
  0
LINE
  8
0
  5
129
 10
248.741802
 20
86.531198
 30
0.0
 11
262.741802
 21
81.531198
 31
0.0
  0
LINE
  8
0
  5
12A
 10
248.741802
 20
87.531198
 30
0.0
 11
263.241802
 21
82.531198
 31
0.0
  0
LINE
  8
0
  5
12B
 10
263.241802
 20
82.531198
 30
0.0
 11
265.241802
 21
80.031198
 31
0.0
  0
LINE
  8
0
  5
12C
 10
262.741802
 20
81.531198
 30
0.0
 11
264.241802
 21
80.031198
 31
0.0
  0
ARC
  8
0
  5
12D
 10
248.741802
 20
81.031198
 30
0.0
 40
65.0
 50
76.419843
 51
103.580157
  0
LINE
  8
0
  5
12E
 10
233.278154
 20
130.031198
 30
0.0
 11
264.20545
 21
130.031198
 31
0.0
  0
ARC
  8
0
  5
12F
 10
241.547358
 20
113.170087
 30
0.0
 40
31.476647
 50
78.650403
 51
105.299465
  0
LINE
  8
0
  5
130
 10
232.747448
 20
130.183642
 30
0.0
 11
233.241802
 21
143.531198
 31
0.0
  0
LINE
  8
0
  5
131
 10
232.714888
 20
143.277602
 30
0.0
 11
232.278791
 21
131.06689
 31
0.0
  0
ARC
  8
0
  5
132
 10
233.278154
 20
131.031198
 30
0.0
 40
1.0
 50
177.954592
 51
270.0
  0
LINE
  8
0
  5
133
 10
233.241802
 20
143.531198
 30
0.0
 11
232.921519
 21
143.851481
 31
0.0
  0
ARC
  8
0
  5
134
 10
233.714251
 20
143.241911
 30
0.0
 40
1.0
 50
103.580157
 51
177.954592
  0
LINE
  8
0
  6
CONTINUOUS
  5
135
 10
244.741802
 20
130.031198
 30
0.0
 11
244.741802
 21
115.531198
 31
0.0
  0
LINE
  8
0
  6
CONTINUOUS
  5
136
 10
252.741802
 20
115.531198
 30
0.0
 11
252.741802
 21
130.031198
 31
0.0
  0
LINE
  8
0
  6
CONTINUOUS
  5
137
 10
245.741802
 20
130.031198
 30
0.0
 11
245.741802
 21
115.031198
 31
0.0
  0
LINE
  8
0
  6
CONTINUOUS
  5
138
 10
251.741802
 20
115.031198
 30
0.0
 11
251.741802
 21
130.031198
 31
0.0
  0
LINE
  8
0
  6
CONTINUOUS
  5
139
 10
245.741802
 20
115.031198
 30
0.0
 11
251.741802
 21
115.031198
 31
0.0
  0
LINE
  8
0
  6
CONTINUOUS
  5
13A
 10
244.741802
 20
115.531198
 30
0.0
 11
252.741802
 21
115.531198
 31
0.0
  0
LINE
  8
0
  6
CONTINUOUS
  5
13B
 10
245.741802
 20
115.031198
 30
0.0
 11
244.741802
 21
115.531198
 31
0.0
  0
LINE
  8
0
  6
CONTINUOUS
  5
13C
 10
252.741802
 20
115.531198
 30
0.0
 11
251.741802
 21
115.031198
 31
0.0
  0
ARC
  8
0
  5
13D
 10
255.936247
 20
113.170087
 30
0.0
 40
31.476647
 50
74.700535
 51
101.349597
  0
LINE
  8
0
  5
13E
 10
247.741802
 20
144.031198
 30
0.0
 11
247.741802
 21
130.031198
 31
0.0
  0
LINE
  8
0
  5
13F
 10
249.741802
 20
144.031198
 30
0.0
 11
249.741802
 21
130.031198
 31
0.0
  0
ARC
  8
0
  5
140
 10
248.741802
 20
143.281198
 30
0.0
 40
1.25
 50
36.869898
 51
143.130102
  0
LINE
  8
0
  5
141
 10
265.204813
 20
131.06689
 30
0.0
 11
264.768716
 21
143.277602
 31
0.0
  0
LINE
  8
0
  5
142
 10
264.736156
 20
130.183642
 30
0.0
 11
264.241802
 21
143.531198
 31
0.0
  0
ARC
  8
0
  5
143
 10
264.20545
 20
131.031198
 30
0.0
 40
1.0
 50
270.0
 51
2.045408
  0
LINE
  8
0
  5
144
 10
264.241802
 20
143.531198
 30
0.0
 11
264.562085
 21
143.851481
 31
0.0
  0
ARC
  8
0
  5
145
 10
263.769354
 20
143.241911
 30
0.0
 40
1.0
 50
2.045408
 51
76.419843
  0
LINE
  8
0
  6
CONTINUOUS
  5
146
 10
277.43429
 20
77.031198
 30
0.0
 11
277.43429
 21
83.031198
 31
0.0
  0
LINE
  8
0
  6
CONTINUOUS
  5
147
 10
277.93429
 20
84.031198
 30
0.0
 11
277.93429
 21
76.031198
 31
0.0
  0
ARC
  8
0
  5
148
 10
243.43429
 20
80.031198
 30
0.0
 40
65.0
 50
346.419843
 51
13.580157
  0
ARC
  8
0
  5
149
 10
275.573179
 20
72.836754
 30
0.0
 40
31.476647
 50
344.700535
 51
11.349597
  0
LINE
  8
0
  5
14A
 10
292.43429
 20
80.031198
 30
0.0
 11
292.43429
 21
64.56755
 31
0.0
  0
LINE
  8
0
  6
CONTINUOUS
  5
14B
 10
292.43429
 20
76.031198
 30
0.0
 11
277.93429
 21
76.031198
 31
0.0
  0
LINE
  8
0
  6
CONTINUOUS
  5
14C
 10
277.43429
 20
77.031198
 30
0.0
 11
292.43429
 21
77.031198
 31
0.0
  0
LINE
  8
0
  6
CONTINUOUS
  5
14D
 10
277.93429
 20
76.031198
 30
0.0
 11
277.43429
 21
77.031198
 31
0.0
  0
LINE
  8
0
  5
14E
 10
293.469981
 20
63.568187
 30
0.0
 11
305.680694
 21
64.004284
 31
0.0
  0
LINE
  8
0
  5
14F
 10
292.43429
 20
64.031198
 30
0.0
 11
305.93429
 21
64.531198
 31
0.0
  0
ARC
  8
0
  5
150
 10
293.43429
 20
64.56755
 30
0.0
 40
1.0
 50
180.0
 51
272.045408
  0
LINE
  8
0
  5
151
 10
305.93429
 20
64.531198
 30
0.0
 11
306.254573
 21
64.210915
 31
0.0
  0
ARC
  8
0
  5
152
 10
305.645002
 20
65.003647
 30
0.0
 40
1.0
 50
272.045408
 51
346.419843
  0
LINE
  8
0
  6
CONTINUOUS
  5
153
 10
277.93429
 20
84.031198
 30
0.0
 11
303.43429
 21
84.031198
 31
0.0
  0
LINE
  8
0
  6
CONTINUOUS
  5
154
 10
303.43429
 20
83.031198
 30
0.0
 11
277.43429
 21
83.031198
 31
0.0
  0
LINE
  8
0
  6
CONTINUOUS
  5
155
 10
277.43429
 20
83.031198
 30
0.0
 11
277.93429
 21
84.031198
 31
0.0
  0
LINE
  8
0
  5
156
 10
292.43429
 20
95.494847
 30
0.0
 11
292.43429
 21
84.031198
 31
0.0
  0
LINE
  8
0
  6
CONTINUOUS
  5
157
 10
301.43429
 20
93.531198
 30
0.0
 11
301.43429
 21
87.531198
 31
0.0
  0
LINE
  8
0
  5
158
 10
299.069974
 20
84.031198
 30
0.0
 11
307.277637
 21
92.238861
 31
0.0
  0
LINE
  8
0
  5
159
 10
306.43429
 20
79.031198
 30
0.0
 11
292.43429
 21
79.031198
 31
0.0
  0
LINE
  8
0
  6
CONTINUOUS
  5
15A
 10
301.43429
 20
87.531198
 30
0.0
 11
292.43429
 21
87.531198
 31
0.0
  0
LINE
  8
0
  5
15B
 10
294.827334
 20
84.031198
 30
0.0
 11
298.327334
 21
87.531198
 31
0.0
  0
LINE
  8
0
  6
CONTINUOUS
 62
     0
  5
15C
 10
292.132341
 20
84.031198
 30
0.0
 11
292.43429
 21
84.333147
 31
0.0
  0
LINE
  8
0
  5
15D
 10
292.43429
 20
85.880795
 30
0.0
 11
294.084693
 21
87.531198
 31
0.0
  0
LINE
  8
0
  5
15E
 10
303.555256
 20
80.031198
 30
0.0
 11
308.263543
 21
84.739485
 31
0.0
  0
LINE
  8
0
  5
15F
 10
303.312615
 20
84.031198
 30
0.0
 11
307.868701
 21
88.587285
 31
0.0
  0
LINE
  8
0
  6
CONTINUOUS
  5
160
 10
303.43429
 20
80.031198
 30
0.0
 11
303.43429
 21
84.031198
 31
0.0
  0
LINE
  8
0
  5
161
 10
307.797896
 20
80.031198
 30
0.0
 11
308.431205
 21
80.664507
 31
0.0
  0
ARC
  8
0
  5
162
 10
305.68429
 20
80.031198
 30
0.0
 40
1.25
 50
306.869898
 51
0.0
  0
LINE
  8
0
  5
163
 10
305.680694
 20
96.058113
 30
0.0
 11
293.469981
 21
96.494209
 31
0.0
  0
LINE
  8
0
  6
CONTINUOUS
  5
164
 10
292.43429
 20
93.531198
 30
0.0
 11
301.43429
 21
93.531198
 31
0.0
  0
LINE
  8
0
  5
165
 10
300.084693
 20
93.531198
 30
0.0
 11
302.717438
 21
96.163943
 31
0.0
  0
LINE
  8
0
  5
166
 10
295.842052
 20
93.531198
 30
0.0
 11
298.621095
 21
96.310241
 31
0.0
  0
LINE
  8
0
  5
167
 10
292.43429
 20
94.366077
 30
0.0
 11
294.524752
 21
96.456539
 31
0.0
  0
ARC
  8
0
  5
168
 10
293.43429
 20
95.494847
 30
0.0
 40
1.0
 50
87.954592
 51
180.0
  0
LINE
  8
0
  5
169
 10
301.43429
 20
90.638155
 30
0.0
 11
306.44922
 21
95.653084
 31
0.0
  0
ARC
  8
0
  5
16A
 10
305.645002
 20
95.05875
 30
0.0
 40
1.0
 50
13.580157
 51
87.954592
  0
LINE
  8
0
  5
16B
 10
323.295846
 20
77.531198
 30
0.0
 11
321.295846
 21
80.031198
 31
0.0
  0
LINE
  8
0
  5
16C
 10
323.795846
 20
78.531198
 30
0.0
 11
322.295846
 21
80.031198
 31
0.0
  0
LINE
  8
0
  5
16D
 10
337.795846
 20
72.531198
 30
0.0
 11
323.295846
 21
77.531198
 31
0.0
  0
LINE
  8
0
  5
16E
 10
337.795846
 20
73.531198
 30
0.0
 11
323.795846
 21
78.531198
 31
0.0
  0
LINE
  8
0
  5
16F
 10
323.295846
 20
82.531198
 30
0.0
 11
337.795846
 21
87.531198
 31
0.0
  0
LINE
  8
0
  5
170
 10
323.795846
 20
81.531198
 30
0.0
 11
337.795846
 21
86.531198
 31
0.0
  0
LINE
  8
0
  5
171
 10
322.295846
 20
80.031198
 30
0.0
 11
323.795846
 21
81.531198
 31
0.0
  0
LINE
  8
0
  5
172
 10
321.295846
 20
80.031198
 30
0.0
 11
323.295846
 21
82.531198
 31
0.0
  0
LINE
  8
0
  6
CONTINUOUS
  5
173
 10
333.795846
 20
130.031198
 30
0.0
 11
333.795846
 21
113.531198
 31
0.0
  0
LINE
  8
0
  6
CONTINUOUS
  5
174
 10
340.795846
 20
130.031198
 30
0.0
 11
340.795846
 21
113.031198
 31
0.0
  0
LINE
  8
0
  6
CONTINUOUS
  5
175
 10
334.795846
 20
113.031198
 30
0.0
 11
334.795846
 21
130.031198
 31
0.0
  0
LINE
  8
0
  6
CONTINUOUS
  5
176
 10
334.795846
 20
113.031198
 30
0.0
 11
340.795846
 21
113.031198
 31
0.0
  0
LINE
  8
0
  6
CONTINUOUS
  5
177
 10
333.795846
 20
113.531198
 30
0.0
 11
334.795846
 21
113.031198
 31
0.0
  0
ARC
  8
0
  5
178
 10
330.601402
 20
113.170087
 30
0.0
 40
31.476647
 50
78.650403
 51
105.299465
  0
LINE
  8
0
  5
179
 10
321.801492
 20
130.183642
 30
0.0
 11
322.295846
 21
143.531198
 31
0.0
  0
LINE
  8
0
  5
17A
 10
321.768932
 20
143.277602
 30
0.0
 11
321.332835
 21
131.06689
 31
0.0
  0
ARC
  8
0
  5
17B
 10
322.332198
 20
131.031198
 30
0.0
 40
1.0
 50
177.954592
 51
270.0
  0
LINE
  8
0
  5
17C
 10
322.295846
 20
143.531198
 30
0.0
 11
321.975563
 21
143.851481
 31
0.0
  0
ARC
  8
0
  5
17D
 10
322.768295
 20
143.241911
 30
0.0
 40
1.0
 50
103.580157
 51
177.954592
  0
LINE
  8
0
  5
17E
 10
336.795846
 20
144.031198
 30
0.0
 11
336.795846
 21
130.031198
 31
0.0
  0
LINE
  8
0
  5
17F
 10
338.795846
 20
144.031198
 30
0.0
 11
338.795846
 21
130.031198
 31
0.0
  0
ARC
  8
0
  5
180
 10
337.795846
 20
143.281198
 30
0.0
 40
1.25
 50
36.869898
 51
143.130102
  0
LINE
  8
0
  6
CENTER
  5
181
 10
401.103708
 20
80.031198
 30
0.0
 11
362.103708
 21
80.031198
 31
0.0
  0
LINE
  8
0
  6
CONTINUOUS
  5
182
 10
382.103708
 20
76.031198
 30
0.0
 11
365.603708
 21
76.031198
 31
0.0
  0
LINE
  8
0
  6
CONTINUOUS
  5
183
 10
365.603708
 20
84.031198
 30
0.0
 11
393.103708
 21
84.031198
 31
0.0
  0
LINE
  8
0
  6
CONTINUOUS
  5
184
 10
393.103708
 20
83.031198
 30
0.0
 11
365.103708
 21
83.031198
 31
0.0
  0
LINE
  8
0
  6
CONTINUOUS
  5
185
 10
365.103708
 20
77.031198
 30
0.0
 11
382.103708
 21
77.031198
 31
0.0
  0
LINE
  8
0
  5
186
 10
354.295846
 20
80.031198
 30
0.0
 11
352.295846
 21
77.531198
 31
0.0
  0
LINE
  8
0
  5
187
 10
353.295846
 20
80.031198
 30
0.0
 11
351.795846
 21
78.531198
 31
0.0
  0
LINE
  8
0
  6
CONTINUOUS
  5
188
 10
365.103708
 20
77.031198
 30
0.0
 11
365.103708
 21
83.031198
 31
0.0
  0
LINE
  8
0
  6
CONTINUOUS
  5
189
 10
365.603708
 20
84.031198
 30
0.0
 11
365.603708
 21
76.031198
 31
0.0
  0
LINE
  8
0
  6
CONTINUOUS
  5
18A
 10
365.603708
 20
76.031198
 30
0.0
 11
365.103708
 21
77.031198
 31
0.0
  0
LINE
  8
0
  5
18B
 10
352.295846
 20
82.531198
 30
0.0
 11
354.295846
 21
80.031198
 31
0.0
  0
LINE
  8
0
  5
18C
 10
351.795846
 20
81.531198
 30
0.0
 11
353.295846
 21
80.031198
 31
0.0
  0
LINE
  8
0
  6
CONTINUOUS
  5
18D
 10
365.103708
 20
83.031198
 30
0.0
 11
365.603708
 21
84.031198
 31
0.0
  0
ARC
  8
0
  5
18E
 10
333.103708
 20
80.031198
 30
0.0
 40
65.0
 50
346.419843
 51
13.580157
  0
ARC
  8
0
  5
18F
 10
365.242597
 20
72.836754
 30
0.0
 40
31.476647
 50
344.700535
 51
11.349597
  0
LINE
  8
0
  5
190
 10
382.103708
 20
80.031198
 30
0.0
 11
382.103708
 21
64.56755
 31
0.0
  0
LINE
  8
0
  5
191
 10
383.1394
 20
63.568187
 30
0.0
 11
395.350112
 21
64.004284
 31
0.0
  0
LINE
  8
0
  5
192
 10
382.103708
 20
64.031198
 30
0.0
 11
395.603708
 21
64.531198
 31
0.0
  0
ARC
  8
0
  5
193
 10
383.103708
 20
64.56755
 30
0.0
 40
1.0
 50
180.0
 51
272.045408
  0
LINE
  8
0
  5
194
 10
395.603708
 20
64.531198
 30
0.0
 11
395.923991
 21
64.210915
 31
0.0
  0
ARC
  8
0
  5
195
 10
395.31442
 20
65.003647
 30
0.0
 40
1.0
 50
272.045408
 51
346.419843
  0
LINE
  8
0
  6
CONTINUOUS
  5
196
 10
382.103708
 20
93.531198
 30
0.0
 11
391.103708
 21
93.531198
 31
0.0
  0
LINE
  8
0
  5
197
 10
395.350112
 20
96.058113
 30
0.0
 11
383.1394
 21
96.494209
 31
0.0
  0
LINE
  8
0
  5
198
 10
389.180147
 20
93.531198
 30
0.0
 11
391.832684
 21
96.183735
 31
0.0
  0
LINE
  8
0
  6
CONTINUOUS
  5
199
 10
391.103708
 20
87.531198
 30
0.0
 11
382.103708
 21
87.531198
 31
0.0
  0
LINE
  8
0
  5
19A
 10
396.103708
 20
79.031198
 30
0.0
 11
382.103708
 21
79.031198
 31
0.0
  0
LINE
  8
0
  5
19B
 10
388.165429
 20
84.031198
 30
0.0
 11
396.853349
 21
92.719118
 31
0.0
  0
LINE
  8
0
  5
19C
 10
382.103708
 20
95.494847
 30
0.0
 11
382.103708
 21
84.031198
 31
0.0
  0
LINE
  8
0
  5
19D
 10
382.103708
 20
86.454759
 30
0.0
 11
383.180147
 21
87.531198
 31
0.0
  0
LINE
  8
0
  5
19E
 10
383.922788
 20
84.031198
 30
0.0
 11
387.422788
 21
87.531198
 31
0.0
  0
LINE
  8
0
  5
19F
 10
382.103708
 20
94.940041
 30
0.0
 11
383.639999
 21
96.476331
 31
0.0
  0
ARC
  8
0
  5
1A0
 10
383.103708
 20
95.494847
 30
0.0
 40
1.0
 50
87.954592
 51
180.0
  0
LINE
  8
0
  5
1A1
 10
384.937507
 20
93.531198
 30
0.0
 11
387.736341
 21
96.330033
 31
0.0
  0
LINE
  8
0
  6
CONTINUOUS
  5
1A2
 10
391.103708
 20
93.531198
 30
0.0
 11
391.103708
 21
87.531198
 31
0.0
  0
LINE
  8
0
  5
1A3
 10
392.408069
 20
84.031198
 30
0.0
 11
397.46906
 21
89.092189
 31
0.0
  0
LINE
  8
0
  5
1A4
 10
393.103708
 20
80.484196
 30
0.0
 11
397.892044
 21
85.272532
 31
0.0
  0
LINE
  8
0
  6
CONTINUOUS
  5
1A5
 10
393.103708
 20
84.031198
 30
0.0
 11
393.103708
 21
80.031198
 31
0.0
  0
LINE
  8
0
  5
1A6
 10
396.893351
 20
80.031198
 30
0.0
 11
398.092643
 21
81.230491
 31
0.0
  0
ARC
  8
0
  5
1A7
 10
395.353708
 20
80.031198
 30
0.0
 40
1.25
 50
306.869898
 51
0.0
  0
LINE
  8
0
  5
1A8
 10
391.103708
 20
91.212119
 30
0.0
 11
395.815652
 21
95.924063
 31
0.0
  0
ARC
  8
0
  5
1A9
 10
395.31442
 20
95.05875
 30
0.0
 40
1.0
 50
13.580157
 51
87.954592
  0
LINE
  8
0
  6
CONTINUOUS
  5
1AA
 10
341.795846
 20
113.531198
 30
0.0
 11
341.795846
 21
130.031198
 31
0.0
  0
LINE
  8
0
  5
1AB
 10
354.258857
 20
131.06689
 30
0.0
 11
353.82276
 21
143.277602
 31
0.0
  0
LINE
  8
0
  5
1AC
 10
353.7902
 20
130.183642
 30
0.0
 11
353.295846
 21
143.531198
 31
0.0
  0
ARC
  8
0
  5
1AD
 10
353.259494
 20
131.031198
 30
0.0
 40
1.0
 50
270.0
 51
2.045408
  0
LINE
  8
0
  5
1AE
 10
353.295846
 20
143.531198
 30
0.0
 11
353.616129
 21
143.851481
 31
0.0
  0
ARC
  8
0
  5
1AF
 10
352.823397
 20
143.241911
 30
0.0
 40
1.0
 50
2.045408
 51
76.419843
  0
LINE
  8
0
  5
1B0
 10
442.558339
 20
80.531198
 30
0.0
 11
412.558339
 21
80.531198
 31
0.0
  0
LINE
  8
0
  5
1B1
 10
412.558339
 20
79.531198
 30
0.0
 11
442.558339
 21
79.531198
 31
0.0
  0
LINE
  8
0
  5
1B2
 10
427.558339
 20
86.531198
 30
0.0
 11
441.558339
 21
81.531198
 31
0.0
  0
LINE
  8
0
  5
1B3
 10
427.558339
 20
87.531198
 30
0.0
 11
442.058339
 21
82.531198
 31
0.0
  0
LINE
  8
0
  5
1B4
 10
441.558339
 20
78.531198
 30
0.0
 11
427.558339
 21
73.531198
 31
0.0
  0
LINE
  8
0
  5
1B5
 10
442.058339
 20
77.531198
 30
0.0
 11
427.558339
 21
72.531198
 31
0.0
  0
LINE
  8
0
  5
1B6
 10
413.058339
 20
77.531198
 30
0.0
 11
411.058339
 21
80.031198
 31
0.0
  0
LINE
  8
0
  5
1B7
 10
413.558339
 20
78.531198
 30
0.0
 11
412.058339
 21
80.031198
 31
0.0
  0
LINE
  8
0
  5
1B8
 10
427.558339
 20
72.531198
 30
0.0
 11
413.058339
 21
77.531198
 31
0.0
  0
LINE
  8
0
  5
1B9
 10
427.558339
 20
73.531198
 30
0.0
 11
413.558339
 21
78.531198
 31
0.0
  0
LINE
  8
0
  5
1BA
 10
413.058339
 20
82.531198
 30
0.0
 11
427.558339
 21
87.531198
 31
0.0
  0
LINE
  8
0
  5
1BB
 10
413.558339
 20
81.531198
 30
0.0
 11
427.558339
 21
86.531198
 31
0.0
  0
LINE
  8
0
  5
1BC
 10
411.058339
 20
80.031198
 30
0.0
 11
413.058339
 21
82.531198
 31
0.0
  0
LINE
  8
0
  5
1BD
 10
412.058339
 20
80.031198
 30
0.0
 11
413.558339
 21
81.531198
 31
0.0
  0
LINE
  8
0
  6
CONTINUOUS
  5
1BE
 10
454.573517
 20
77.031198
 30
0.0
 11
454.573517
 21
83.031198
 31
0.0
  0
LINE
  8
0
  6
CONTINUOUS
  5
1BF
 10
455.073517
 20
84.031198
 30
0.0
 11
455.073517
 21
76.031198
 31
0.0
  0
LINE
  8
0
  5
1C0
 10
444.058339
 20
80.031198
 30
0.0
 11
442.058339
 21
77.531198
 31
0.0
  0
LINE
  8
0
  5
1C1
 10
443.058339
 20
80.031198
 30
0.0
 11
441.558339
 21
78.531198
 31
0.0
  0
LINE
  8
0
  6
CONTINUOUS
  5
1C2
 10
455.073517
 20
76.031198
 30
0.0
 11
454.573517
 21
77.031198
 31
0.0
  0
LINE
  8
0
  5
1C3
 10
441.558339
 20
81.531198
 30
0.0
 11
443.058339
 21
80.031198
 31
0.0
  0
LINE
  8
0
  5
1C4
 10
442.058339
 20
82.531198
 30
0.0
 11
444.058339
 21
80.031198
 31
0.0
  0
LINE
  8
0
  6
CONTINUOUS
  5
1C5
 10
454.573517
 20
83.031198
 30
0.0
 11
455.073517
 21
84.031198
 31
0.0
  0
ARC
  8
0
  5
1C6
 10
427.558339
 20
81.031198
 30
0.0
 40
65.0
 50
76.419843
 51
103.580157
  0
ARC
  8
0
  5
1C7
 10
434.752784
 20
113.170087
 30
0.0
 40
31.476647
 50
74.700535
 51
101.349597
  0
LINE
  8
0
  5
1C8
 10
412.094691
 20
130.031198
 30
0.0
 11
443.021988
 21
130.031198
 31
0.0
  0
LINE
  8
0
  6
CONTINUOUS
  5
1C9
 10
423.558339
 20
130.031198
 30
0.0
 11
423.558339
 21
110.531198
 31
0.0
  0
LINE
  8
0
  6
CONTINUOUS
  5
1CA
 10
431.558339
 20
110.531198
 30
0.0
 11
431.558339
 21
130.031198
 31
0.0
  0
LINE
  8
0
  6
CONTINUOUS
  5
1CB
 10
430.558339
 20
130.031198
 30
0.0
 11
430.558339
 21
110.031198
 31
0.0
  0
LINE
  8
0
  6
CONTINUOUS
  5
1CC
 10
424.558339
 20
110.031198
 30
0.0
 11
424.558339
 21
130.031198
 31
0.0
  0
LINE
  8
0
  6
CONTINUOUS
  5
1CD
 10
424.558339
 20
110.031198
 30
0.0
 11
430.558339
 21
110.031198
 31
0.0
  0
LINE
  8
0
  6
CONTINUOUS
  5
1CE
 10
431.558339
 20
110.531198
 30
0.0
 11
423.558339
 21
110.531198
 31
0.0
  0
LINE
  8
0
  6
CONTINUOUS
  5
1CF
 10
423.558339
 20
110.531198
 30
0.0
 11
424.558339
 21
110.031198
 31
0.0
  0
LINE
  8
0
  6
CONTINUOUS
  5
1D0
 10
430.558339
 20
110.031198
 30
0.0
 11
431.558339
 21
110.531198
 31
0.0
  0
ARC
  8
0
  5
1D1
 10
420.363895
 20
113.170087
 30
0.0
 40
31.476647
 50
78.650403
 51
105.299465
  0
LINE
  8
0
  5
1D2
 10
411.563986
 20
130.183642
 30
0.0
 11
412.058339
 21
143.531198
 31
0.0
  0
LINE
  8
0
  5
1D3
 10
411.531425
 20
143.277602
 30
0.0
 11
411.095328
 21
131.06689
 31
0.0
  0
ARC
  8
0
  5
1D4
 10
412.094691
 20
131.031198
 30
0.0
 40
1.0
 50
177.954592
 51
270.0
  0
LINE
  8
0
  5
1D5
 10
412.058339
 20
143.531198
 30
0.0
 11
411.738057
 21
143.851481
 31
0.0
  0
ARC
  8
0
  5
1D6
 10
412.530788
 20
143.241911
 30
0.0
 40
1.0
 50
103.580157
 51
177.954592
  0
LINE
  8
0
  5
1D7
 10
426.558339
 20
144.031198
 30
0.0
 11
426.558339
 21
130.031198
 31
0.0
  0
LINE
  8
0
  5
1D8
 10
428.558339
 20
144.031198
 30
0.0
 11
428.558339
 21
130.031198
 31
0.0
  0
ARC
  8
0
  5
1D9
 10
427.558339
 20
143.281198
 30
0.0
 40
1.25
 50
36.869898
 51
143.130102
  0
LINE
  8
0
  5
1DA
 10
444.02135
 20
131.06689
 30
0.0
 11
443.585254
 21
143.277602
 31
0.0
  0
LINE
  8
0
  5
1DB
 10
443.552693
 20
130.183642
 30
0.0
 11
443.058339
 21
143.531198
 31
0.0
  0
ARC
  8
0
  5
1DC
 10
443.021988
 20
131.031198
 30
0.0
 40
1.0
 50
270.0
 51
2.045408
  0
LINE
  8
0
  5
1DD
 10
443.058339
 20
143.531198
 30
0.0
 11
443.378622
 21
143.851481
 31
0.0
  0
ARC
  8
0
  5
1DE
 10
442.585891
 20
143.241911
 30
0.0
 40
1.0
 50
2.045408
 51
76.419843
  0
ARC
  8
0
  5
1DF
 10
425.573517
 20
80.031198
 30
0.0
 40
65.0
 50
346.419843
 51
13.580157
  0
ARC
  8
0
  5
1E0
 10
457.712406
 20
72.836754
 30
0.0
 40
31.476647
 50
344.700535
 51
11.349597
  0
LINE
  8
0
  5
1E1
 10
474.573517
 20
80.031198
 30
0.0
 11
474.573517
 21
64.56755
 31
0.0
  0
LINE
  8
0
  5
1E2
 10
475.609208
 20
63.568187
 30
0.0
 11
487.819921
 21
64.004284
 31
0.0
  0
LINE
  8
0
  5
1E3
 10
474.573517
 20
64.031198
 30
0.0
 11
488.073517
 21
64.531198
 31
0.0
  0
ARC
  8
0
  5
1E4
 10
475.573517
 20
64.56755
 30
0.0
 40
1.0
 50
180.0
 51
272.045408
  0
ARC
  8
0
  5
1E5
 10
487.784229
 20
65.003647
 30
0.0
 40
1.0
 50
272.045408
 51
346.419843
  0
LINE
  8
0
  5
1E6
 10
488.073517
 20
64.531198
 30
0.0
 11
488.3938
 21
64.210915
 31
0.0
  0
LINE
  8
0
  6
CONTINUOUS
  5
1E7
 10
474.573517
 20
93.531198
 30
0.0
 11
483.573517
 21
93.531198
 31
0.0
  0
LINE
  8
0
  5
1E8
 10
478.36981
 20
93.531198
 30
0.0
 11
481.135455
 21
96.296843
 31
0.0
  0
LINE
  8
0
  5
1E9
 10
487.819921
 20
96.058113
 30
0.0
 11
475.609208
 21
96.494209
 31
0.0
  0
LINE
  8
0
  6
CONTINUOUS
  5
1EA
 10
474.573517
 20
87.531198
 30
0.0
 11
483.573517
 21
87.531198
 31
0.0
  0
LINE
  8
0
  5
1EB
 10
477.355091
 20
84.031198
 30
0.0
 11
480.855091
 21
87.531198
 31
0.0
  0
LINE
  8
0
  5
1EC
 10
488.573517
 20
79.031198
 30
0.0
 11
474.573517
 21
79.031198
 31
0.0
  0
LINE
  8
0
  5
1ED
 10
474.573517
 20
95.494847
 30
0.0
 11
474.573517
 21
84.031198
 31
0.0
  0
LINE
  8
0
  5
1EE
 10
474.573517
 20
85.492265
 30
0.0
 11
476.61245
 21
87.531198
 31
0.0
  0
LINE
  8
0
  5
1EF
 10
474.573517
 20
93.977546
 30
0.0
 11
477.039112
 21
96.443141
 31
0.0
  0
ARC
  8
0
  5
1F0
 10
475.573517
 20
95.494847
 30
0.0
 40
1.0
 50
87.954592
 51
180.0
  0
LINE
  8
0
  6
CONTINUOUS
  5
1F1
 10
483.573517
 20
93.531198
 30
0.0
 11
483.573517
 21
87.531198
 31
0.0
  0
LINE
  8
0
  5
1F2
 10
483.573517
 20
90.249624
 30
0.0
 11
488.724119
 21
95.400226
 31
0.0
  0
LINE
  8
0
  5
1F3
 10
481.597732
 20
84.031198
 30
0.0
 11
489.478503
 21
91.91197
 31
0.0
  0
LINE
  8
0
  5
1F4
 10
486.083013
 20
80.031198
 30
0.0
 11
490.428124
 21
84.376309
 31
0.0
  0
LINE
  8
0
  5
1F5
 10
485.573517
 20
83.764343
 30
0.0
 11
490.052649
 21
88.243475
 31
0.0
  0
ARC
  8
0
  5
1F6
 10
487.823517
 20
80.031198
 30
0.0
 40
1.25
 50
306.869898
 51
0.0
  0
LINE
  8
0
  6
CONTINUOUS
  5
1F7
 10
485.573517
 20
84.031198
 30
0.0
 11
485.573517
 21
80.031198
 31
0.0
  0
LINE
  8
0
  5
1F8
 10
490.325654
 20
80.031198
 30
0.0
 11
490.573046
 21
80.278591
 31
0.0
  0
ARC
  8
0
  5
1F9
 10
487.784229
 20
95.05875
 30
0.0
 40
1.0
 50
13.580157
 51
87.954592
  0
LINE
  8
0
  5
1FA
 10
482.61245
 20
93.531198
 30
0.0
 11
485.231798
 21
96.150546
 31
0.0
  0
ENDSEC
  0
EOF
