  0
SECTION
  2
HEADER
  9
$ACADVER
  1
AC1009
  9
$INSBASE
 10
0.0
 20
0.0
 30
0.0
  9
$EXTMIN
 10
-15.0
 20
-15.78775
 30
0.0
  9
$EXTMAX
 10
34.654943
 20
39.923865
 30
0.0
  9
$LIMMIN
 10
0.0
 20
0.0
  9
$LIMMAX
 10
420.0
 20
297.0
  9
$ORTHOMODE
 70
     1
  9
$REGENMODE
 70
     1
  9
$FILLMODE
 70
     1
  9
$QTEXTMODE
 70
     0
  9
$MIRRTEXT
 70
     1
  9
$DRAGMODE
 70
     2
  9
$LTSCALE
 40
2.0
  9
$OSMODE
 70
     0
  9
$ATTMODE
 70
     1
  9
$TEXTSIZE
 40
5.0
  9
$TRACEWID
 40
0.05
  9
$TEXTSTYLE
  7
STANDARD
  9
$CLAYER
  8
0
  9
$CELTYPE
  6
BYLAYER
  9
$CECOLOR
 62
   256
  9
$DIMSCALE
 40
1.0
  9
$DIMASZ
 40
3.5
  9
$DIMEXO
 40
1.0
  9
$DIMDLI
 40
10.0
  9
$DIMRND
 40
0.0
  9
$DIMDLE
 40
0.0
  9
$DIMEXE
 40
2.0
  9
$DIMTP
 40
0.0
  9
$DIMTM
 40
0.0
  9
$DIMTXT
 40
3.5
  9
$DIMCEN
 40
2.5
  9
$DIMTSZ
 40
0.0
  9
$DIMTOL
 70
     0
  9
$DIMLIM
 70
     0
  9
$DIMTIH
 70
     0
  9
$DIMTOH
 70
     0
  9
$DIMSE1
 70
     0
  9
$DIMSE2
 70
     0
  9
$DIMTAD
 70
     1
  9
$DIMZIN
 70
     8
  9
$DIMBLK
  1

  9
$DIMASO
 70
     1
  9
$DIMSHO
 70
     1
  9
$DIMPOST
  1

  9
$DIMAPOST
  1

  9
$DIMALT
 70
     0
  9
$DIMALTD
 70
     2
  9
$DIMALTF
 40
25.4
  9
$DIMLFAC
 40
1.0
  9
$DIMTOFL
 70
     1
  9
$DIMTVP
 40
0.0
  9
$DIMTIX
 70
     0
  9
$DIMSOXD
 70
     0
  9
$DIMSAH
 70
     0
  9
$DIMBLK1
  1

  9
$DIMBLK2
  1

  9
$DIMSTYLE
  2
NORDIC
  9
$DIMCLRD
 70
     0
  9
$DIMCLRE
 70
     0
  9
$DIMCLRT
 70
     0
  9
$DIMTFAC
 40
1.0
  9
$DIMGAP
 40
2.0
  9
$LUNITS
 70
     2
  9
$LUPREC
 70
     4
  9
$SKETCHINC
 40
0.1
  9
$FILLETRAD
 40
1.0
  9
$AUNITS
 70
     0
  9
$AUPREC
 70
     2
  9
$MENU
  1
WIBERG12
  9
$ELEVATION
 40
0.0
  9
$PELEVATION
 40
0.0
  9
$THICKNESS
 40
0.0
  9
$LIMCHECK
 70
     0
  9
$BLIPMODE
 70
     1
  9
$CHAMFERA
 40
0.6
  9
$CHAMFERB
 40
0.6
  9
$SKPOLY
 70
     0
  9
$TDCREATE
 40
2450190.295523842
  9
$TDUPDATE
 40
2450190.295523842
  9
$TDINDWG
 40
0.0000000000
  9
$TDUSRTIMER
 40
0.0000000000
  9
$USRTIMER
 70
     1
  9
$ANGBASE
 50
0.0
  9
$ANGDIR
 70
     0
  9
$PDMODE
 70
     0
  9
$PDSIZE
 40
0.0
  9
$PLINEWID
 40
0.0
  9
$COORDS
 70
     2
  9
$SPLFRAME
 70
     0
  9
$SPLINETYPE
 70
     6
  9
$SPLINESEGS
 70
     8
  9
$ATTDIA
 70
     0
  9
$ATTREQ
 70
     1
  9
$HANDLING
 70
     1
  9
$HANDSEED
  5
253A
  9
$SURFTAB1
 70
     6
  9
$SURFTAB2
 70
     6
  9
$SURFTYPE
 70
     6
  9
$SURFU
 70
     6
  9
$SURFV
 70
     6
  9
$UCSNAME
  2

  9
$UCSORG
 10
0.0
 20
0.0
 30
0.0
  9
$UCSXDIR
 10
1.0
 20
0.0
 30
0.0
  9
$UCSYDIR
 10
0.0
 20
1.0
 30
0.0
  9
$PUCSNAME
  2

  9
$PUCSORG
 10
0.0
 20
0.0
 30
0.0
  9
$PUCSXDIR
 10
1.0
 20
0.0
 30
0.0
  9
$PUCSYDIR
 10
0.0
 20
1.0
 30
0.0
  9
$USERI1
 70
     0
  9
$USERI2
 70
     0
  9
$USERI3
 70
     0
  9
$USERI4
 70
     0
  9
$USERI5
 70
     0
  9
$USERR1
 40
0.0
  9
$USERR2
 40
0.0
  9
$USERR3
 40
0.0
  9
$USERR4
 40
0.0
  9
$USERR5
 40
0.0
  9
$WORLDVIEW
 70
     1
  9
$SHADEDGE
 70
     3
  9
$SHADEDIF
 70
    70
  9
$TILEMODE
 70
     1
  9
$MAXACTVP
 70
    16
  9
$PINSBASE
 10
0.0
 20
0.0
 30
0.0
  9
$PLIMCHECK
 70
     0
  9
$PEXTMIN
 10
1.000000E+20
 20
1.000000E+20
 30
1.000000E+20
  9
$PEXTMAX
 10
-1.000000E+20
 20
-1.000000E+20
 30
-1.000000E+20
  9
$PLIMMIN
 10
0.0
 20
0.0
  9
$PLIMMAX
 10
420.0
 20
297.0
  9
$UNITMODE
 70
     0
  9
$VISRETAIN
 70
     0
  9
$PLINEGEN
 70
     0
  9
$PSLTSCALE
 70
     1
  9
$TREEDEPTH
 70
  3020
  9
$DWGCODEPAGE
  3
dos850
  0
ENDSEC
  0
SECTION
  2
TABLES
  0
TABLE
  2
VPORT
 70
     2
  0
VPORT
  2
*ACTIVE
 70
     0
 10
0.0
 20
0.0
 11
1.0
 21
1.0
 12
29.71091
 22
11.508818
 13
0.0
 23
0.0
 14
1.0
 24
1.0
 15
10.0
 25
10.0
 16
0.0
 26
0.0
 36
1.0
 17
0.0
 27
0.0
 37
0.0
 40
81.034158
 41
1.767507
 42
50.0
 43
0.0
 44
0.0
 50
0.0
 51
0.0
 71
     0
 72
   100
 73
     1
 74
     1
 75
     0
 76
     0
 77
     0
 78
     0
  0
ENDTAB
  0
TABLE
  2
LTYPE
 70
    10
  0
LTYPE
  2
CONTINUOUS
 70
    64
  3
Solid line
 72
    65
 73
     0
 40
0.0
  0
LTYPE
  2
BORDER
 70
     0
  3
__ __ . __ __ . __ __ . __ __ . __ __ . __ __ .
 72
    65
 73
     6
 40
1.75
 49
0.5
 49
-0.25
 49
0.5
 49
-0.25
 49
0.0
 49
-0.25
  0
LTYPE
  2
CENTER
 70
     0
  3
____ _ ____ _ ____ _ ____ _ ____ _ ____ _ ____ 
 72
    65
 73
     4
 40
2.0
 49
1.25
 49
-0.25
 49
0.25
 49
-0.25
  0
LTYPE
  2
DASHDOT
 70
     0
  3
__ . __ . __ . __ . __ . __ . __ . __ . __ . __
 72
    65
 73
     4
 40
1.0
 49
0.5
 49
-0.25
 49
0.0
 49
-0.25
  0
LTYPE
  2
DASHED
 70
     0
  3
__ __ __ __ __ __ __ __ __ __ __ __ __ __ __ __
 72
    65
 73
     2
 40
0.75
 49
0.5
 49
-0.25
  0
LTYPE
  2
DIVIDE
 70
     0
  3
____ . . ____ . . ____ . . ____ . . ____ . . __
 72
    65
 73
     6
 40
1.25
 49
0.5
 49
-0.25
 49
0.0
 49
-0.25
 49
0.0
 49
-0.25
  0
LTYPE
  2
DOT
 70
     0
  3
. . . . . . . . . . . . . . . . . . . . . . . .
 72
    65
 73
     2
 40
0.25
 49
0.0
 49
-0.25
  0
LTYPE
  2
HIDDEN
 70
     0
  3
__ __ __ __ __ __ __ __ __ __ __ __ __ __ __ __
 72
    65
 73
     2
 40
0.375
 49
0.25
 49
-0.125
  0
LTYPE
  2
PHANTOM
 70
     0
  3
______  __  __  ______  __  __  ______  __  __ 
 72
    65
 73
     6
 40
2.5
 49
1.25
 49
-0.25
 49
0.25
 49
-0.25
 49
0.25
 49
-0.25
  0
LTYPE
  2
CENTERX2
 70
    64
  3
________  __  ________  __  ________  __  _____
 72
    65
 73
     4
 40
4.0
 49
2.5
 49
-0.5
 49
0.5
 49
-0.5
  0
ENDTAB
  0
TABLE
  2
LAYER
 70
    10
  0
LAYER
  2
0
 70
    64
 62
     7
  6
CONTINUOUS
  0
LAYER
  2
1
 70
     0
 62
     1
  6
CONTINUOUS
  0
LAYER
  2
2
 70
     0
 62
     2
  6
CONTINUOUS
  0
LAYER
  2
3
 70
     0
 62
     3
  6
CONTINUOUS
  0
LAYER
  2
4
 70
     0
 62
     4
  6
CONTINUOUS
  0
LAYER
  2
5
 70
     0
 62
     5
  6
CONTINUOUS
  0
LAYER
  2
6
 70
     0
 62
     6
  6
CONTINUOUS
  0
LAYER
  2
7
 70
     0
 62
     7
  6
CONTINUOUS
  0
LAYER
  2
VPORT
 70
     0
 62
     7
  6
CONTINUOUS
  0
LAYER
  2
AME_FRZ
 70
    65
 62
     7
  6
CONTINUOUS
  0
ENDTAB
  0
TABLE
  2
STYLE
 70
     1
  0
STYLE
  2
STANDARD
 70
     0
 40
0.0
 41
1.0
 50
0.0
 71
     0
 42
5.0
  3
txt
  4

  0
ENDTAB
  0
TABLE
  2
VIEW
 70
     0
  0
ENDTAB
  0
TABLE
  2
UCS
 70
     0
  0
ENDTAB
  0
TABLE
  2
APPID
 70
     2
  0
APPID
  2
ACAD
 70
    64
  0
APPID
  2
AME_SOL
 70
    64
  0
ENDTAB
  0
TABLE
  2
DIMSTYLE
 70
     5
  0
DIMSTYLE
  2
ACADUS
 70
     0
  3

  4

  5

  6

  7

 40
1.0
 41
0.18
 42
0.0625
 43
0.38
 44
0.18
 45
0.0
 46
0.0
 47
0.0
 48
0.0
140
0.18
141
0.09
142
0.0
143
25.4
144
1.0
145
0.0
146
1.0
147
0.09
 71
     0
 72
     0
 73
     1
 74
     1
 75
     0
 76
     0
 77
     0
 78
     0
170
     0
171
     2
172
     0
173
     0
174
     0
175
     0
176
     0
177
     0
178
     0
  0
DIMSTYLE
  2
NORDIC
 70
     0
  3

  4

  5

  6

  7

 40
1.0
 41
3.5
 42
1.0
 43
10.0
 44
2.0
 45
0.0
 46
0.0
 47
0.0
 48
0.0
140
3.5
141
2.5
142
0.0
143
25.4
144
1.0
145
0.0
146
1.0
147
2.0
 71
     0
 72
     0
 73
     0
 74
     0
 75
     0
 76
     0
 77
     1
 78
     8
170
     0
171
     2
172
     1
173
     0
174
     0
175
     0
176
     0
177
     0
178
     0
  0
DIMSTYLE
  2
RADIAL
 70
     0
  3

  4

  5

  6

  7

 40
1.0
 41
3.5
 42
1.0
 43
10.0
 44
2.0
 45
0.0
 46
0.0
 47
0.0
 48
0.0
140
3.5
141
2.5
142
0.0
143
25.4
144
1.0
145
0.0
146
1.0
147
2.0
 71
     0
 72
     0
 73
     0
 74
     1
 75
     0
 76
     0
 77
     1
 78
     8
170
     0
171
     2
172
     0
173
     0
174
     0
175
     0
176
     0
177
     0
178
     0
  0
DIMSTYLE
  2
NORTOL
 70
     0
  3

  4

  5

  6

  7

 40
1.0
 41
3.5
 42
1.0
 43
10.0
 44
2.0
 45
0.0
 46
0.0
 47
0.2
 48
0.1
140
3.5
141
2.5
142
0.0
143
25.4
144
1.0
145
0.7
146
0.71
147
2.0
 71
     1
 72
     0
 73
     0
 74
     0
 75
     0
 76
     0
 77
     0
 78
     8
170
     0
171
     2
172
     1
173
     0
174
     0
175
     0
176
     0
177
     0
178
     0
  0
DIMSTYLE
  2
RADTOL
 70
     0
  3

  4

  5

  6

  7

 40
1.0
 41
3.5
 42
1.0
 43
10.0
 44
2.0
 45
0.0
 46
0.0
 47
0.2
 48
0.1
140
3.5
141
2.5
142
0.0
143
25.4
144
1.0
145
0.7
146
0.7
147
2.0
 71
     1
 72
     0
 73
     0
 74
     1
 75
     0
 76
     0
 77
     0
 78
     8
170
     0
171
     2
172
     0
173
     0
174
     0
175
     0
176
     0
177
     0
178
     0
  0
ENDTAB
  0
ENDSEC
  0
SECTION
  2
BLOCKS
  0
BLOCK
  8
0
  5
2465
  2
AME_NIL
 70
    64
 10
0.0
 20
0.0
 30
0.0
  1
AME_NIL
  3
AME_NIL
  0
ENDBLK
  8
0
  5
2466
  0
BLOCK
  8
0
  5
2468
  2
AME_SOL
 70
    64
 10
0.0
 20
0.0
 30
0.0
  1
AME_SOL
  3
AME_SOL
  0
ENDBLK
  8
0
  5
2469
  0
BLOCK
  8
0
  5
2525
  2
*X2
 70
    65
 10
0.0
 20
0.0
 30
0.0
  1
AME_SOL
  3
*X
  0
LINE
  8
0
 62
     0
  5
2527
 10
-11.890873
 20
27.0
 30
0.0
 11
-1.650762
 21
37.240111
 31
0.0
  0
LINE
  8
0
 62
     0
  5
2528
 10
-14.950418
 20
27.475989
 30
0.0
 11
-4.737339
 21
37.689068
 31
0.0
  0
LINE
  8
0
 62
     0
  5
2529
 10
-14.539309
 20
31.422632
 30
0.0
 11
-7.823917
 21
38.138024
 31
0.0
  0
LINE
  8
0
 62
     0
  5
252A
 10
-14.128201
 20
35.369274
 30
0.0
 11
-10.910494
 21
38.586981
 31
0.0
  0
LINE
  8
0
 62
     0
  5
252B
 10
-8.355339
 20
27.0
 30
0.0
 11
0.0
 21
35.355339
 31
0.0
  0
LINE
  8
0
 62
     0
  5
252C
 10
-6.25
 20
25.569805
 30
0.0
 11
-5.0
 21
26.819805
 31
0.0
  0
LINE
  8
0
 62
     0
  5
252D
 10
-1.819805
 20
30.0
 30
0.0
 11
0.0
 21
31.819805
 31
0.0
  0
LINE
  8
0
 62
     0
  5
252E
 10
-4.284271
 20
24.0
 30
0.0
 11
-3.0
 21
25.284271
 31
0.0
  0
LINE
  8
0
 62
     0
  5
252F
 10
-3.0
 20
24.213203
 30
0.0
 11
-4.786797
 21
26.0
 31
0.0
  0
LINE
  8
0
 62
     0
  5
2530
 10
-5.0
 20
26.213203
 30
0.0
 11
-14.13083
 21
35.344033
 31
0.0
  0
LINE
  8
0
 62
     0
  5
2531
 10
-9.32233
 20
27.0
 30
0.0
 11
-14.464371
 21
32.14204
 31
0.0
  0
LINE
  8
0
 62
     0
  5
2532
 10
-12.857864
 20
27.0
 30
0.0
 11
-14.797912
 21
28.940047
 31
0.0
  0
LINE
  8
0
 62
     0
  5
2533
 10
-5.0
 20
29.748737
 30
0.0
 11
-13.683632
 21
38.432369
 31
0.0
  0
LINE
  8
0
 62
     0
  5
2534
 10
-1.715729
 20
30.0
 30
0.0
 11
-10.199257
 21
38.483528
 31
0.0
  0
LINE
  8
0
 62
     0
  5
2535
 10
0.0
 20
31.819805
 30
0.0
 11
-6.06193
 21
37.881735
 31
0.0
  0
LINE
  8
0
 62
     0
  5
2536
 10
0.0
 20
35.355339
 30
0.0
 11
-1.924603
 21
37.279942
 31
0.0
  0
ENDBLK
  8
0
  5
2537
  0
ENDSEC
  0
SECTION
  2
ENTITIES
  0
VIEWPORT
  8
0
  5
1
 67
     1
 68
    -1
 10
210.0
 20
152.094241
 30
0.0
 40
420.0
 41
304.188482
 69
     1
1001
ACAD
1000
MVIEW
1002
{
1070
    16
1010
0.0
1020
0.0
1030
0.0
1010
0.0
1020
0.0
1030
1.0
1040
0.0
1040
304.188482
1040
210.0
1040
152.094241
1040
50.0
1040
0.0
1040
0.0
1070
     0
1070
   100
1070
     1
1070
     1
1070
     1
1070
     0
1070
     0
1070
     0
1040
0.0
1040
0.0
1040
0.0
1040
1.0
1040
1.0
1040
0.0
1040
0.0
1070
     0
1002
{
1002
}
1002
}
  0
INSERT
  8
AME_FRZ
  5
2474
  2
AME_NIL
 10
0.0
 20
0.0
 30
0.0
  0
INSERT
  8
AME_FRZ
  5
2476
  2
AME_SOL
 10
0.0
 20
0.0
 30
0.0
1001
AME_SOL
1000
R2.1
1000
AME2
1000
sq mm
1070
     3
1070
     0
1070
     3
1000
wire
1040
45.0
1000
U
1040
5.0
1000
mm
1000
kg
1000
MILD_STEEL
1070
    25
1000
CSG
1070
     1
1070
     3
1070
     3
1070
     3
1070
     0
1000
cu mm
1070
     3
1070
     0
1005
2474
  0
LINE
  8
0
  5
247B
 10
-2.4
 20
4.0
 30
0.0
 11
2.4
 21
4.0
 31
0.0
  0
LINE
  8
0
  5
247C
 10
-6.25
 20
24.0
 30
0.0
 11
-3.0
 21
24.0
 31
0.0
  0
LINE
  8
0
  5
247D
 10
-15.0
 20
27.0
 30
0.0
 11
-6.25
 21
27.0
 31
0.0
  0
LINE
  8
0
  5
2481
 10
6.25
 20
24.0
 30
0.0
 11
6.25
 21
27.0
 31
0.0
  0
LINE
  8
0
  5
2482
 10
-6.25
 20
24.0
 30
0.0
 11
-6.25
 21
27.0
 31
0.0
  0
LINE
  8
0
  5
2483
 10
-15.0
 20
27.0
 30
0.0
 11
-13.857906
 21
37.964107
 31
0.0
  0
LINE
  8
0
  5
2484
 10
-12.719347
 20
38.850087
 30
0.0
 11
0.0
 21
37.0
 31
0.0
  0
LINE
  8
0
  5
2485
 10
0.0
 20
37.0
 30
0.0
 11
12.719347
 21
38.850087
 31
0.0
  0
LINE
  8
0
  5
2486
 10
13.857906
 20
37.964107
 30
0.0
 11
15.0
 21
27.0
 31
0.0
  0
LINE
  8
0
  5
2487
 10
3.0
 20
4.6
 30
0.0
 11
3.0
 21
24.0
 31
0.0
  0
LINE
  8
0
  5
2488
 10
-3.0
 20
4.6
 30
0.0
 11
-3.0
 21
26.0
 31
0.0
  0
LINE
  8
0
  5
2489
 10
-2.4
 20
4.0
 30
0.0
 11
-2.4
 21
24.4
 31
0.0
  0
LINE
  8
0
  5
248A
 10
2.4
 20
4.0
 30
0.0
 11
2.4
 21
24.0
 31
0.0
  0
LINE
  8
0
  5
248B
 10
-3.0
 20
4.6
 30
0.0
 11
3.0
 21
4.6
 31
0.0
  0
LINE
  8
0
  5
248C
 10
-3.0
 20
4.6
 30
0.0
 11
-2.4
 21
4.0
 31
0.0
  0
LINE
  8
0
  5
248D
 10
2.4
 20
4.0
 30
0.0
 11
3.0
 21
4.6
 31
0.0
  0
LINE
  8
0
  5
248E
 10
0.0
 20
-4.357534
 30
0.0
 11
0.0
 21
-14.785664
 31
0.0
  0
ARC
  8
0
  5
24B0
 10
-12.863287
 20
37.8605
 30
0.0
 40
1.0
 50
81.724107
 51
174.053137
  0
ARC
  8
0
  5
24B1
 10
12.863287
 20
37.8605
 30
0.0
 40
1.0
 50
5.946863
 51
98.275893
  0
ARC
  8
0
  5
24BF
 10
-12.0
 20
-9.571599
 30
0.0
 40
3.0
 50
105.154068
 51
254.845932
  0
ARC
  8
0
  5
24C5
 10
-11.75
 20
-9.571599
 30
0.0
 40
2.0
 50
105.461218
 51
254.538782
  0
LINE
  8
0
  5
24C6
 10
-12.784246
 20
-6.67592
 30
0.0
 11
-0.253789
 21
-3.388188
 31
0.0
  0
LINE
  8
0
  5
24C7
 10
-12.283172
 20
-7.643977
 30
0.0
 11
-0.2611
 21
-4.392222
 31
0.0
  0
LINE
  8
0
  5
24C8
 10
-12.283172
 20
-11.499221
 30
0.0
 11
-0.2611
 21
-14.750976
 31
0.0
  0
LINE
  8
0
  5
24C9
 10
-12.784246
 20
-12.467278
 30
0.0
 11
-0.253789
 21
-15.75501
 31
0.0
  0
LINE
  8
0
  5
24CA
 10
12.784246
 20
-12.467278
 30
0.0
 11
0.253789
 21
-15.75501
 31
0.0
  0
LINE
  8
0
  5
24CB
 10
12.283172
 20
-11.499221
 30
0.0
 11
0.2611
 21
-14.750976
 31
0.0
  0
LINE
  8
0
  5
24CC
 10
12.283172
 20
-7.643977
 30
0.0
 11
0.2611
 21
-4.392222
 31
0.0
  0
LINE
  8
0
  5
24CD
 10
12.784246
 20
-6.67592
 30
0.0
 11
0.253789
 21
-3.388188
 31
0.0
  0
ARC
  8
0
  5
24CE
 10
11.75
 20
-9.571599
 30
0.0
 40
2.0
 50
285.461218
 51
74.538782
  0
ARC
  8
0
  5
24CF
 10
12.0
 20
-9.571599
 30
0.0
 40
3.0
 50
285.154068
 51
74.845932
  0
ARC
  8
0
  5
24D0
 10
0.0
 20
-4.355447
 30
0.0
 40
1.0
 50
75.298169
 51
104.701831
  0
ARC
  8
0
  5
24D1
 10
0.0
 20
-5.357534
 30
0.0
 40
1.0
 50
74.864685
 51
105.135315
  0
ARC
  8
0
  5
24D2
 10
0.0
 20
-13.785664
 30
0.0
 40
1.0
 50
254.864685
 51
285.135315
  0
ARC
  8
0
  5
24D3
 10
0.0
 20
-14.78775
 30
0.0
 40
1.0
 50
255.298169
 51
284.701831
  0
LINE
  8
0
  5
24D7
 10
27.858925
 20
39.0
 30
0.0
 11
29.018659
 21
39.0
 31
0.0
  0
LINE
  8
0
  5
24D8
 10
22.255381
 20
27.0
 30
0.0
 11
34.654943
 21
27.0
 31
0.0
  0
LINE
  8
0
  5
24D9
 10
22.255381
 20
24.0
 30
0.0
 11
34.654943
 21
24.0
 31
0.0
  0
LINE
  8
0
  5
24DA
 10
30.838792
 20
4.0
 30
0.0
 11
30.838792
 21
24.0
 31
0.0
  0
LINE
  8
0
  5
24DB
 10
31.438792
 20
4.6
 30
0.0
 11
31.438792
 21
24.0
 31
0.0
  0
LINE
  8
0
  5
24DC
 10
25.438792
 20
4.6
 30
0.0
 11
31.438792
 21
4.6
 31
0.0
  0
LINE
  8
0
  5
24DD
 10
26.038792
 20
4.0
 30
0.0
 11
30.838792
 21
4.0
 31
0.0
  0
LINE
  8
0
  5
24DE
 10
30.838792
 20
4.0
 30
0.0
 11
31.438792
 21
4.6
 31
0.0
  0
LINE
  8
0
  5
24DF
 10
26.038792
 20
4.0
 30
0.0
 11
26.038792
 21
24.0
 31
0.0
  0
LINE
  8
0
  5
24E0
 10
25.438792
 20
4.6
 30
0.0
 11
25.438792
 21
24.0
 31
0.0
  0
LINE
  8
0
  5
24E1
 10
25.438792
 20
4.6
 30
0.0
 11
26.038792
 21
4.0
 31
0.0
  0
LINE
  8
0
  5
24F1
 10
25.938792
 20
27.0
 30
0.0
 11
26.862379
 21
38.083045
 31
0.0
  0
LINE
  8
0
  5
24F2
 10
30.015205
 20
38.083045
 30
0.0
 11
30.938792
 21
27.0
 31
0.0
  0
LINE
  8
0
  5
24F3
 10
22.255381
 20
27.0
 30
0.0
 11
23.1689
 21
36.424076
 31
0.0
  0
LINE
  8
0
  5
24F4
 10
34.654943
 20
27.0
 30
0.0
 11
33.710336
 21
36.426411
 31
0.0
  0
ARC
  8
0
  5
24F5
 10
27.858925
 20
38.0
 30
0.0
 40
1.0
 50
90.0
 51
175.236358
  0
ARC
  8
0
  5
24F6
 10
29.018659
 20
38.0
 30
0.0
 40
1.0
 50
4.763642
 51
90.0
  0
LINE
  8
0
  5
24F7
 10
23.751862
 20
37.238609
 30
0.0
 11
27.446552
 21
38.911015
 31
0.0
  0
LINE
  8
0
  5
24F8
 10
33.127692
 20
37.237717
 30
0.0
 11
29.431031
 21
38.911015
 31
0.0
  0
ARC
  8
0
  5
24F9
 10
24.164234
 20
36.327593
 30
0.0
 40
1.0
 50
114.353952
 51
174.463356
  0
ARC
  8
0
  5
24FA
 10
32.715319
 20
36.326702
 30
0.0
 40
1.0
 50
5.722427
 51
65.646048
  0
LINE
  8
0
  5
24FC
 10
22.255381
 20
24.0
 30
0.0
 11
22.255381
 21
27.0
 31
0.0
  0
LINE
  8
0
  5
24FD
 10
34.622203
 20
24.0
 30
0.0
 11
34.622203
 21
27.0
 31
0.0
  0
LINE
  8
0
  5
2500
 10
-5.0
 20
30.0
 30
0.0
 11
0.0
 21
30.0
 31
0.0
  0
LINE
  8
0
  5
2504
 10
-5.0
 20
26.0
 30
0.0
 11
-5.0
 21
30.0
 31
0.0
  0
LINE
  8
0
  5
2505
 10
-5.0
 20
26.0
 30
0.0
 11
0.0
 21
26.0
 31
0.0
  0
LINE
  8
0
  5
2506
 10
-2.75
 20
26.0
 30
0.0
 11
-2.75
 21
30.0
 31
0.0
  0
LINE
  8
0
  5
2507
 10
0.0
 20
27.0
 30
0.0
 11
15.0
 21
27.0
 31
0.0
  0
LINE
  8
0
  5
2508
 10
0.0
 20
24.0
 30
0.0
 11
6.25
 21
24.0
 31
0.0
  0
LINE
  8
0
  5
250B
 10
-3.0
 20
25.0
 30
0.0
 11
-2.4
 21
24.4
 31
0.0
  0
LINE
  8
0
  5
250C
 10
-2.4
 20
24.4
 30
0.0
 11
0.0
 21
24.4
 31
0.0
  0
INSERT
  8
0
  5
2526
  2
*X2
 10
0.0
 20
0.0
 30
0.0
1001
ACAD
1000
HATCH
1002
{
1070
    16
1000
ANSI37
1040
20.0
1040
0.0
1002
}
  0
LINE
  8
0
  6
CENTERX2
  5
2538
 10
0.0
 20
1.507284
 30
0.0
 11
0.0
 21
39.923865
 31
0.0
  0
ENDSEC
  0
EOF
