  0
SECTION
  2
HEADER
  9
$ACADVER
  1
AC1009
  9
$INSBASE
 10
0.0
 20
0.0
 30
0.0
  9
$EXTMIN
 10
-37.59512
 20
4.132421
 30
0.0
  9
$EXTMAX
 10
10.495921
 20
39.998868
 30
0.0
  9
$LIMMIN
 10
0.0
 20
0.0
  9
$LIMMAX
 10
12.0
 20
9.0
  9
$ORTHOMODE
 70
     1
  9
$REGENMODE
 70
     1
  9
$FILLMODE
 70
     1
  9
$QTEXTMODE
 70
     0
  9
$MIRRTEXT
 70
     1
  9
$DRAGMODE
 70
     2
  9
$LTSCALE
 40
4.0
  9
$OSMODE
 70
     0
  9
$ATTMODE
 70
     1
  9
$TEXTSIZE
 40
0.2
  9
$TRACEWID
 40
0.05
  9
$TEXTSTYLE
  7
STANDARD
  9
$CLAYER
  8
0
  9
$CELTYPE
  6
BYLAYER
  9
$CECOLOR
 62
   256
  9
$DIMSCALE
 40
1.0
  9
$DIMASZ
 40
2.5
  9
$DIMEXO
 40
0.0
  9
$DIMDLI
 40
5.0
  9
$DIMRND
 40
0.0
  9
$DIMDLE
 40
0.0
  9
$DIMEXE
 40
1.0
  9
$DIMTP
 40
0.0
  9
$DIMTM
 40
0.0
  9
$DIMTXT
 40
2.5
  9
$DIMCEN
 40
0.09
  9
$DIMTSZ
 40
0.0
  9
$DIMTOL
 70
     0
  9
$DIMLIM
 70
     0
  9
$DIMTIH
 70
     0
  9
$DIMTOH
 70
     0
  9
$DIMSE1
 70
     0
  9
$DIMSE2
 70
     0
  9
$DIMTAD
 70
     1
  9
$DIMZIN
 70
     0
  9
$DIMBLK
  1

  9
$DIMASO
 70
     0
  9
$DIMSHO
 70
     0
  9
$DIMPOST
  1

  9
$DIMAPOST
  1

  9
$DIMALT
 70
     0
  9
$DIMALTD
 70
     2
  9
$DIMALTF
 40
25.4
  9
$DIMLFAC
 40
1.0
  9
$DIMTOFL
 70
     1
  9
$DIMTVP
 40
0.0
  9
$DIMTIX
 70
     0
  9
$DIMSOXD
 70
     0
  9
$DIMSAH
 70
     0
  9
$DIMBLK1
  1

  9
$DIMBLK2
  1

  9
$DIMSTYLE
  2
*UNNAMED
  9
$DIMCLRD
 70
     0
  9
$DIMCLRE
 70
     0
  9
$DIMCLRT
 70
     0
  9
$DIMTFAC
 40
1.0
  9
$DIMGAP
 40
0.09
  9
$LUNITS
 70
     2
  9
$LUPREC
 70
     4
  9
$SKETCHINC
 40
0.1
  9
$FILLETRAD
 40
1.0
  9
$AUNITS
 70
     0
  9
$AUPREC
 70
     0
  9
$MENU
  1
wiberger
  9
$ELEVATION
 40
0.0
  9
$PELEVATION
 40
0.0
  9
$THICKNESS
 40
0.0
  9
$LIMCHECK
 70
     0
  9
$BLIPMODE
 70
     1
  9
$CHAMFERA
 40
0.0
  9
$CHAMFERB
 40
0.0
  9
$SKPOLY
 70
     0
  9
$TDCREATE
 40
2450190.293152662
  9
$TDUPDATE
 40
2450190.293152662
  9
$TDINDWG
 40
0.0000000000
  9
$TDUSRTIMER
 40
0.0000000000
  9
$USRTIMER
 70
     1
  9
$ANGBASE
 50
0.0
  9
$ANGDIR
 70
     0
  9
$PDMODE
 70
     0
  9
$PDSIZE
 40
0.0
  9
$PLINEWID
 40
0.0
  9
$COORDS
 70
     0
  9
$SPLFRAME
 70
     0
  9
$SPLINETYPE
 70
     6
  9
$SPLINESEGS
 70
     8
  9
$ATTDIA
 70
     0
  9
$ATTREQ
 70
     1
  9
$HANDLING
 70
     0
  9
$HANDSEED
  5
0
  9
$SURFTAB1
 70
     6
  9
$SURFTAB2
 70
     6
  9
$SURFTYPE
 70
     6
  9
$SURFU
 70
     6
  9
$SURFV
 70
     6
  9
$UCSNAME
  2

  9
$UCSORG
 10
0.0
 20
0.0
 30
0.0
  9
$UCSXDIR
 10
1.0
 20
0.0
 30
0.0
  9
$UCSYDIR
 10
0.0
 20
1.0
 30
0.0
  9
$PUCSNAME
  2

  9
$PUCSORG
 10
0.0
 20
0.0
 30
0.0
  9
$PUCSXDIR
 10
1.0
 20
0.0
 30
0.0
  9
$PUCSYDIR
 10
0.0
 20
1.0
 30
0.0
  9
$USERI1
 70
     0
  9
$USERI2
 70
     0
  9
$USERI3
 70
     0
  9
$USERI4
 70
     0
  9
$USERI5
 70
     0
  9
$USERR1
 40
0.0
  9
$USERR2
 40
0.0
  9
$USERR3
 40
0.0
  9
$USERR4
 40
0.0
  9
$USERR5
 40
0.0
  9
$WORLDVIEW
 70
     1
  9
$SHADEDGE
 70
     3
  9
$SHADEDIF
 70
    70
  9
$TILEMODE
 70
     1
  9
$MAXACTVP
 70
    16
  9
$PINSBASE
 10
0.0
 20
0.0
 30
0.0
  9
$PLIMCHECK
 70
     0
  9
$PEXTMIN
 10
1.000000E+20
 20
1.000000E+20
 30
1.000000E+20
  9
$PEXTMAX
 10
-1.000000E+20
 20
-1.000000E+20
 30
-1.000000E+20
  9
$PLIMMIN
 10
0.0
 20
0.0
  9
$PLIMMAX
 10
12.0
 20
9.0
  9
$UNITMODE
 70
     0
  9
$VISRETAIN
 70
     0
  9
$PLINEGEN
 70
     0
  9
$PSLTSCALE
 70
     0
  9
$TREEDEPTH
 70
  3020
  9
$DWGCODEPAGE
  3
undefined
  0
ENDSEC
  0
SECTION
  2
TABLES
  0
TABLE
  2
VPORT
 70
     2
  0
VPORT
  2
*ACTIVE
 70
     0
 10
0.0
 20
0.0
 11
1.0
 21
1.0
 12
-5.161152
 22
23.649358
 13
0.0
 23
0.0
 14
1.0
 24
1.0
 15
0.0
 25
0.0
 16
0.0
 26
0.0
 36
1.0
 17
0.0
 27
0.0
 37
0.0
 40
44.443187
 41
1.767507
 42
50.0
 43
0.0
 44
0.0
 50
0.0
 51
0.0
 71
     0
 72
   100
 73
     1
 74
     0
 75
     0
 76
     0
 77
     0
 78
     0
  0
ENDTAB
  0
TABLE
  2
LTYPE
 70
     3
  0
LTYPE
  2
CONTINUOUS
 70
    64
  3
Solid line
 72
    65
 73
     0
 40
0.0
  0
LTYPE
  2
CENTER
 70
    64
  3
____ _ ____ _ ____ _ ____ _ ____ _ ____ _ ____
 72
    65
 73
     4
 40
2.0
 49
1.25
 49
-0.25
 49
0.25
 49
-0.25
  0
LTYPE
  2
HIDDEN
 70
     0
  3
_ _ _ _ _ _ _ _ _ _ _ _ _ _ _ _ _ _ _ _ _ _ _
 72
    65
 73
     2
 40
0.375
 49
0.25
 49
-0.125
  0
ENDTAB
  0
TABLE
  2
LAYER
 70
     1
  0
LAYER
  2
0
 70
    64
 62
     7
  6
CONTINUOUS
  0
ENDTAB
  0
TABLE
  2
STYLE
 70
     1
  0
STYLE
  2
STANDARD
 70
     0
 40
0.0
 41
1.0
 50
0.0
 71
     0
 42
0.2
  3
txt
  4

  0
ENDTAB
  0
TABLE
  2
VIEW
 70
     0
  0
ENDTAB
  0
TABLE
  2
UCS
 70
     0
  0
ENDTAB
  0
TABLE
  2
APPID
 70
     1
  0
APPID
  2
ACAD
 70
    64
  0
ENDTAB
  0
TABLE
  2
DIMSTYLE
 70
     0
  0
ENDTAB
  0
ENDSEC
  0
SECTION
  2
BLOCKS
  0
BLOCK
  8
0
  2
*X0
 70
    65
 10
0.0
 20
0.0
 30
0.0
  3
*X
  0
LINE
  8
0
 62
     0
 10
-36.489896
 20
39.877636
 30
0.0
 11
-28.489896
 21
47.877636
 31
0.0
  0
LINE
  8
0
 62
     0
 10
-37.530069
 20
40.251677
 30
0.0
 11
-28.651286
 21
49.13046
 31
0.0
  0
LINE
  8
0
 62
     0
 10
-37.23234
 20
41.96362
 30
0.0
 11
-28.658085
 21
50.537875
 31
0.0
  0
LINE
  8
0
 62
     0
 10
-36.934611
 20
43.675562
 30
0.0
 11
-28.975229
 21
51.634944
 31
0.0
  0
LINE
  8
0
 62
     0
 10
-36.636881
 20
45.387505
 30
0.0
 11
-29.53889
 21
52.485496
 31
0.0
  0
LINE
  8
0
 62
     0
 10
-36.339152
 20
47.099448
 30
0.0
 11
-30.305602
 21
53.132998
 31
0.0
  0
LINE
  8
0
 62
     0
 10
-36.041423
 20
48.811391
 30
0.0
 11
-31.291932
 21
53.560881
 31
0.0
  0
LINE
  8
0
 62
     0
 10
-35.743694
 20
50.523333
 30
0.0
 11
-32.610906
 21
53.656121
 31
0.0
  0
LINE
  8
0
 62
     0
 10
-35.075683
 20
39.877636
 30
0.0
 11
-28.19512
 21
46.758199
 31
0.0
  0
LINE
  8
0
 62
     0
 10
-33.661469
 20
39.877636
 30
0.0
 11
-28.19512
 21
45.343986
 31
0.0
  0
LINE
  8
0
 62
     0
 10
-32.247256
 20
39.877636
 30
0.0
 11
-29.79512
 21
42.329772
 31
0.0
  0
LINE
  8
0
 62
     0
 10
-28.447256
 20
43.677636
 30
0.0
 11
-28.19512
 21
43.929772
 31
0.0
  0
LINE
  8
0
 62
     0
 10
-30.833042
 20
39.877636
 30
0.0
 11
-29.79512
 21
40.915559
 31
0.0
  0
LINE
  8
0
 62
     0
 10
-30.64512
 20
38.651345
 30
0.0
 11
-29.79512
 21
39.501345
 31
0.0
  0
LINE
  8
0
 62
     0
 10
-29.404615
 20
38.477636
 30
0.0
 11
-28.904615
 21
38.977636
 31
0.0
  0
LINE
  8
0
 62
     0
 10
-29.79512
 20
41.108828
 30
0.0
 11
-36.257165
 21
47.570874
 31
0.0
  0
LINE
  8
0
 62
     0
 10
-28.578141
 20
38.477636
 30
0.0
 11
-29.078141
 21
38.977636
 31
0.0
  0
LINE
  8
0
 62
     0
 10
-29.79512
 20
39.694615
 30
0.0
 11
-36.466678
 21
46.366173
 31
0.0
  0
LINE
  8
0
 62
     0
 10
-29.992355
 20
38.477636
 30
0.0
 11
-30.64512
 21
39.130401
 31
0.0
  0
LINE
  8
0
 62
     0
 10
-31.392355
 20
39.877636
 30
0.0
 11
-36.676191
 21
45.161473
 31
0.0
  0
LINE
  8
0
 62
     0
 10
-32.806568
 20
39.877636
 30
0.0
 11
-36.885705
 21
43.956772
 31
0.0
  0
LINE
  8
0
 62
     0
 10
-34.220782
 20
39.877636
 30
0.0
 11
-37.095218
 21
42.752072
 31
0.0
  0
LINE
  8
0
 62
     0
 10
-35.634995
 20
39.877636
 30
0.0
 11
-37.304731
 21
41.547371
 31
0.0
  0
LINE
  8
0
 62
     0
 10
-37.049209
 20
39.877636
 30
0.0
 11
-37.514244
 21
40.342671
 31
0.0
  0
LINE
  8
0
 62
     0
 10
-29.79512
 20
42.523042
 30
0.0
 11
-36.047652
 21
48.775574
 31
0.0
  0
LINE
  8
0
 62
     0
 10
-29.5355
 20
43.677636
 30
0.0
 11
-35.838139
 21
49.980275
 31
0.0
  0
LINE
  8
0
 62
     0
 10
-28.19512
 20
43.751469
 30
0.0
 11
-35.614437
 21
51.170786
 31
0.0
  0
LINE
  8
0
 62
     0
 10
-28.19512
 20
45.165682
 30
0.0
 11
-35.152959
 21
52.123522
 31
0.0
  0
LINE
  8
0
 62
     0
 10
-28.19512
 20
46.579896
 30
0.0
 11
-34.47772
 21
52.862496
 31
0.0
  0
LINE
  8
0
 62
     0
 10
-28.651286
 20
48.450276
 30
0.0
 11
-33.597465
 21
53.396454
 31
0.0
  0
LINE
  8
0
 62
     0
 10
-28.651286
 20
49.864489
 30
0.0
 11
-32.457175
 21
53.670378
 31
0.0
  0
LINE
  8
0
 62
     0
 10
-28.947506
 20
51.574923
 30
0.0
 11
-30.736439
 21
53.363856
 31
0.0
  0
ENDBLK
  8
0
  0
BLOCK
  8
0
  2
*X2
 70
    65
 10
0.0
 20
0.0
 30
0.0
  3
*X
  0
LINE
  8
0
 62
     0
 10
-29.79512
 20
22.530782
 30
0.0
 11
-27.29512
 21
25.030782
 31
0.0
  0
LINE
  8
0
 62
     0
 10
-29.79512
 20
23.944996
 30
0.0
 11
-27.3768
 21
26.363316
 31
0.0
  0
LINE
  8
0
 62
     0
 10
-29.79512
 20
25.359209
 30
0.0
 11
-28.372693
 21
26.781636
 31
0.0
  0
LINE
  8
0
 62
     0
 10
-29.79512
 20
26.773423
 30
0.0
 11
-29.786907
 21
26.781636
 31
0.0
  0
LINE
  8
0
 62
     0
 10
-28.830052
 20
22.081636
 30
0.0
 11
-27.29512
 21
23.616569
 31
0.0
  0
ENDBLK
  8
0
  0
ENDSEC
  0
SECTION
  2
ENTITIES
  0
ARC
  8
0
 10
-24.79512
 20
10.032421
 30
0.0
 40
5.9
 50
38.571846
 51
141.428154
  0
ARC
  8
0
 10
-14.49512
 20
10.032421
 30
0.0
 40
2.5
 50
291.724622
 51
68.275378
  0
ARC
  8
0
 10
-16.218348
 20
17.484418
 30
0.0
 40
5.472804
 50
223.588741
 51
290.609889
  0
ARC
  8
0
 10
-13.939901
 20
11.425881
 30
0.0
 40
1.0
 50
68.275378
 51
110.609889
  0
ARC
  8
0
 10
-13.939901
 20
8.63896
 30
0.0
 40
1.0
 50
249.390111
 51
291.724622
  0
ARC
  8
0
 10
-16.218348
 20
2.580423
 30
0.0
 40
5.472804
 50
69.390111
 51
136.411259
  0
ARC
  8
0
 10
-33.371891
 20
2.580423
 30
0.0
 40
5.472804
 50
43.588741
 51
110.609889
  0
ARC
  8
0
 10
-35.650339
 20
8.63896
 30
0.0
 40
1.0
 50
248.275378
 51
290.609889
  0
ARC
  8
0
 10
-35.650339
 20
11.425881
 30
0.0
 40
1.0
 50
69.390111
 51
111.724622
  0
ARC
  8
0
 10
-33.371891
 20
17.484418
 30
0.0
 40
5.472804
 50
249.390111
 51
316.411259
  0
ARC
  8
0
 10
-35.09512
 20
10.032421
 30
0.0
 40
2.5
 50
111.724622
 51
248.275378
  0
ARC
  8
0
 10
-24.79512
 20
10.032421
 30
0.0
 40
5.45
 50
31.925674
 51
148.074326
  0
CIRCLE
  8
0
 10
-24.79512
 20
10.032421
 30
0.0
 40
3.4
  0
LINE
  8
0
 10
-20.938953
 20
11.927241
 30
0.0
 11
-20.938953
 21
8.1376
 31
0.0
  0
ARC
  8
0
 10
-19.711696
 20
11.764203
 30
0.0
 40
1.238039
 50
64.576212
 51
172.432696
  0
ARC
  8
0
 10
-19.711696
 20
8.300638
 30
0.0
 40
1.238039
 50
187.567304
 51
295.423788
  0
ARC
  8
0
 10
-29.878543
 20
11.764203
 30
0.0
 40
1.238039
 50
7.567304
 51
115.423788
  0
LINE
  8
0
 10
-28.651286
 20
11.927241
 30
0.0
 11
-28.651286
 21
8.1376
 31
0.0
  0
ARC
  8
0
 10
-29.878543
 20
8.300638
 30
0.0
 40
1.238039
 50
244.576212
 51
352.432696
  0
ARC
  8
0
 10
-24.79512
 20
10.032421
 30
0.0
 40
5.45
 50
211.925674
 51
328.074326
  0
ARC
  8
0
 10
-24.79512
 20
10.032421
 30
0.0
 40
5.9
 50
218.571846
 51
321.428154
  0
ARC
  8
0
 10
-14.49512
 20
10.032421
 30
0.0
 40
1.5
 50
304.558584
 51
55.441416
  0
ARC
  8
0
 10
-16.218348
 20
17.484418
 30
0.0
 40
6.472804
 50
243.818772
 51
288.41049
  0
ARC
  8
0
 10
-16.218348
 20
2.580423
 30
0.0
 40
6.472804
 50
71.58951
 51
116.181228
  0
LINE
  8
0
 10
-19.938953
 20
11.137262
 30
0.0
 11
-19.938953
 21
8.927579
 31
0.0
  0
ARC
  8
0
 10
-19.338953
 20
11.137262
 30
0.0
 40
0.6
 50
63.818772
 51
180.0
  0
ARC
  8
0
 10
-19.338953
 20
8.927579
 30
0.0
 40
0.6
 50
180.0
 51
296.181228
  0
ARC
  8
0
 10
-13.984596
 20
10.773612
 30
0.0
 40
0.6
 50
55.441416
 51
108.41049
  0
ARC
  8
0
 10
-13.984596
 20
9.291229
 30
0.0
 40
0.6
 50
251.58951
 51
304.558584
  0
ARC
  8
0
 10
-35.605643
 20
9.291229
 30
0.0
 40
0.6
 50
235.441416
 51
288.41049
  0
ARC
  8
0
 10
-35.605643
 20
10.773612
 30
0.0
 40
0.6
 50
71.58951
 51
124.558584
  0
ARC
  8
0
 10
-35.09512
 20
10.032421
 30
0.0
 40
1.5
 50
124.558584
 51
235.441416
  0
ARC
  8
0
 10
-33.371891
 20
17.484418
 30
0.0
 40
6.472804
 50
251.58951
 51
296.181228
  0
ARC
  8
0
 10
-33.371891
 20
2.580423
 30
0.0
 40
6.472804
 50
63.818772
 51
108.41049
  0
ARC
  8
0
 10
-30.251286
 20
8.927579
 30
0.0
 40
0.6
 50
243.818772
 51
0.0
  0
ARC
  8
0
 10
-30.251286
 20
11.137262
 30
0.0
 40
0.6
 50
0.0
 51
116.181228
  0
LINE
  8
0
 10
-29.651286
 20
11.137262
 30
0.0
 11
-29.651286
 21
8.927579
 31
0.0
  0
LINE
  8
0
 10
-30.64512
 20
21.581636
 30
0.0
 11
-18.94512
 21
21.581636
 31
0.0
  0
LINE
  8
0
 10
-37.59512
 20
22.981636
 30
0.0
 11
-30.64512
 21
22.981636
 31
0.0
  0
LINE
  8
0
 10
-37.59512
 20
22.981636
 30
0.0
 11
-35.656286
 21
34.129928
 31
0.0
  0
LINE
  8
0
 10
-28.651286
 20
30.981636
 30
0.0
 11
-28.651286
 21
33.581636
 31
0.0
  0
LINE
  8
0
 10
-28.651286
 20
30.981636
 30
0.0
 11
-20.938953
 21
30.981636
 31
0.0
  0
ARC
  8
0
 10
-32.204245
 20
33.211117
 30
0.0
 40
3.572227
 50
5.953549
 51
165.09545
  0
LINE
  8
0
 10
-11.99512
 20
22.981636
 30
0.0
 11
-13.933953
 21
34.129928
 31
0.0
  0
ARC
  8
0
 10
-17.385994
 20
33.211117
 30
0.0
 40
3.572227
 50
14.90455
 51
174.046451
  0
LINE
  8
0
 10
-20.938953
 20
30.981636
 30
0.0
 11
-20.938953
 21
33.581636
 31
0.0
  0
LINE
  8
0
 10
-30.64512
 20
21.581636
 30
0.0
 11
-30.64512
 21
22.981636
 31
0.0
  0
LINE
  8
0
 10
-18.94512
 20
21.581636
 30
0.0
 11
-18.94512
 21
22.981636
 31
0.0
  0
LINE
  8
0
 10
-28.19512
 20
21.581636
 30
0.0
 11
-28.19512
 21
22.081636
 31
0.0
  0
LINE
  8
0
 10
-29.79512
 20
22.081636
 30
0.0
 11
-24.79512
 21
22.081636
 31
0.0
  0
LINE
  8
0
 10
-29.79512
 20
26.781636
 30
0.0
 11
-24.79512
 21
26.781636
 31
0.0
  0
LINE
  8
0
 10
-24.79512
 20
22.981636
 30
0.0
 11
-11.99512
 21
22.981636
 31
0.0
  0
LINE
  8
0
 10
-29.79512
 20
22.081636
 30
0.0
 11
-29.79512
 21
26.781636
 31
0.0
  0
LINE
  8
0
 10
-28.19512
 20
26.781636
 30
0.0
 11
-28.19512
 21
30.981636
 31
0.0
  0
LINE
  8
0
 10
-27.79512
 20
22.081636
 30
0.0
 11
-27.79512
 21
26.781636
 31
0.0
  0
LINE
  8
0
 10
-27.29512
 20
22.581636
 30
0.0
 11
-27.29512
 21
26.281636
 31
0.0
  0
LINE
  8
0
  6
CENTER
 10
-24.79512
 20
20.091157
 30
0.0
 11
-24.79512
 21
37.980675
 31
0.0
  0
INSERT
  8
0
  2
*X0
 10
0.0
 20
-16.896
 30
0.0
  0
LINE
  8
0
 10
-1.304079
 20
22.981636
 30
0.0
 11
10.495921
 21
22.981636
 31
0.0
  0
LINE
  8
0
 10
0.091252
 20
30.981636
 30
0.0
 11
2.812396
 21
30.981636
 31
0.0
  0
LINE
  8
0
 10
-1.304079
 20
22.981636
 30
0.0
 11
-0.90717
 21
30.037797
 31
0.0
  0
LINE
  8
0
 10
10.495921
 20
22.981636
 30
0.0
 11
10.099012
 21
30.037797
 31
0.0
  0
ARC
  8
0
 10
0.091252
 20
29.981636
 30
0.0
 40
1.0
 50
90.0
 51
176.780505
  0
ARC
  8
0
 10
9.100591
 20
29.981636
 30
0.0
 40
1.0
 50
3.219495
 51
90.0
  0
LINE
  8
0
 10
-1.254079
 20
21.581636
 30
0.0
 11
10.445921
 21
21.581636
 31
0.0
  0
LINE
  8
0
 10
10.445921
 20
21.581636
 30
0.0
 11
10.445921
 21
22.981636
 31
0.0
  0
LINE
  8
0
 10
-1.254079
 20
21.581636
 30
0.0
 11
-1.254079
 21
22.981636
 31
0.0
  0
LINE
  8
0
 10
2.202461
 20
22.981636
 30
0.0
 11
3.147991
 21
35.383343
 31
0.0
  0
LINE
  8
0
 10
6.989382
 20
22.981636
 30
0.0
 11
6.043852
 21
35.383343
 31
0.0
  0
ARC
  8
0
 10
4.595921
 20
35.334592
 30
0.0
 40
1.448751
 50
1.928392
 51
178.071608
  0
LINE
  8
0
 10
6.379447
 20
30.981636
 30
0.0
 11
9.100591
 21
30.981636
 31
0.0
  0
CIRCLE
  8
0
 10
-24.79512
 20
10.032421
 30
0.0
 40
3.0
  0
CIRCLE
  8
0
 10
-24.79512
 20
10.032421
 30
0.0
 40
2.5
  0
LINE
  8
0
 10
-27.29512
 20
26.281636
 30
0.0
 11
-24.79512
 21
26.281636
 31
0.0
  0
LINE
  8
0
 10
-27.29512
 20
22.581636
 30
0.0
 11
-24.79512
 21
22.581636
 31
0.0
  0
LINE
  8
0
 10
-27.79512
 20
26.781636
 30
0.0
 11
-27.29512
 21
26.281636
 31
0.0
  0
LINE
  8
0
 10
-27.79512
 20
22.081636
 30
0.0
 11
-27.29512
 21
22.581636
 31
0.0
  0
INSERT
  8
0
  2
*X2
 10
0.0
 20
0.0
 30
0.0
1001
ACAD
1000
HATCH
1002
{
1070
    16
1000
ANSI31
1040
8.0
1040
0.0
1002
}
  0
ENDSEC
  0
EOF
