  0
SECTION
  2
HEADER
  9
$ACADVER
  1
AC1009
  9
$INSBASE
 10
0.0
 20
0.0
 30
0.0
  9
$EXTMIN
 10
-87.305995
 20
-96.257796
 30
0.0
  9
$EXTMAX
 10
-15.731108
 20
-32.067409
 30
0.0
  9
$LIMMIN
 10
0.0
 20
0.0
  9
$LIMMAX
 10
12.0
 20
9.0
  9
$ORTHOMODE
 70
     1
  9
$REGENMODE
 70
     1
  9
$FILLMODE
 70
     1
  9
$QTEXTMODE
 70
     0
  9
$MIRRTEXT
 70
     1
  9
$DRAGMODE
 70
     2
  9
$LTSCALE
 40
7.0
  9
$OSMODE
 70
     0
  9
$ATTMODE
 70
     1
  9
$TEXTSIZE
 40
0.2
  9
$TRACEWID
 40
0.05
  9
$TEXTSTYLE
  7
STANDARD
  9
$CLAYER
  8
0
  9
$CELTYPE
  6
BYLAYER
  9
$CECOLOR
 62
   256
  9
$DIMSCALE
 40
1.0
  9
$DIMASZ
 40
2.5
  9
$DIMEXO
 40
0.0
  9
$DIMDLI
 40
5.0
  9
$DIMRND
 40
0.0
  9
$DIMDLE
 40
0.0
  9
$DIMEXE
 40
1.0
  9
$DIMTP
 40
0.0
  9
$DIMTM
 40
0.0
  9
$DIMTXT
 40
2.5
  9
$DIMCEN
 40
0.09
  9
$DIMTSZ
 40
0.0
  9
$DIMTOL
 70
     0
  9
$DIMLIM
 70
     0
  9
$DIMTIH
 70
     0
  9
$DIMTOH
 70
     0
  9
$DIMSE1
 70
     0
  9
$DIMSE2
 70
     0
  9
$DIMTAD
 70
     1
  9
$DIMZIN
 70
     0
  9
$DIMBLK
  1

  9
$DIMASO
 70
     0
  9
$DIMSHO
 70
     0
  9
$DIMPOST
  1

  9
$DIMAPOST
  1

  9
$DIMALT
 70
     0
  9
$DIMALTD
 70
     2
  9
$DIMALTF
 40
25.4
  9
$DIMLFAC
 40
1.0
  9
$DIMTOFL
 70
     1
  9
$DIMTVP
 40
0.0
  9
$DIMTIX
 70
     0
  9
$DIMSOXD
 70
     0
  9
$DIMSAH
 70
     0
  9
$DIMBLK1
  1

  9
$DIMBLK2
  1

  9
$DIMSTYLE
  2
*UNNAMED
  9
$DIMCLRD
 70
     0
  9
$DIMCLRE
 70
     0
  9
$DIMCLRT
 70
     0
  9
$DIMTFAC
 40
1.0
  9
$DIMGAP
 40
0.09
  9
$LUNITS
 70
     2
  9
$LUPREC
 70
     4
  9
$SKETCHINC
 40
0.1
  9
$FILLETRAD
 40
1.5
  9
$AUNITS
 70
     0
  9
$AUPREC
 70
     0
  9
$MENU
  1
wiberger
  9
$ELEVATION
 40
0.0
  9
$PELEVATION
 40
0.0
  9
$THICKNESS
 40
0.0
  9
$LIMCHECK
 70
     0
  9
$BLIPMODE
 70
     1
  9
$CHAMFERA
 40
0.0
  9
$CHAMFERB
 40
0.0
  9
$SKPOLY
 70
     0
  9
$TDCREATE
 40
2450190.400625463
  9
$TDUPDATE
 40
2450218.502011342
  9
$TDINDWG
 40
0.0004240741
  9
$TDUSRTIMER
 40
0.0004240741
  9
$USRTIMER
 70
     1
  9
$ANGBASE
 50
0.0
  9
$ANGDIR
 70
     0
  9
$PDMODE
 70
     0
  9
$PDSIZE
 40
0.0
  9
$PLINEWID
 40
0.0
  9
$COORDS
 70
     0
  9
$SPLFRAME
 70
     0
  9
$SPLINETYPE
 70
     6
  9
$SPLINESEGS
 70
     8
  9
$ATTDIA
 70
     0
  9
$ATTREQ
 70
     1
  9
$HANDLING
 70
     0
  9
$HANDSEED
  5
0
  9
$SURFTAB1
 70
     6
  9
$SURFTAB2
 70
     6
  9
$SURFTYPE
 70
     6
  9
$SURFU
 70
     6
  9
$SURFV
 70
     6
  9
$UCSNAME
  2

  9
$UCSORG
 10
0.0
 20
0.0
 30
0.0
  9
$UCSXDIR
 10
1.0
 20
0.0
 30
0.0
  9
$UCSYDIR
 10
0.0
 20
1.0
 30
0.0
  9
$PUCSNAME
  2

  9
$PUCSORG
 10
0.0
 20
0.0
 30
0.0
  9
$PUCSXDIR
 10
1.0
 20
0.0
 30
0.0
  9
$PUCSYDIR
 10
0.0
 20
1.0
 30
0.0
  9
$USERI1
 70
     0
  9
$USERI2
 70
     0
  9
$USERI3
 70
     0
  9
$USERI4
 70
     0
  9
$USERI5
 70
     0
  9
$USERR1
 40
0.0
  9
$USERR2
 40
0.0
  9
$USERR3
 40
0.0
  9
$USERR4
 40
0.0
  9
$USERR5
 40
0.0
  9
$WORLDVIEW
 70
     1
  9
$SHADEDGE
 70
     3
  9
$SHADEDIF
 70
    70
  9
$TILEMODE
 70
     1
  9
$MAXACTVP
 70
    16
  9
$PINSBASE
 10
0.0
 20
0.0
 30
0.0
  9
$PLIMCHECK
 70
     0
  9
$PEXTMIN
 10
1.000000E+20
 20
1.000000E+20
 30
1.000000E+20
  9
$PEXTMAX
 10
-1.000000E+20
 20
-1.000000E+20
 30
-1.000000E+20
  9
$PLIMMIN
 10
0.0
 20
0.0
  9
$PLIMMAX
 10
12.0
 20
9.0
  9
$UNITMODE
 70
     0
  9
$VISRETAIN
 70
     0
  9
$PLINEGEN
 70
     0
  9
$PSLTSCALE
 70
     0
  9
$TREEDEPTH
 70
  3020
  9
$DWGCODEPAGE
  3
undefined
  0
ENDSEC
  0
SECTION
  2
TABLES
  0
TABLE
  2
VPORT
 70
     2
  0
VPORT
  2
*ACTIVE
 70
     0
 10
0.0
 20
0.0
 11
1.0
 21
1.0
 12
-36.704622
 22
-64.162602
 13
0.0
 23
0.0
 14
1.0
 24
1.0
 15
0.0
 25
0.0
 16
0.0
 26
0.0
 36
1.0
 17
0.0
 27
0.0
 37
0.0
 40
71.322652
 41
1.767507
 42
50.0
 43
0.0
 44
0.0
 50
0.0
 51
0.0
 71
     0
 72
   100
 73
     1
 74
     0
 75
     0
 76
     0
 77
     0
 78
     0
  0
ENDTAB
  0
TABLE
  2
LTYPE
 70
     2
  0
LTYPE
  2
CONTINUOUS
 70
    64
  3
Solid line
 72
    65
 73
     0
 40
0.0
  0
LTYPE
  2
CENTER
 70
    64
  3
____ _ ____ _ ____ _ ____ _ ____ _ ____ _ ____
 72
    65
 73
     4
 40
2.0
 49
1.25
 49
-0.25
 49
0.25
 49
-0.25
  0
ENDTAB
  0
TABLE
  2
LAYER
 70
     1
  0
LAYER
  2
0
 70
    64
 62
     7
  6
CONTINUOUS
  0
ENDTAB
  0
TABLE
  2
STYLE
 70
     1
  0
STYLE
  2
STANDARD
 70
     0
 40
0.0
 41
1.0
 50
0.0
 71
     0
 42
0.2
  3
txt
  4

  0
ENDTAB
  0
TABLE
  2
VIEW
 70
     0
  0
ENDTAB
  0
TABLE
  2
UCS
 70
     0
  0
ENDTAB
  0
TABLE
  2
APPID
 70
     1
  0
APPID
  2
ACAD
 70
    64
  0
ENDTAB
  0
TABLE
  2
DIMSTYLE
 70
     0
  0
ENDTAB
  0
ENDSEC
  0
SECTION
  2
BLOCKS
  0
BLOCK
  8
0
  2
*X0
 70
    65
 10
0.0
 20
0.0
 30
0.0
  3
*X
  0
LINE
  8
0
 62
     0
 10
-83.245271
 20
-54.960999
 30
0.0
 11
-77.822675
 21
-49.538404
 31
0.0
  0
LINE
  8
0
 62
     0
 10
-83.829887
 20
-52.010081
 30
0.0
 11
-77.822675
 21
-46.00287
 31
0.0
  0
LINE
  8
0
 62
     0
 10
-84.414502
 20
-49.059163
 30
0.0
 11
-77.822675
 21
-42.467336
 31
0.0
  0
LINE
  8
0
 62
     0
 10
-84.999118
 20
-46.108245
 30
0.0
 11
-73.572675
 21
-34.681802
 31
0.0
  0
LINE
  8
0
 62
     0
 10
-85.583734
 20
-43.157327
 30
0.0
 11
-75.874753
 21
-33.448346
 31
0.0
  0
LINE
  8
0
 62
     0
 10
-86.16835
 20
-40.206409
 30
0.0
 11
-79.681178
 21
-33.719237
 31
0.0
  0
LINE
  8
0
 62
     0
 10
-86.752966
 20
-37.255491
 30
0.0
 11
-83.788048
 21
-34.290573
 31
0.0
  0
LINE
  8
0
 62
     0
 10
-82.660655
 20
-57.911918
 30
0.0
 11
-77.822675
 21
-53.073938
 31
0.0
  0
LINE
  8
0
 62
     0
 10
-82.076039
 20
-60.862836
 30
0.0
 11
-77.822675
 21
-56.609472
 31
0.0
  0
LINE
  8
0
 62
     0
 10
-80.95136
 20
-63.273691
 30
0.0
 11
-77.822675
 21
-60.145006
 31
0.0
  0
LINE
  8
0
 62
     0
 10
-77.822675
 20
-49.456545
 30
0.0
 11
-85.944895
 21
-41.334326
 31
0.0
  0
LINE
  8
0
 62
     0
 10
-77.822675
 20
-52.992079
 30
0.0
 11
-85.07141
 21
-45.743345
 31
0.0
  0
LINE
  8
0
 62
     0
 10
-77.822675
 20
-56.527613
 30
0.0
 11
-84.197925
 21
-50.152363
 31
0.0
  0
LINE
  8
0
 62
     0
 10
-77.822675
 20
-60.063147
 30
0.0
 11
-83.32444
 21
-54.561382
 31
0.0
  0
LINE
  8
0
 62
     0
 10
-78.295204
 20
-63.126152
 30
0.0
 11
-82.450955
 21
-58.970401
 31
0.0
  0
LINE
  8
0
 62
     0
 10
-77.822675
 20
-45.921011
 30
0.0
 11
-86.81838
 21
-36.925307
 31
0.0
  0
LINE
  8
0
 62
     0
 10
-77.822675
 20
-42.385477
 30
0.0
 11
-85.555966
 21
-34.652186
 31
0.0
  0
LINE
  8
0
 62
     0
 10
-76.959258
 20
-39.713361
 30
0.0
 11
-82.580504
 21
-34.092115
 31
0.0
  0
LINE
  8
0
 62
     0
 10
-74.717819
 20
-38.419266
 30
0.0
 11
-79.442127
 21
-33.694958
 31
0.0
  0
LINE
  8
0
 62
     0
 10
-73.572675
 20
-36.028876
 30
0.0
 11
-76.142204
 21
-33.459347
 31
0.0
  0
ENDBLK
  8
0
  0
BLOCK
  8
0
  2
*X1
 70
    65
 10
0.0
 20
0.0
 30
0.0
  3
*X
  0
LINE
  8
0
 62
     0
 10
-39.999738
 20
-50.60634
 30
0.0
 11
-34.464427
 21
-45.071029
 31
0.0
  0
LINE
  8
0
 62
     0
 10
-40.584354
 20
-47.655422
 30
0.0
 11
-34.464427
 21
-41.535495
 31
0.0
  0
LINE
  8
0
 62
     0
 10
-32.357181
 20
-39.428249
 30
0.0
 11
-29.464427
 21
-36.535495
 31
0.0
  0
LINE
  8
0
 62
     0
 10
-41.16897
 20
-44.704504
 30
0.0
 11
-29.869473
 21
-33.405007
 31
0.0
  0
LINE
  8
0
 62
     0
 10
-41.753586
 20
-41.753586
 30
0.0
 11
-33.544201
 21
-33.544201
 31
0.0
  0
LINE
  8
0
 62
     0
 10
-42.338201
 20
-38.802668
 30
0.0
 11
-37.484235
 21
-33.948701
 31
0.0
  0
LINE
  8
0
 62
     0
 10
-39.415122
 20
-53.557258
 30
0.0
 11
-34.464427
 21
-48.606563
 31
0.0
  0
LINE
  8
0
 62
     0
 10
-38.830506
 20
-56.508176
 30
0.0
 11
-34.464427
 21
-52.142097
 31
0.0
  0
LINE
  8
0
 62
     0
 10
-38.245891
 20
-59.459094
 30
0.0
 11
-34.464427
 21
-55.677631
 31
0.0
  0
LINE
  8
0
 62
     0
 10
-37.648796
 20
-62.397533
 30
0.0
 11
-34.464427
 21
-59.213165
 31
0.0
  0
LINE
  8
0
 62
     0
 10
-35.119352
 20
-63.403623
 30
0.0
 11
-34.464427
 21
-62.748698
 31
0.0
  0
LINE
  8
0
 62
     0
 10
-34.464427
 20
-46.852853
 30
0.0
 11
-42.294618
 21
-39.022662
 31
0.0
  0
LINE
  8
0
 62
     0
 10
-34.464427
 20
-50.388387
 30
0.0
 11
-41.421133
 21
-43.431681
 31
0.0
  0
LINE
  8
0
 62
     0
 10
-34.464427
 20
-53.92392
 30
0.0
 11
-40.547648
 21
-47.8407
 31
0.0
  0
LINE
  8
0
 62
     0
 10
-34.464427
 20
-57.459454
 30
0.0
 11
-39.674163
 21
-52.249718
 31
0.0
  0
LINE
  8
0
 62
     0
 10
-34.464427
 20
-60.994988
 30
0.0
 11
-38.800678
 21
-56.658737
 31
0.0
  0
LINE
  8
0
 62
     0
 10
-35.591326
 20
-63.403623
 30
0.0
 11
-37.927193
 21
-61.067756
 31
0.0
  0
LINE
  8
0
 62
     0
 10
-34.464427
 20
-43.317319
 30
0.0
 11
-42.394182
 21
-35.387564
 31
0.0
  0
LINE
  8
0
 62
     0
 10
-33.917254
 20
-40.328958
 30
0.0
 11
-39.91415
 21
-34.332062
 31
0.0
  0
LINE
  8
0
 62
     0
 10
-31.675816
 20
-39.034862
 30
0.0
 11
-36.845653
 21
-33.865025
 31
0.0
  0
LINE
  8
0
 62
     0
 10
-29.464427
 20
-37.710717
 30
0.0
 11
-33.625292
 21
-33.549852
 31
0.0
  0
LINE
  8
0
 62
     0
 10
-29.464427
 20
-34.175183
 30
0.0
 11
-30.231029
 21
-33.408581
 31
0.0
  0
ENDBLK
  8
0
  0
ENDSEC
  0
SECTION
  2
ENTITIES
  0
LINE
  8
0
 10
-80.340692
 20
-63.403623
 30
0.0
 11
-66.804659
 21
-63.403623
 31
0.0
  0
LINE
  8
0
 10
-81.812094
 20
-62.195128
 30
0.0
 11
-86.820362
 21
-36.9153
 31
0.0
  0
ARC
  8
0
 10
-73.572675
 20
-92.674457
 30
0.0
 40
59.270833
 50
78.634885
 51
101.365115
  0
ARC
  8
0
 10
-84.858492
 20
-36.526628
 30
0.0
 40
2.0
 50
101.365115
 51
191.205948
  0
ARC
  8
0
 10
-62.286859
 20
-36.526628
 30
0.0
 40
2.0
 50
348.794052
 51
78.634885
  0
LINE
  8
0
 10
-65.333256
 20
-62.195128
 30
0.0
 11
-60.324989
 21
-36.9153
 31
0.0
  0
ARC
  8
0
 10
-80.340692
 20
-61.903623
 30
0.0
 40
1.5
 50
191.205948
 51
270.0
  0
ARC
  8
0
 10
-66.804659
 20
-61.903623
 30
0.0
 40
1.5
 50
270.0
 51
348.794052
  0
CIRCLE
  8
0
 10
-73.572675
 20
-82.971979
 30
0.0
 40
13.285817
  0
LINE
  8
0
  6
CENTER
 10
-73.572675
 20
-65.377015
 30
0.0
 11
-73.572675
 21
-32.067409
 31
0.0
  0
LINE
  8
0
 10
-78.572675
 20
-43.403623
 30
0.0
 11
-73.572675
 21
-43.403623
 31
0.0
  0
LINE
  8
0
 10
-78.572675
 20
-63.403623
 30
0.0
 11
-78.572675
 21
-43.403623
 31
0.0
  0
LINE
  8
0
 10
-77.822675
 20
-62.653623
 30
0.0
 11
-77.822675
 21
-40.211855
 31
0.0
  0
LINE
  8
0
 10
-77.822675
 20
-40.211855
 30
0.0
 11
-73.572675
 21
-37.758117
 31
0.0
  0
LINE
  8
0
 10
-77.822675
 20
-62.653623
 30
0.0
 11
-73.572675
 21
-62.653623
 31
0.0
  0
LINE
  8
0
 10
-78.572675
 20
-63.403623
 30
0.0
 11
-77.822675
 21
-62.653623
 31
0.0
  0
INSERT
  8
0
  2
*X0
 10
0.0
 20
0.0
 30
0.0
1001
ACAD
1000
HATCH
1002
{
1070
    16
1000
ANSI37
1040
20.0
1040
0.0
1002
}
  0
LINE
  8
0
  6
CENTER
 10
-29.464427
 20
-65.377015
 30
0.0
 11
-29.464427
 21
-32.067409
 31
0.0
  0
LINE
  8
0
 10
-37.703846
 20
-62.195128
 30
0.0
 11
-42.712114
 21
-36.9153
 31
0.0
  0
LINE
  8
0
 10
-34.464427
 20
-63.403623
 30
0.0
 11
-34.464427
 21
-40.644868
 31
0.0
  0
LINE
  8
0
 10
-21.225008
 20
-62.195128
 30
0.0
 11
-16.216741
 21
-36.9153
 31
0.0
  0
LINE
  8
0
 10
-36.232444
 20
-63.403623
 30
0.0
 11
-22.696411
 21
-63.403623
 31
0.0
  0
CIRCLE
  8
0
 10
-29.464427
 20
-82.971979
 30
0.0
 40
13.285817
  0
ARC
  8
0
 10
-36.232444
 20
-61.903623
 30
0.0
 40
1.5
 50
191.205948
 51
270.0
  0
ARC
  8
0
 10
-22.696411
 20
-61.903623
 30
0.0
 40
1.5
 50
270.0
 51
348.794052
  0
ARC
  8
0
 10
-29.464427
 20
-92.674457
 30
0.0
 40
59.270833
 50
78.634885
 51
101.365115
  0
ARC
  8
0
 10
-40.750244
 20
-36.526628
 30
0.0
 40
2.0
 50
101.365115
 51
191.205948
  0
LINE
  8
0
 10
-34.464427
 20
-40.644868
 30
0.0
 11
-29.464427
 21
-37.758117
 31
0.0
  0
ARC
  8
0
 10
-18.178611
 20
-36.526628
 30
0.0
 40
2.0
 50
348.794052
 51
78.634885
  0
INSERT
  8
0
  2
*X1
 10
0.0
 20
0.0
 30
0.0
1001
ACAD
1000
HATCH
1002
{
1070
    16
1000
ANSI37
1040
20.0
1040
0.0
1002
}
  0
ENDSEC
  0
EOF
